Oops, an error
Loading. Please wait.

Stricken Tab

ver7
29,777 views 15 this week
4 commentsread comments
1 2 3 4 5
accurate
x 9
Autoscroll
+/-
esc
set tempo
stop
Contributor
Difficulty
intermediate
WARNING: You are trying to view
                                    content from Ultimate-Guitar.com
                                    in an unauthorized application,
                                    which is prohibited.

                                    Please use an official Ultimate
                                    Guitar Tabs application for iPhone,
                                    iPad or Android to access legitimate
                                    chords, guitar, bass, and drum tabs
                                    from Ultimate-Guitar.com database.

                                    Type "ultimate guitar tabs" in Apple
                                    App Store's or Android Market's
                                    search to find the application.
----------------------------------------------------------------------------
                             Stricken - Disturbed
----------------------------------------------------------------------------
Tabbed by:sgman1224
Email:

Tuning:C G C F A D

    This is how I hear the song. the end of the solo is hard to get by ear but
here is the whole song (but that). This song f'n rocks!

  
  Intro. 
d|-------------------------------------------------------------------------|
A|-------------------------------------------------------------------------|
F|---10\7------------------------------------------------------------------|
C|---10\7-----8\7-----2/3-----3/5-----3/6----------------------------------|
G|----8\5--0--8\7--0--2/3--0--3/5--0--3/6----------------------------------|
C|-0-------0--8\7--0--2/3--0--3/5--0--3/6----------------------------------|
           .       .       .       .
   cont.
e|-------------------------------------------------------------------------|
B|-------------------------------------------------------------------------|
G|-----10\7----------------------------------------------------------------|
D|-----10\7-----8\7-----2/3-----3/5-----3-3--------------------------------|
A|------8\5-----8\7-----2/3-----3/5-----3-3--------------------------------|
E|-0---------0--8\7--0--2/3--0--3/5--0--3-3--------------------------------|
             .       .       .       .
   cont.
d|-------------------------------------------------------------------------|
A|-------------------------------------------------------------------------|
F|-----10\7----------------------------------------------------------------|
C|-----10\7-----8\7-----2/3-----3/5-----3/6--------------------------------|
G|------8\5-----8\7-----2/3-----3/5-----3/6--------------------------------|
C|-0---------0--8\7--0--2/3--0--3/5--0--3/6--------------------------------|
             .       .       .       .    
   cont. 
  Gtr. 1   (fig 1)
d|-------------------------------------------------------------------------|
A|-------------------------------------------------------------------------|
F|--10---10-10-12-12-12-14-14-9-9-9-10-10-10-9-----------------------------|
C|--x----x--x--x--x--x--x--x--x-x-x-x--x--x--x-----------------------------|
G|--8----8--8--10-10-10-12-12-7-7-7-8--8--8--7-----------------------------|
C|-------------------------------------------------------------------------|

  Gtr. 2
d|-------------------------------------------------------------------------|
A|-------------------------------------------------------------------------|
F|-------------------------------------------------------------------------|
C|--3---3-3-3-3-3-3-3-7-7-7-7-7-7-7-----------play intro. 2x---------------|
G|--3---3-3-3-3-3-3-3-7-7-7-7-7-7-7----------------------------------------|
C|--3---3-3-3-3-3-3-3-7-7-7-7-7-7-7----------------------------------------|


  Pre-chorus
d|-------------------------------------------------------------------------|
A|-------------------------------------------------------------------------|
F|-------------------------------------------------------------------------|
C|-0-----------------------------------------------------------------------|
G|-0--0-0--0-0--0-0--0-0--3-5-0--0-0--0-0--0--0-3-5-3-3-3------------------|
C|-0--0-0--0-0--0-0--0-0--3-5-0--0-0--0-0--0--0-3-5-3-3-3------------------|
      . .  . .  . .  . .  . . .  . .  . .  .  . . . . . .                
  cont.
d|-------------------------------|
A|-------------------------------|
F|-------------------------------|
C|-------------------------------|
G|-0--0-0--0-0--0-0--0-0--3-5----|
C|-0--0-0--0-0--0-0--0-0--3-5----|
   .  . .  . .  . .  . .  . .    
  
cont.
  Gtr. 1
d|-------------------------------------------------------------------------|
A|-------------------------------------------------------------------------|
F|--10---10-10-12-12-12-14-14-9-9-9-10-10-10-9-----------------------------|
C|--x----x--x--x--x--x--x--x--x-x-x-x--x--x--x-----------------------------|
G|--8----8--8--10-10-10-12-12-7-7-7-8--8--8--7-----------------------------|
C|-------------------------------------------------------------------------|

  Gtr. 2
d|-------------------------------------------------------------------------|
A|-------------------------------------------------------------------------|
F|-------------------------------------------------------------------------|
C|--3---3-3-3-3-3-3-3-7-7-7-7-7-7-7------play pre-chorus 2x----------------|
G|--3---3-3-3-3-3-3-3-7-7-7-7-7-7-7----------------------------------------|
C|--3---3-3-3-3-3-3-3-7-7-7-7-7-7-7----------------------------------------|


  Chorus
d|-------------------------------------------------------------------------|
A|-------------------------------------------------------------------------|
F|--------10---------------------------------------------------------------|
C|-0---0--10--8--8-8-8-8-8-8-8--0---0--3--8--8-8-8-8-10-10-10--------------|
G|-0---0---8--8--8-8-8-8-7-7-7--0---0--3--8--8-8-8-8-10-10-10--------------|
C|-0---0------8--8-8-8-8-8-8-8--0---0--3--8--8-8-8-8-10-10-10--------------|

d|-------------------------------------------------------------------------|
A|-------------------------------------------------------------------------|
F|--------10---------------------------------------------------------------|
C|-0---0--10--8--8-8-8-8-8-8-8--3--3--3--5-5-5--3-2-2-2--------------------|
G|-0---0---8--8--8-8-8-8-7-7-7--3--3--3--5-5-5--3-2-2-2--------------------|
C|-0---0------8--8-8-8-8-8-8-8--3--3--3--5-5-5--3-2-2-2--------------------|
                                         . .    . . . .
d|-------------------------------------------------------------------------|
A|-------------------------------------------------------------------------|
F|--------10---------------------------------------------------------------|
C|-0---0--10--8--8-8-8-8-8-8-8--0---0--3--8--8-8-8-8-10-10-10--------------|
G|-0---0---8--8--8-8-8-8-7-7-7--0---0--3--8--8-8-8-8-10-10-10--------------|
C|-0---0------8--8-8-8-8-8-8-8--0---0--3--8--8-8-8-8-10-10-10--------------|

D|-------------------------------------------------------------------------|
A|-------------------------------------------------------------------------|
F|------10-----------------------------------------------------------------|
C|---0--10--8--8-8-8-8-8-8-8--3--3--3--5-5-5--3-2-2-2----------------------|
G|---0---8--8--8-8-8-8-7-7-7--3--3--3--5-5-5--3-2-2-2----------------------|
C|---0------8--8-8-8-8-8-8-8--3--3--3--5-5-5--3-2-2-2----------------------|
                                       . .    . . . .    
d|-------------------------------------------------------------------------|
A|-------------------------------------------------------------------------|
F|-------------------------------------------------------------------------|
C|-------------------------------------------------------------------------|
G|-------------------------------------------------------------------------|
C|-0-15p12-0-8p7-0-2h3-0-3h5-0-3h6-0--15p12-0-8p7-2h3-3h5-0-3ph------------|
           .     .     .     .              .             .
d|-------------------------------------------------------------------------|
A|-------------------------------------------------------------------------|
F|-------------------------------------------------------------------------|
C|-------------------------------------------------------------------------|
G|----------------------------------use fill (fig. 1)----------------------|
C|-0-15p12-0-8p7-0-2h3-0-3h5-0-3h6-----------------------------------------|
           .     .     .     .  
  now play pre-chorus 1x and then this:
  
d|-------------------------------------------------------------------------|
A|-------------------------------------------------------------------------|
F|-------------------------------------------------------------------------|
C|-------------------------------------------------------------------------|
G|-------------------------------------------------------------------------|
C|-0--0-0--0-0--0-0--0-0--3-5-0--0-0--0-0--0--0-3-5-3-3-3------------------|

d|-------------------------------------------------------------------------|
A|-------------------------------------------------------------------------|
F|-------------------------------------------------------------------------|
C|-------------------------------------------------------------------------|
G|-----------------------------use fill (fig. 1)---------------------------|
C|-0--0-0--0-0--0-0--0-0--3-5----------------------------------------------|

  now play the chorus again, then this:

d|-------------------------------|
A|-------------------------------|
F|----play 4x--------------------|     listen for rhythm
C|-------------------------------|
G|-0--0-x-x-0--0-x-x-0-0-x-x-----|
C|-0--0-x-x-0--0-x-x-0-0-x-x-----|

  Solo Gtr. 1
d|---------------------12-12b13-12-----------------------------------------|
A|--13b15--13~~-----15-------------15-----------------------------10b11----|
F|---------------14-------------------14\------10--12-12b13r12----10b11----|
C|------------------------------------------12-----------------12-------12-|
G|-------------------------------------------------------------------------|
C|-------------------------------------------------------------------------|

d|-------------------------------------------------------------------------|
A|----------10b11----------10-----------12b13r12-12b13r12-12b13r12-12b13r12|
F|----------10b11----------10-----------12b13r12-12b13r12-12b13r12-12b13r12|
C|-10-12-12-------12-10-12----12-10-12-------------------------------------|
G|-------------------------------------------------------------------------|
C|-------------------------------------------------------------------------|

d|-----12-13-12-------------15b17r15p13-15/17------20b22--20--17--18p17----|
A|--------------13-------13-------------------15~~----------------------18-|
F|-10--------------12-14---------------------------------------------------|
C|-------------------------------------------------------------------------|
G|-------------------------------------------------------------------------|
C|-------------------------------------------------------------------------|

d|-------------------------------------------------------------------------|
A|-----------------------------------------------------------------------13|
F|-17-19-19b21-21-21-21-21-21-21-21-21-21-21-21-21r19p17-19~~-10-12-12b14--|
C|-------------------------------------------------------------------------|
G|-------------------------------------------------------------------------|
C|-------------------------------------------------------------------------|

d|------10-13101210----13101210----13101210----13101210----13101210----1310|
A|b(14)------------1310--------1310--------1310--------1310--------1310----|
F|-------------------------------------------------------------------------|
C|-------------------------------------------------------------------------|
G|-------------------------------------------------------------------------|
C|-------------------------------------------------------------------------|

d|15101310--1015101310--1015101310--1015101310--1015-----------------------|
A|--------13----------13----------13----------13---------------------------|
F|----------------------------------------------------14-10-12-14-10-12-14-|
C|-------------------------------------------------------------------------|
G|-------------------------------------------------------------------------|
C|-------------------------------------------------------------------------|

d|-------------------------------------------------------------------------|
A|----------------------13b15-10h13p10-------------------------------------|
F|10-12-14-------9-10-9---------------131210--don't know-------------------|
C|---------10-12-----------------------------------------1214151412--12~~~-|
G|-----------------------------------------------------------------15------|
C|-------------------------------------------------------------------------|

   Gtr. 2 during solo.  repeat throuthout...
d|-------------------------------------------------------------------------|
A|-------------------------------------------------------------------------|
F|-------------------------------------------------------------------------|
C|-8--8--10-------------0--0-x-x-0--0-x-x-0-0-x-x-0--0-x-x-0--0-x-x-0-0-x-x|
G|-8--7--10-8--7--8--7\-0--0-x-x-0--0-x-x-0-0-x-x-0--0-x-x-0--0-x-x-0-0-x-x|
C|-8--8--8--8--8--8--8\-0--0-x-x-0--0-x-x-0-0-x-x-0--0-x-x-0--0-x-x-0-0-x-x|

  Gtr 2. during fast ending of solo.
d|-------------------------------------------------------------------------|
A|-------------------------------------------------------------------------|
F|-------------------------------5-----------------------------------------|
C|-7-7-7-7-7-7-7-7-5-5-5-3-3-2-2-5-----------------------------------------|
G|-7-7-7-7-7-7-7-7-5-5-5-3-3-2-2-3-----------------------------------------|
C|-7-7-7-7-7-7-7-7-5-5-5-3-3-2-2-------------------------------------------|
                   . .
  pre-chorus w/ wah/flange? -- repeat w/o effect
d|-------------------------------------------------------------------------|
A|-------------------------------------------------------------------------|
F|-------------------------------------------------------------------------|
C|-------------------------------------------------------------------------|
G|-------------------------------------------------------------------------|
C|-0--0-0--0-0--0-0--0-0-3-5-0--0-0--0-0--0--0-3-5-3-3-3-0-----------------|

d|-------------------------------------------------------------------------|
A|-------------------------------------------------------------------------|
F|-------------------------------------------------------------------------|
C|-------------------------------------------------------------------------|
G|-----------------------------use fill (fig. 1)---------------------------|
C|-0--0-0--0-0--0-0--0-0--3-5----------------------------------------------|


                 
D|--------------------------|---------------------------|
A|-----play 3x--------------|--then---------------------|
F|--------------------------|---------------------------|
C|-0---0--0---8--8-8--8--8--|---3--3--3--5-5-5--3-2-2-2-|
G|-0---0--0---8--8-8--8--8--|---3--3--3--5-5-5--3-2-2-2-|
C|-0---0--0---8--8-8--8--8--|---3--3--3--5-5-5--3-2-2-2-|
                                         . .    . . . .


d|--------------------------|-----------------------------------------|
A|-----play 3x--------------|--then-----------------------------------|
F|--------------------------|-----------------------------------------|
C|-0---0--0---8--8-8--8--8--|-5-5-5--5-5-4-4-4--4-4-5-5-5--5-5-4-4-5-5|
G|-0---0--0---8--8-8--8--8--|-5-5-5--5-5-4-4-4--4-4-5-5-5--5-5-4-4-7-5|
C|-0---0--0---8--8-8--8--8--|-5-5-5--5-5-5-5-5--5-5-5-5-5--5-5-5-5-5-5|
                                         . .    . . . .

 Outro. (play 3x)   
d|-------------------------------------------------------------------------|
A|-------------------------------------------------------------------------|
F|---10\7------------------------------10\7--------------------------------|
C|---10\7----8\7-----2/3-0-0-0-0-3/6---10\7-----8\7-----2/3----------------|
G|----8\5-0--8\7--0--2/3-0-0-0-0-3/6----8\5--0--8\7--0--2/3-0-0-0-0-0-0----|
C|-0------0--8\7--0--2/3-0-0-0-0-3/6-0-------0--8\7--0--2/3-0-0-0-0-0-0----|
          .       .      . . . .             .       .      . . . . . . 

on the second time through the outro hold your finger over the open C and while
picking slide from 3 to 7 for the harmonic. kinda cool.

 End of outro.
d|-------------------------------------------------------------------------|
A|-------------------------------------------------------------------------|
F|---10\7------------------------------10\7--------------------------------|
C|---10\7----8\7-----2/3-0-0-0-0-3/6---10\7-----8\7-----2/3-------------0--|
G|----8\5-0--8\7--0--2/3-0-0-0-0-3/6----8\5--0--8\7--0--2/3-0-0-0-0-0-0-0--|
C|-0------0--8\7--0--2/3-0-0-0-0-3/6-0-------0--8\7--0--2/3-0-0-0-0-0-0-0--|
          .       .      . . . .             .       .      . . . . . .      




| ph pinch harmonic (with pick)
| /  slide up
| \  slide down
| h  hammer-on
| p  pull-off
| ~  vibrato
| +  harmonic
| x  Mute note
============================================================================
comments
print report bad tab
4 comments total. Showing first comments.
0 reply
Operator (CA) wrote on October 17 2005, 04:33 pm

best chorus i've seen!

0 reply
Lightning Bolt wrote on January 25 2007, 06:52 pm

Damn Nice Chorus Thats the right one.

-1 reply
big_pimpin wrote on October 7 2007, 01:44 pm

nice but you just copied outta the book and added a couple of notes that sholdn't be there

I want to post or [tab]
guest
You may want to rate the tab now too:
select rating
Please do not post tabs as comments. Select "correction" instead!