Oops, an error
Loading. Please wait.

Stricken Tab

ver8
55,029 views 127 this week
5 commentsread comments
1 2 3 4 5
accurate
x 5
Autoscroll
+/-
esc
set tempo
stop
Difficulty
advanced
WARNING: You are trying to view
                                    content from Ultimate-Guitar.com
                                    in an unauthorized application,
                                    which is prohibited.

                                    Please use an official Ultimate
                                    Guitar Tabs application for iPhone,
                                    iPad or Android to access legitimate
                                    chords, guitar, bass, and drum tabs
                                    from Ultimate-Guitar.com database.

                                    Type "ultimate guitar tabs" in Apple
                                    App Store's or Android Market's
                                    search to find the application.
Artist: Disturbed
Title: Stricken
Album: Ten Thousand Fists

Tabbed By: Jason Sayers

Gtr I (C G C F A D) - 'Dan'
Gtr II (C G C F A D) - 'Dan'

 Intro
  Q=87
  D5F5 D5  BbA5  E5F5  F5G5  F5AbD5      F5 D5  BbA5  E5F5  F5G5  F5  D5
 4/4
  Gtr I
  S  S S S S S S S S S S S S S S S   +S   S S S S S S S S S S S S S S S
|----------------------------------|-------------------------------------|
|----------------------------------|-------------------------------------|
|----------------------------------|-------------------------------------|
|---10S7---------------------------|-----10S7----------------------------|
|-0--8S5---8S7---2S3---3-5---3-6-0-|-(0)--8S5---8S7---2S3---3-5---3-3-0--|
|-0--------8S7---2S3---3-5---3-6-0-|-(0)--------8S7---2S3---3-5---3-3-0--|


  D5  F5 D5  BbA5  E5F5  F5G5  F5AbF5            C5/FF5  A5      Fmaj7/A5D5
  +S   S S S S S S S S S S S S S S S   +S  S S S S S S S S S S S  S  S S S
|------------------------------------|-------------------------------------|
|------------------------------------|-------------------------------------|
|------------------------------------|-------------------9-9-9-9-10-10-9---|
|-----10S7-------------------------3-|-(3)-3-3-3-5-5-3-x-7-7-7-7--7--7-7---|
|-(0)--8S5---8S7---2S3---3-5---3-6-3-|-(3)-3-3-3-3-3-3-x-7-7-7-7--7--7-7-0-|
|-(0)--------8S7---2S3---3-5---3-6-3-|-(3)-3-3-3-3-3-3-x-7-7-7-7--7--7-7-0-|


  D5  F5 D5  BbA5  E5F5  F5G5  F5AbD5      F5 D5  BbA5  E5F5  F5G5  F5  D5
  +S   S S S S S S S S S S S S S S S   +S   S S S S S S S S S S S S S S S
|------------------------------------|------------------------------------|
|------------------------------------|------------------------------------|
|------------------------------------|------------------------------------|
|-----10S7---------------------------|-----10S7---------------------------|
|-(0)--8S5---8S7---2S3---3-5---3-6-0-|-(0)--8S5---8S7---2S3---3-5---3-3-0-|
|-(0)--------8S7---2S3---3-5---3-6-0-|-(0)--------8S7---2S3---3-5---3-3-0-|


  D5  F5 D5  BbA5  E5F5  F5G5  F5AbF5            C5/FF5  A5      Fmaj7/A5D5
  +S   S S S S S S S S S S S S S S S   +S  S S S S S S S S S S S  S  S S S
|------------------------------------|-------------------------------------|
|------------------------------------|-------------------------------------|
|------------------------------------|-------------------9-9-9-9-10-10-9---|
|-----10S7-------------------------3-|-(3)-3-3-3-5-5-3-x-7-7-7-7--7--7-7---|
|-(0)--8S5---8S7---2S3---3-5---3-6-3-|-(3)-3-3-3-3-3-3-x-7-7-7-7--7--7-7-0-|
|-(0)--------8S7---2S3---3-5---3-6-3-|-(3)-3-3-3-3-3-3-x-7-7-7-7--7--7-7-0-|


 Verse
    D5                      F5AbD5                      F5AbD5F5  D5
  S S S S S S S S S S S S S S S S   S S S S S S S S S S S S S S S S
|---------------------------------|---------------------------------|
|---------------------------------|---------------------------------|
|---------------------------------|---------------------------------|
|---------------------------------|---------------------------------|
|---0-0---0-0---0-0---0-0---3-6-0-|---0-0---0-0---0---0-3-6-0-3-3-0-|
|---0-0---0-0---0-0---0-0---3-6-0-|---0-0---0-0---0---0-3-6-0-3-3-0-|


    D5                      F5AbF5      F5    C5/FF5  A5      Fmaj7/A5D5
  S S S S S S S S S S S S S S S S   +S  S S S S S S S S S S S  S  S S S
|---------------------------------|-------------------------------------|
|---------------------------------|-------------------------------------|
|---------------------------------|-------------------9-9-9-9-10-10-9---|
|-------------------------------3-|-(3)-3-3-3-5-5-3-x-7-7-7-7--7--7-7---|
|---0-0---0-0---0-0---0-0---3-6-3-|-(3)-3-3-3-3-3-3-x-7-7-7-7--7--7-7-0-|
|---0-0---0-0---0-0---0-0---3-6-3-|-(3)-3-3-3-3-3-3-x-7-7-7-7--7--7-7-0-|


    D5                      F5AbD5                      F5AbD5F5  D5
  S S S S S S S S S S S S S S S S   S S S S S S S S S S S S S S S S
|---------------------------------|---------------------------------|
|---------------------------------|---------------------------------|
|---------------------------------|---------------------------------|
|---------------------------------|---------------------------------|
|---0-0---0-0---0-0---0-0---3-6-0-|---0-0---0-0---0---0-3-6-0-3-3-0-|
|---0-0---0-0---0-0---0-0---3-6-0-|---0-0---0-0---0---0-3-6-0-3-3-0-|


    D5                      F5AbF5            C5/FF5  A5      Fmaj7/A5
  S S S S S S S S S S S S S S S S   +S  S S S S S S S S S S S  S  S E
|---------------------------------|------------------------------------|
|---------------------------------|------------------------------------|
|---------------------------------|-------------------9-9-9-9-10-10-9--|
|-------------------------------3-|-(3)-3-3-3-5-5-3-x-7-7-7-7--7--7-7--|
|---0-0---0-0---0-0---0-0---3-6-3-|-(3)-3-3-3-3-3-3-x-7-7-7-7--7--7-7--|
|---0-0---0-0---0-0---0-0---3-6-3-|-(3)-3-3-3-3-3-3-x-7-7-7-7--7--7-7--|


 Chorus
  D5   F5 Bb5N.C.                      D5   G5Bb5        C5
  E. S  E E.  S   S   S   S   S   E    E. S E E. S S S S  S  S  S
|------------------------------------|----------------------------|
|------------------------------------|----------------------------|
|------------------------------------|----------------------------|
|-0--0-10-3---3---3---3---2---2---1--|-0--0-----------------------|
|-0--0--8-1--(1)-(1)-(1)-(1)-(1)-(1)-|-0--0-5-8--8-8-8-8-10-10-10-|
|-0--0-------------------------------|-0--0-5-8--8-8-8-8-10-10-10-|


  D5   F5 Bb5                        F5      G5
                                             PM|
  E. S  E E.  S   S   S   S   S  E   E. E. E S S S. T S S S S
|----------------------------------|----------------------------|
|----------------------------------|----------------------------|
|----------------------------------|----------------------------|
|-0--0-10-3---3---3---3---2---2----|----------------------------|
|-0--0--8-1--(1)-(1)-(1)-(1)-(1)---|-3--3--3-5-5-5----x-x-x-x---|
|-0--0---------------------------8S|=3--3--3-5-5-5----x-x-x-x---|


  D5   F5 Bb5N.C.                      D5   G5Bb5        C5
  E. S  E E.  S   S   S   S   S   E    E. S E E. S S S S  S  S  S
|------------------------------------|----------------------------|
|------------------------------------|----------------------------|
|------------------------------------|----------------------------|
|-0--0-10-3---3---3---3---2---2---1--|-0--0-----------------------|
|-0--0--8-1--(1)-(1)-(1)-(1)-(1)-(1)-|-0--0-5-8--8-8-8-8-10-10-10-|
|-0--0-------------------------------|-0--0-5-8--8-8-8-8-10-10-10-|


  D5   F5 Bb5                        F5      G5       Eb5
                                             PM|
  E. S  E E.  S   S   S   S   S  E   E. E. E S S S. T S S S S
|----------------------------------|----------------------------|
|----------------------------------|----------------------------|
|----------------------------------|----------------------------|
|-0--0-10-3---3---3---3---2---2----|----------------------------|
|-0--0--8-1--(1)-(1)-(1)-(1)-(1)---|-3--3--3-5-5-5----1-1-1-1---|
|-0--0---------------------------8S|=3--3--3-5-5-5----1-1-1-1---|


 Pre Verse
  N.C.
                                                               ~~~~~~
  S S S S S S S S S S S S S S S S   +S  S S S S S S S S S S S  E.   S
|---------------------------------|-----------------------------------|
|---------------------------------|-----------------------------------|
|---------------------------------|-----------------------------------|
|---------------------------------|-----------------------------------|
|---8S5---------------------------|-----8S5---------------------------|
|-0-------8S7---2S3---3-5---3-6-0-|-(0)-------8S7---2S3---3-5-[3]b6r0-|


  N.C.                            F5            C5/FF5  A5      Fmaj7/A5D5
  +S  S S S S S S S S S S S S S S S   +S  S S S S S S S S S S S  S  S S S
|-----------------------------------|-------------------------------------|
|-----------------------------------|-------------------------------------|
|-----------------------------------|-------------------9-9-9-9-10-10-9---|
|---------------------------------3-|-(3)-3-3-3-5-5-3-x-7-7-7-7--7--7-7---|
|-----8S5-------------------------3-|-(3)-3-3-3-3-3-3-x-7-7-7-7--7--7-7-0-|
|-(0)-------8S7---2S3---3-5---3-6-3-|-(3)-3-3-3-3-3-3-x-7-7-7-7--7--7-7-0-|


 Verse
    D5                      F5AbD5                      F5AbD5F5  D5
  S S S S S S S S S S S S S S S S   S S S S S S S S S S S S S S S S
|---------------------------------|---------------------------------|
|---------------------------------|---------------------------------|
|---------------------------------|---------------------------------|
|---------------------------------|---------------------------------|
|---0-0---0-0---0-0---0-0---3-6-0-|---0-0---0-0---0---0-3-6-0-3-3-0-|
|---0-0---0-0---0-0---0-0---3-6-0-|---0-0---0-0---0---0-3-6-0-3-3-0-|


    D5                      F5AbF5            C5/FF5  A5      Fmaj7/A5D5
  S S S S S S S S S S S S S S S S   +S  S S S S S S S S S S S  S  S S S
|---------------------------------|-------------------------------------|
|---------------------------------|-------------------------------------|
|---------------------------------|-------------------9-9-9-9-10-10-9---|
|-------------------------------3-|-(3)-3-3-3-5-5-3-x-7-7-7-7--7--7-7---|
|---0-0---0-0---0-0---0-0---3-6-3-|-(3)-3-3-3-3-3-3-x-7-7-7-7--7--7-7-0-|
|---0-0---0-0---0-0---0-0---3-6-3-|-(3)-3-3-3-3-3-3-x-7-7-7-7--7--7-7-0-|


    D5                      F5AbD5                      F5AbD5F5  D5
  S S S S S S S S S S S S S S S S   S S S S S S S S S S S S S S S S
|---------------------------------|---------------------------------|
|---------------------------------|---------------------------------|
|---------------------------------|---------------------------------|
|---------------------------------|---------------------------------|
|---0-0---0-0---0-0---0-0---3-6-0-|---0-0---0-0---0---0-3-6-0-3-3-0-|
|---0-0---0-0---0-0---0-0---3-6-0-|---0-0---0-0---0---0-3-6-0-3-3-0-|


    D5                      F5AbF5            C5/FF5  A5      Fmaj7/A5
  S S S S S S S S S S S S S S S S   +S  S S S S S S S S S S S  S  S E
|---------------------------------|------------------------------------|
|---------------------------------|------------------------------------|
|---------------------------------|-------------------9-9-9-9-10-10-9--|
|-------------------------------3-|-(3)-3-3-3-5-5-3-x-7-7-7-7--7--7-7--|
|---0-0---0-0---0-0---0-0---3-6-3-|-(3)-3-3-3-3-3-3-x-7-7-7-7--7--7-7--|
|---0-0---0-0---0-0---0-0---3-6-3-|-(3)-3-3-3-3-3-3-x-7-7-7-7--7--7-7--|


 Chorus
  D5 C5F5 Bb5N.C.                      D5   G5Bb5        C5
  E. S  E E.  S   S   S   S   S   E    E. S E E. S S S S  S  S  S
|------------------------------------|----------------------------|
|------------------------------------|----------------------------|
|------------------------------------|----------------------------|
|-0--0-10-3---3---3---3---2---2---1--|-0--0-----------------------|
|-0--0--8-1--(1)-(1)-(1)-(1)-(1)-(1)-|-0--0-5-8--8-8-8-8-10-10-10-|
|-0--0-------------------------------|-0--0-5-8--8-8-8-8-10-10-10-|


  D5   F5 Bb5                        F5      G5
                                             PM|
  E. S  E E.  S   S   S   S   S  E   E. E. E S S S. T S S S S
|----------------------------------|----------------------------|
|----------------------------------|----------------------------|
|----------------------------------|----------------------------|
|-0--0-10-3---3---3---3---2---2----|----------------------------|
|-0--0--8-1--(1)-(1)-(1)-(1)-(1)---|-3--3--3-5-5-5----x-x-x-x---|
|-0--0---------------------------8S|=3--3--3-5-5-5----x-x-x-x---|


  D5   F5 Bb5N.C.                      D5   G5Bb5        C5
  E. S  E E.  S   S   S   S   S   E    E. S E E. S S S S  S  S  S
|------------------------------------|----------------------------|
|------------------------------------|----------------------------|
|------------------------------------|----------------------------|
|-0--0-10-3---3---3---3---2---2---1--|-0--0-----------------------|
|-0--0--8-1--(1)-(1)-(1)-(1)-(1)-(1)-|-0--0-5-8--8-8-8-8-10-10-10-|
|-0--0-------------------------------|-0--0-5-8--8-8-8-8-10-10-10-|


  D5   F5 Bb5                        F5      G5
                                             PM|
  E. S  E E.  S   S   S   S   S  E   E. E. E S S S. T S S S S
|----------------------------------|----------------------------|
|----------------------------------|----------------------------|
|----------------------------------|----------------------------|
|-0--0-10-3---3---3---3---2---2----|----------------------------|
|-0--0--8-1--(1)-(1)-(1)-(1)-(1)---|-3--3--3-5-5-5----x-x-x-x---|
|-0--0---------------------------8S|=3--3--3-5-5-5----x-x-x-x---|


 Interlude
  D5
  E. S S S E. S S S S S S S   E. S S S E. S S S S S S S
|------x-x------x-x-----x-x-|------x-x------x-x-----x-x-|
|------x-x------x-x-----x-x-|------x-x------x-x-----x-x-|
|------x-x------x-x-----x-x-|------x-x------x-x-----x-x-|
|---------------------------|---------------------------|
|-0--0-----0--0-----0-0-----|-0--0-----0--0-----0-0-----|
|-0--0-----0--0-----0-0-----|-0--0-----0--0-----0-0-----|


  E. S S S E. S S S S S S S   E. S S S E. S S S S S S S
|------x-x------x-x-----x-x-|------x-x------x-x-----x-x----|
|------x-x------x-x-----x-x-|------x-x------x-x-----x-x----|
|------x-x------x-x-----x-x-|------x-x------x-x-----x-x----|
|---------------------------|------------------------------|
|-0--0-----0--0-----0-0-----|-0--0-----0--0-----0-0--------|
|-0--0-----0--0-----0-0-----|-0--0-----0--0-----0-0--------|


 Guitar Solo
  Bb5     C
   Q.      H               +E
|---------------------------------|
|---------------------------------|
|---------------------------------|
|---------------------------------|
|--8-------7---------------(7)----|
|--8-------8---------------(8)----|
|
| Gtr II
|          ~~~
|  Q.      Q.    S   T   T  S   S
|---------------------------------|
|-13b15---13----13---------13--17-|
|------------------(12)h14--------|
|---------------------------------|
|---------------------------------|
|---------------------------------|


  Bb5                      Gm/Bb      Bb5   C     Bb5
   Q             E.         E.         E     E     E
|-------------------------------------------------------|
|-------------------------------------------------------|
|-------------------------------------------------------|
|-------------------------------------------------------|
|--8-------------8---------10----------8-----7-----8----|
|--8-------------8----------8----------8-----8-----8----|
|
|  S     +E.     S   S  E.      T   T  S  S  E     S  S
|-------------------------------------------------------|
|-17b18-(17)b18-17--15----------------------------------|
|----------------------14-------------10-12-12b13r10----|
|------------------------------(9)h12----------------12-|
|-------------------------------------------------------|
|-------------------------------------------------------|


  D5
   E.          S  S  S  E.     S  S  S S  S  S  S
|-----------------x--x------------x--x-------x--x-|
|-----------------x--x------------x--x-------x--x-|
|-----------------x--x------------x--x-------x--x-|
|-------------------------------------------------|
|--0-----------0--------0------0-------0--0-------|
|--0-----------0--------0------0-------0--0-------|
|
|  ~~~~~~~~ PM------|   ~~~ PM---|   ~~   PM---|
|  S   +S   S  S  S  S  E   S  S  S  E    S  S  S
|-------------------------------------------------|
|-10--(10)-------------10-----------10------------|
|-10--(10)-------------10-----------10------------|
|----------12-10-12-12-----12-10-12------12-10-12-|
|-------------------------------------------------|
|-------------------------------------------------|


   E.    S    S S  E.    S    S S  S  S S  S
|-------------x-x-------------x-x-------x--x---|
|-------------x-x-------------x-x-------x--x---|
|-------------x-x-------------x-x-------x--x---|
|----------------------------------------------|
|--0-----0---------0-----0---------0--0--------|
|--0-----0---------0-----0---------0--0--------|
|
|  ~~~~~~                          ~~~
|  E.    E.        E.    E.        E.      S
|-----------------------------------------12h==|
|-12b13r12b13r====12b13r12b13r====10-----------|
|-12b13r12b13r====12b13r12b13r====10-----------|
|----------------------------------------------|
|----------------------------------------------|
|----------------------------------------------|


  Bb5            C
   Q.             H                   +E
|-----------------------------------------|
|-----------------------------------------|
|-----------------------------------------|
|-----------------------------------------|
|--8--------------7-------------------(7)-|
|--8--------------8-------------------(8)-|
|
|           ~~                         ~~~
|  S  S  S  E  S  S  E.    S  S  S  S  E
|-13p12-------------15b17-15p13-15h17-----|
|-------13-------13-------------------15--|
|----------12-12--------------------------|
|-----------------------------------------|
|-----------------------------------------|
|-----------------------------------------|


  Gm/Bb            C     Bb5        C
    Q.             Q     Q           E
|--------------------------------------------|
|--------------------------------------------|
|--------------------------------------------|
|--------------------------------------------|
|--10--------------7-----8-----------7-------|
|---8--------------8-----8-----------8-------|
|
|               ~~~~~~~~~
|  +S  S  E.    E.    E.    S  S  S  S  S
|--------20b22-20----17----18-17-------------|
|-(15)---------------------------18----------|
|-----------------------------------17-19b21-|
|--------------------------------------------|
|--------------------------------------------|
|--------------------------------------------|


  D5
    E.              S      S      S      E.                   S      S      S      S      S     S S
|--------------------------x------x----------------------------------x------x-------------------x-x-|
|--------------------------x------x----------------------------------x------x-------------------x-x-|
|--------------------------x------x----------------------------------x------x-------------------x-x-|
|---------------------------------------------------------------------------------------------------|
|---0---------------0--------------------0--------------------0--------------------0------0---------|
|---0---------------0--------------------0--------------------0--------------------0------0---------|
|
|  +S   +S   S      S      S      S      S      S      S      S      S      S      S      E.
|---------------------------------------------------------------------------------------------------|
|---------------------------------------------------------------------------------------------------|
|-(19)-(19)-19pb21-19pb21-19pb21-19pb21-19pb21-19pb21-19pb21-19pb21-19pb21-19pb21-19pb21-19pb21r====|
|---------------------------------------------------------------------------------------------------|
|---------------------------------------------------------------------------------------------------|
|---------------------------------------------------------------------------------------------------|


   E.         S S  S      E.       S  S  S S  S     S  S
|---------------x--x------------------x--x----------x--x-|
|---------------x--x------------------x--x----------x--x-|
|---------------x--x------------------x--x----------x--x-|
|--------------------------------------------------------|
|--0----------0-----------0--------0-------0--0----------|
|--0----------0-----------0--------0-------0--0----------|
|
|      ~~~~~~~
|  T   T  +Q       T   T  S   E.      E.      E        S
|--------------------------------------------------------|
|------------------------------------13---------------10-|
|-17--19-(19)-----(7)h10-12--12b14-----------12pb14r=====|
|--------------------------------------------------------|
|--------------------------------------------------------|
|--------------------------------------------------------|


  Bb5                                 C
   Q.                                  H                                              +E
|--------------------------------------------------------------------------------------------------|
|--------------------------------------------------------------------------------------------------|
|--------------------------------------------------------------------------------------------------|
|--------------------------------------------------------------------------------------------------|
|--8-----------------------------------7----------------------------------------------(7)----------|
|--8-----------------------------------8----------------------------------------------(8)----------|
|
|  T  T  T  T  T  T  T  T  T  T  T  T  T  T  T  T  T  T  T  T  T  T  T  T  T  T  T  T  T  T  T  T
|-13p10-12p10-------13p10-12p10-------13p10-12p10-------13p10-12p10-------13p10-12p10-------13p10--|
|-------------13p10-------------13p10-------------13p10-------------13p10-------------13p10--------|
|--------------------------------------------------------------------------------------------------|
|--------------------------------------------------------------------------------------------------|
|--------------------------------------------------------------------------------------------------|
|--------------------------------------------------------------------------------------------------|


  Bb5                                       Gm/Bb             Bb5         C           Bb5
   Q                       E.                E.                E           E           E
|--------------------------------------------------------------------------------------------------|
|--------------------------------------------------------------------------------------------------|
|--------------------------------------------------------------------------------------------------|
|--------------------------------------------------------------------------------------------------|
|--8-----------------------8----------------10-----------------8-----------7-----------8-----------|
|--8-----------------------8-----------------8-----------------8-----------8-----------8-----------|
|
|  T  T  T  T  T  T  T  T  T  T  T  T  T  T  T  T  T  T  T  T  T  T  T  T  T  T  T  T  T  T  T  T
|-15p10-13p10-------15p10-13p10-------15p10-13p10-------15p10-13p10-------15p10-13p10-------15p10--|
|-------------13p10-------------13p10-------------13p10-------------13p10-------------13p10--------|
|--------------------------------------------------------------------------------------------------|
|--------------------------------------------------------------------------------------------------|
|--------------------------------------------------------------------------------------------------|
|--------------------------------------------------------------------------------------------------|


  A5
   E     E     E     E     E     E    E    E
|------------------------------------------------|
|------------------------------------------------|
|------------------------------------------------|
|------------------------------------------------|
|--7-----7-----7-----7-----7-----7----7----7-----|
|--7-----7-----7-----7-----7-----7----7----7-----|
|
|  S  S  S  S  S  S  S  S  S  S  S  S E.     +S
|------------------------------------------------|
|-10-------10-------10-------10------------------|
|----10-12----10-12----10-12----------9b10r==(9)-|
|-------------------------------10-12------------|
|------------------------------------------------|
|------------------------------------------------|


  G5                            F5                      E5                      C5
   E     E           E           E           E           E           E           E
|----------------------------------------------------------------------------------------|
|----------------------------------------------------------------------------------------|
|----------------------------------------------------------------------------------------|
|--------------------------------------------------------------------------------5-------|
|--5-----5-----------5-----------3-----------3-----------2-----------2-----------3-------|
|--5-----5-----------5-----------3-----------3-----------2-----------2-------------------|
|
|  E     T  T  T  T  T  T  T  T  T  T  T  T  T  T  T  T  T  T  T  T  T  T  T  T  T  T  S
|----------------------------------------------------------------------------------------|
|----------------------------------------------------------------------------------------|
|-17b19-14-15-14-12-14-13-12----12-13-12----12-14-15-14-12----12-14-15-14-12-------------|
|----------------------------15----------15----------------15----------------14-15-14----|
|-------------------------------------------------------------------------------------15-|
|----------------------------------------------------------------------------------------|


 Verse Variation
      N.C.
   S  S S S S S S S S S S S   S  S S   S
|-----------------------------------------|
|-----------------------------------------|
|-----------------------------------------|
|-----------------------------------------|
|-----------------------------------------|
|-----0-0---0-0---0-0---0-0------0-0---0--|
|
|  ~~~
|  H.                        +E.      +S
|-----------------------------------------|
|-----------------------------------------|
|-----------------------------------------|
|-12------------------------(12)-----(12)-|
|-----------------------------------------|
|-----------------------------------------|


    S  S S S S S S S S S S S S S S S     S  S S S S S S S S S S S S S  E
|------------------------------------|------------------------------------|
|------------------------------------|------------------------------------|
|------------------------------------|--------------------------------10--|
|------------------------------------|------------------------------------|
|------------------------------------|---------------------------------8--|
|---0--0---0-0---0---0-0-0-0-0-0-0---|---0--0---0-0---0-0---0-0---3-6-----|
|
|  +W                                   +W
|------------------------------------|------------------------------------|
|------------------------------------|------------------------------------|
|------------------------------------|------------------------------------|
|-(12)-------------------------------|-(12)-------------------------------|
|------------------------------------|------------------------------------|
|------------------------------------|------------------------------------|


  N.C.
   S  S  S  S  S  S  E S S S S  S  S S S
|----------------------------------------|
|----------------------------------------|
|-10-10-10-12-12-14-14-9-9-9-9-10-10-9---|
|----------------------------------------|
|--8--8--8-10-10-12-12-7-7-7-7--8--8-7---|
|--------------------------------------0-|
|
|  W
|----------------------------------------|
|----------------------------------------|
|----------------------------------------|
|----------------------------------------|
|----------------------------------------|
|----------------------------------------|


  S S S S S S S S S S S S S S S S   S S S S S S S S S S S S S S S S
|---------------------------------|----------------------------------|
|---------------------------------|----------------------------------|
|---------------------------------|----------------------------------|
|---------------------------------|----------------------------------|
|---------------------------------|----------------------------------|
|-0-0---0-0---0-0---0-0---3-6-0---|-0-0---0-0---0---0-3-6-0-3-3-0----|
|
| W                                 W
|---------------------------------|----------------------------------|
|---------------------------------|----------------------------------|
|---------------------------------|----------------------------------|
|---------------------------------|----------------------------------|
|---------------------------------|----------------------------------|
|---------------------------------|----------------------------------|


  N.C.                          F5            C5/F    A5      Fmaj7/A5
  S S S S S S S S S S S S S S S S   +S  S S S S S S S S S S S  S  S E
|---------------------------------|------------------------------------|
|---------------------------------|------------------------------------|
|---------------------------------|-------------------9-9-9-9-10-10-9--|
|-------------------------------3-|-(3)-3-3-3-5-5-3-x-7-7-7-7--7--7-7--|
|-------------------------------3-|-(3)-3-3-3-3-3-3-x-7-7-7-7--7--7-7--|
|---0-0---0-0---0-0---0-0---3-6-3-|-(3)-3-3-3-3-3-3-x-7-7-7-7--7--7-7--|


 Out Chorus
  D5     Bb5            D5     Bb5
  E. S E E. S E S S E   E. S E E. S E S S E
|---------------------|---------------------|
|---------------------|---------------------|
|---------------------|---------------------|
|-0--0-0-8--8-8-8-8-8-|-0--0-0-8--8-8-8-8-8-|
|-0--0-0-8--8-8-8-8-8-|-0--0-0-8--8-8-8-8-8-|
|-0--0-0-8--8-8-8-8-8-|-0--0-0-8--8-8-8-8-8-|


  F5      G5                 D5     Bb5
          PM|
  E. E. E S S S. T S S S S   E. S E E. S E S S E
|--------------------------|---------------------|
|--------------------------|---------------------|
|--------------------------|---------------------|
|--------------------------|-0--0-0-8--8-8-8-8-8-|
|-3--3--3-5-5-5----x-x-x-x-|-0--0-0-8--8-8-8-8-8-|
|-3--3--3-5-5-5----x-x-x-x-|-0--0-0-8--8-8-8-8-8-|


  D5     Bb5            D5     Bb5            G5
  E. S E E. S E S S E   E. S E E. S E S S E   Q.   Q.   Q
|---------------------|---------------------|---------------|
|---------------------|---------------------|---------------|
|---------------------|---------------------|---------------|
|-0--0-0-8--8-8-8-8-8-|-0--0-0-8--8-8-8-8-8-|---------------|
|-0--0-0-8--8-8-8-8-8-|-0--0-0-8--8-8-8-8-8-|-5----5----5---|
|-0--0-0-8--8-8-8-8-8-|-0--0-0-8--8-8-8-8-8-|-5----5----5---|


  C              G5             C
  Q.   Q.   Q    Q.   Q.   Q    Q.   Q.   Q
|--------------|--------------|--------------|
|--------------|--------------|--------------|
|--------------|--------------|--------------|
|--------------|--------------|--------------|
|-4----4----4--|-5----5----5--|-4----4----4--|
|-5----5----5--|-5----5----5--|-5----5----5--|


 Outro
  D5F5D5  BbA5  EbF5D5      F5G5D5      F5D5  BbA5  EbF5D5
  S S S S S S S S S S S S S S S S   +S  S S S S S S S S S S S S S S S
|---------------------------------|-----------------------------------|
|---------------------------------|-----------------------------------|
|---------------------------------|-----------------------------------|
|---------------------------------|-----------------------------------|
|-0-3-0---8-7---1-3-0-0-0-0-3-5-0-|-(0)-3-0---8-7---1-3-0-0-0-0-0-0-0-|
|-0-3-0---8-7---1-3-0-0-0-0-3-5-0-|-(0)-3-0---8-7---1-3-0-0-0-0-0-0-0-|


  D5  F5D5  BbA5  EbF5D5      F5G5D5      F5D5  BbA5  EbF5D5
  +S  S S S S S S S S S S S S S S S   +S  S S S S S S S S S S S S S S S
|-----------------------------------|-----------------------------------|
|-----------------------------------|-----------------------------------|
|-----------------------------------|-----------------------------------|
|-----------------------------------|-----------------------------------|
|-(0)-3-0---8-7---1-3-0-0-0-0-3-5-0-|-(0)-3-0---8-7---1-3-0-0-0-0-0-0-0-|
|-(0)-3-0---8-7---1-3-0-0-0-0-3-5-0-|-(0)-3-0---8-7---1-3-0-0-0-0-0-0-0-|


  D5  F5D5  BbA5  EbF5D5      F5G5D5      F5D5  BbA5  EbF5D5
  +S  S S S S S S S S S S S S S S S   +S  S S S S S S S S S S S S S S S
|-----------------------------------|-----------------------------------|
|-----------------------------------|-----------------------------------|
|-----------------------------------|-----------------------------------|
|-----------------------------------|-----------------------------------|
|-(0)-3-0---8-7---1-3-0-0-0-0-3-5-0-|-(0)-3-0---8-7---1-3-0-0-0-0-0-0-0-|
|-(0)-3-0---8-7---1-3-0-0-0-0-3-5-0-|-(0)-3-0---8-7---1-3-0-0-0-0-0-0-0-|


  D5  F5D5  BbA5  EbF5D5      F5G5D5
  +S  S S S S S S S S S S S S S S S
|-----------------------------------|
|-----------------------------------|
|-----------------------------------|
|-----------------------------------|
|-(0)-3-0---8-7---1-3-0-0-0-0-3-5-0-|
|-(0)-3-0---8-7---1-3-0-0-0-0-3-5-0-|


      F5D5  BbA5  EbF5D5
  +S  S S S S S S S S S S S S S S S   W
|-----------------------------------|------*|
|-----------------------------------|------*|
|-----------------------------------|------*|
|-----------------------------------|------*|
|-(0)-3-0---8-7---1-3-0-0-0-0-0-0-0-|------*|
|-(0)-3-0---8-7---1-3-0-0-0-0-0-0-0-|------*|

It's a bit hard but kick ass.
comments
print report bad tab
5 comments total. Showing first comments.
0 reply
ac-dc fan1221 wrote on March 5 2006, 08:59 am

good but copied from the guitar pro version and you dont have the palm mutes in and things like that

-1 reply
Murk wrote on March 6 2006, 10:50 pm

One day i was drinking a protein shake
my balls shivered, and shrank inside a cave
i couldn?t see past the fact
of the elephants nasty ways
i tied up my shoes, and walked on the brink
past the navel of someone i knew
i **** **** ****ed myself in the end
in denial I couldn?t pretend
i lost my privates in a fire
i turned away from the urinal
i clawed at the hollowed crotch
the burns feel vaginal
while drinking scotch
(chorus)
can someone loan me a piece
i have wept for years
i have to pee
a river of yellow tears

One day i saw a clown
he waved his hand at me
in pain i looked down
he threw a Molotov cocktail at me
i rolled on the ground
and beat the nothingness now there
i smelled the rot
a burning shaft and hair
I was **** **** ****ed in the end
that bastard clown
when i see him
i will tear his nipples off
(chorus)
love your penis
while u still have it
for one day
u might want to pat it

0 reply
Lightning Bolt wrote on November 5 2006, 10:01 pm

This is close except the part

|------------------------------------|
|------------------------------------|
|------------------------------------|
|-0--0-10-3---3---3---3---2---2---1--|
|-0--0--8-1--(1)-(1)-(1)-(1)-(1)-(1)-|
|-0--0-------------------------------|

I want to post or [tab]
guest
You may want to rate the tab now too:
select rating
Please do not post tabs as comments. Select "correction" instead!