Oops, an error
Loading. Please wait.

Stricken Tab

12,171 views 1 this week
5 commentsread comments
1 2 3 4 5
accurate
x 7
Autoscroll
+/-
esc
set tempo
stop
Contributor
Difficulty
intermediate
Hey! There's an official Ultimate Guitar app which is ideal
for learning songs when you're away from computer. Get the app
WARNING: You are trying to view
                                    content from Ultimate-Guitar.com
                                    in an unauthorized application,
                                    which is prohibited.

                                    Please use an official Ultimate
                                    Guitar Tabs application for iPhone,
                                    iPad or Android to access legitimate
                                    chords, guitar, bass, and drum tabs
                                    from Ultimate-Guitar.com database.

                                    Type "ultimate guitar tabs" in Apple
                                    App Store's or Android Market's
                                    search to find the application.
-------------------------------------------------------------------------------
                             "Stricken" --- Disturbed
-------------------------------------------------------------------------------

Tabbed by: [travis]
Email: syn_gates_punk14@msn.com

Tuning: Guitar 1: C G C F A D (low to high)
        Guitar 2: C G C F A D (low to high)
        Guitar 3: C G C F A D (low to high)

Key:

... = palm mute
h = hammer on
p = pull off
* = pinch harmonic
/ = slide up
\ = slide down
~ = vibrato
x = muted string with fret hand
b = bend
.5 = half step bend
1 = full step bend
() = bring bent note back to normal
===  = hold bend while picking notes

Intro:
Guitar 1:
D|-----------------------------------------------------------------------------------------------------------------------------|
A|-----------------------------------------------------------------------------------------------------------------------------|
F|-----------------------------------------------------------------------------------------------------------------------------|
C|-----------------------------------------------------------------------------------------------------------------------------|
G|----15\12-----8\7-------3-----3/5-----3/6-----15\12-----8\7-----1h/3-----3/5---3-3----15\12-----8\7------/3-----3/5--5--3/6--|
C|-0--15\12--0--8\7--0--1h3--0--3/5--0--3/6--0--15\12--0--8\7--0--1h/3--0--3/5---3-3-0--15\12--0--8\7--0-1h/3--0--3/5--5--3/6--|
   .         .       .       .       .       .         .       .        .                
     .       .       .

Guitar 1:
D|-------------------------------------|
A|-------------------------------------|
F|-----------------9-9-9-10-10-10-9----|
C|-3-3-3-3-5-5-5-7-7-7-7-7--7--7--7----|
G|-3-3-3-3-3-3-3-3-7-7-7-7--7--7--7----|
C|-3-3-3-3-3-3-3-3-7-7-7-7--7--7--7--0-|

____________________________________________________________
Guitar 1:
D|-----------------------------------------------------------------------------------------------------------------------------|
A|-----------------------------------------------------------------------------------------------------------------------------|
F|-----------------------------------------------------------------------------------------------------------------------------|
C|-----------------------------------------------------------------------------------------------------------------------------|
G|----15\12-----8\7-------3-----3/5-----3/6-----15\12-----8\7-----1h/3-----3/5---3-3----15\12-----8\7------/3-----3/5--5--3/6--|
C|-0--15\12--0--8\7--0--1h3--0--3/5--0--3/6--0--15\12--0--8\7--0--1h/3--0--3/5---3-3-0--15\12--0--8\7--0-1h/3--0--3/5--5--3/6--|
   .         .       .       .       .       .         .       .        .                
     .       .       .

____________________________________________________________
Guitar 1:
D|---------------------------------|
A|---------------------------------|
F|---------------------------------|
C|-3-3-3-3-3-3-3-3-7-7-7-7-7-7-7---|
G|-3-3-3-3-3-3-3-3-7-7-7-7-7-7-7---|
C|-3-3-3-3-3-3-3-3-7-7-7-7-7-7-7-0-|

Guitar 2:
D|--------------------------------------------|
A|--------------------------------------------|
F|-10-10-10-12-12-12-14-14-9-9-9-10-10-10-9---|
C|--x--x--x--x--x--x--x--x-x-x-x--x--x--x-x---|
G|--8--8--8-10-10-10-12-12-7-7-7--8--8--8-7---|
C|------------------------------------------0-|

End of Intro.
____________________________________________________________
Verse 1:
Guitars 1 and 2:
D|---------------------------------------------------------------------------------------------------------------|
A|---------------------------------------------------------------------------------------------------------------|
F|---------------------------------------------------------------------------------------------------------------|
C|---------------------------------------------------------------------------------------------------------------|
G|-------------------------------------------------------------------3-3---------------------------------------3-|
C|-0--0--0-0----0--0----0-0----3-5-0---0--0----0--0----0----0-3-5--0-3-3-0----0--0----0-0----0-0----0-0---3-5--3-|
   ..........................................................................................................

_____________________________________________________________
Guitar 1:
D|-----------------------------------|
A|-----------------------------------|
F|-----------------------------------|
C|-------------------7-7-7-7-7-7-7---|
G|-3-3-3-3--3--3--3--7-7-7-7-7-7-7---|
C|-3-3-3-3--3--3--3--7-7-7-7-7-7-7-0-|

Guitar 2:
D|-------------------------------------|
A|-------------------------------------|
F|-----------------9-9-9-10-10-10-9----|
C|-3-3-3-3-5-5-5-7-7-7-7-7--7--7--7----|
G|-3-3-3-3-3-3-3-3-7-7-7-7--7--7--7----|
C|-3-3-3-3-3-3-3-3-7-7-7-7--7--7--7--0-|

_______________________________________________________________
Guitar 1:
D|---------------------------------------------------------------------------------------------------------------|
A|---------------------------------------------------------------------------------------------------------------|
F|---------------------------------------------------------------------------------------------------------------|
C|---------------------------------------------------------------------------------------------------------------|
G|-------------------------------------------------------------------3-3---------------------------------------3-|
C|-0--0--0-0----0--0----0-0----3-5-0---0--0----0--0----0----0-3-5--0-3-3-0----0--0----0-0----0-0----0-0---3-5--3-|
   ..........................................................................................................
________________________________________________________________
Guitar 1:
D|--------------------------------------------|
A|--------------------------------------------|
F|-10-10-10-12-12-12-14-14-9-9-9-10-10-10-9---|
C|--x--x--x--x--x--x--x--x-x-x-x--x--x--x-x---|
G|--8--8--8-10-10-10-12-12-7-7-7--8--8--8-7---|
C|------------------------------------------0-|

Guitar 2:
D|-------------------------------------|
A|-------------------------------------|
F|-----------------9-9-9-10-10-10-9----|
C|-3-3-3-3-5-5-5-7-7-7-7-7--7--7--7----|
G|-3-3-3-3-3-3-3-3-7-7-7-7--7--7--7----|
C|-3-3-3-3-3-3-3-3-7-7-7-7--7--7--7--0-|

End of Verse 1.
_________________________________________________________________
Chorus:
Guitar 1:
D|--------------------------------------------------------------------------|
A|--------------------------------------------------------------------------|
F|-2--------------------------------------2---------------------------------|
C|-0-----10-------------------------------0-------5---8----8-8-8-8-10-10-10-|
G|-0------8--8----8--8--8--8--7--7--7-----0-------5---8----8-8-8-8-10-10-10-|
C|-0---------8----8--8--8--8--8--8--8-----0-------5---8----8-8-8-8-10-10-10-|

Guitar 2:
D|-----------------------------------------------------------------------|
A|--------1-------1--1--1-----1--1----------------1--------1-1-1-3-3-1-1-|
F|-2------2--3----3--3--3--3--3--3--3-----2-------2---3----3-3-3-3-3-3-3-|
C|-0---------3----3--3--3--3--3--3--3-----0-----------3----3-3-3-3-3-3-3-|
G|-0---------1----1--1--1--1--1--1--1-----0-----------1----1-1-1-1-1-1-1-|
C|-0----------------------------------0----------------------------------|

___________________________________________________________________
Guitar 1:
D|-------------------------------------------------------------------------------|
A|-------------------------------------------------------------------------------|
F|-2--------------------------------------5-------5-------5----------------------|
C|-0-----10-------------------------------3-------3-------3---x-x-5--------------|
G|-0------8--8----8--8--8--8--8--7--7-----3-------3--3----3---x-x-5--------------|
C|-0---------8----8--8--8--8--8--8--8-----3-------3--3----3---x-x-5---1--1--1--1-|
                                                                      ..........

Guitar 2:
D|--------------------------------------------------------------------------------|
A|--------1-------1--1--1--------1--1---------------------------------------------|
F|-2------2--3----3--3--3--3--3--3--3-----5-------5-------5-----------------------|
C|-0---------3----3--3--3--3--3--3--3-----3-------3-------3---5-5-5---------------|
G|-0---------1----1--1--1--1--1--1--1-----3-------3--3----3---5-5-5---------------|
C|-0--------------------------------------3-------3--3----3---5-5-5----1--1--1--1-|

_____________________________________________________________________
Guitar 1:
D|---------------------------------------------------------------------------------|
A|---------------------------------------------------------------------------------|
F|-2--------------------------------------2----------------------------------------|
C|-0-----10-------------------------------0-------5---8-----8--8--8--8--10--10--10-|
G|-0------8--8----8--8--8--8--7--7--7-----0-------5---8-----8--8--8--8--10--10--10-|
C|-0---------8----8--8--8--8--8--8--8-----0-------5---8-----8--8--8--8--10--10--10-|

Guitar 2:
D|------------------------------------------------------------------------------|
A|--------1-------1--1--1--------1--1-------------1---------1--1--1--3--3--1--1-|
F|-2------2--3----3--3--3--3--3--3--3-----2-------2---3-----3--3--3--3--3--3--3-|
C|-0---------3----3--3--3--3--3--3--3-----0-----------3-----3--3--3--3--3--3--3-|
G|-0---------1----1--1--1--1--1--1--1-----0-----------1-----1--1--1--1--1--1--1-|
C|-0--------------------------------------0-------------------------------------|

______________________________________________________________________
Guitar 1:
D|---------------------------------------------|
A|---------------------------------------------|
F|------2--------------------------------------|
C|------0----10--------------------------------|
G|------0-----8-----8------8--8--8--8--7--7--7-|
C|------0-----------8------8--8--8--8--8--8--8-|

D|---------------------------------------------|
A|------------1------------1--1--1--------1--1-|
F|-2----------2-----3------3--3--3--3--3--3--3-|
C|-0----------------3------3--3--3--3--3--3--3-|
G|-0----------------1------1--1--1--1--1--1--1-|
C|-0-------------------------------------------|

End of Chorus 1.
_______________________________________________________________________
Verse 2
Guitar 1:
D|---------------------------------------------------------------------------------------------------------------|
A|---------------------------------------------------------------------------------------------------------------|
F|---------------------------------------------------------------------------------------------------------------|
C|---------------------------------------------------------------------------------------------------------------|
G|-------------------------------------------------------------------3-3---------------------------------------3-|
C|-0--0--0-0----0--0----0-0----3-5-0---0--0----0--0----0----0-3-5--0-3-3-0----0--0----0-0----0-0----0-0---3-5--3-|
   ..........................................................................................................

________________________________________________________________________
Guitar 1:
D|-----------------------------------|
A|-----------------------------------|
F|-----------------------------------|
C|-------------------7-7-7-7-7-7-7---|
G|-3-3-3-3--3--3--3--7-7-7-7-7-7-7---|
C|-3-3-3-3--3--3--3--7-7-7-7-7-7-7-0-|

Guitar 2:
D|-------------------------------------|
A|-------------------------------------|
F|-----------------9-9-9-10-10-10-9----|
C|-3-3-3-3-5-5-5-7-7-7-7-7--7--7--7----|
G|-3-3-3-3-3-3-3-3-7-7-7-7--7--7--7----|
C|-3-3-3-3-3-3-3-3-7-7-7-7--7--7--7--0-|
__________________________________________________________________________
Guitar 1:
D|---------------------------------------------------------------------------------------------------------------|
A|---------------------------------------------------------------------------------------------------------------|
F|---------------------------------------------------------------------------------------------------------------|
C|---------------------------------------------------------------------------------------------------------------|
G|-------------------------------------------------------------------3-3---------------------------------------3-|
C|-0--0--0-0----0--0----0-0----3-5-0---0--0----0--0----0----0-3-5--0-3-3-0----0--0----0-0----0-0----0-0---3-5--3-|
   ..........................................................................................................
__________________________________________________________________________
Guitar 1:
D|--------------------------------------------|
A|--------------------------------------------|
F|-10-10-10-12-12-12-14-14-9-9-9-10-10-10-9---|
C|--x--x--x--x--x--x--x--x-x-x-x--x--x--x-x---|
G|--8--8--8-10-10-10-12-12-7-7-7--8--8--8-7---|
C|------------------------------------------0-|

Guitar 2:
D|-------------------------------------|
A|-------------------------------------|
F|-----------------9-9-9-10-10-10-9----|
C|-3-3-3-3-5-5-5-7-7-7-7-7--7--7--7----|
G|-3-3-3-3-3-3-3-3-7-7-7-7--7--7--7----|
C|-3-3-3-3-3-3-3-3-7-7-7-7--7--7--7--0-|

End of Verse 2.
___________________________________________________________________________
Chorus 2:
Guitar 1:
D|--------------------------------------------------------------------------|
A|--------------------------------------------------------------------------|
F|-2--------------------------------------2---------------------------------|
C|-0-----10-------------------------------0-------5---8----8-8-8-8-10-10-10-|
G|-0------8--8----8--8--8--8--7--7--7-----0-------5---8----8-8-8-8-10-10-10-|
C|-0---------8----8--8--8--8--8--8--8-----0-------5---8----8-8-8-8-10-10-10-|

Guitar 2:
D|-----------------------------------------------------------------------|
A|--------1-------1--1--1-----1--1----------------1--------1-1-1-3-3-1-1-|
F|-2------2--3----3--3--3--3--3--3--3-----2-------2---3----3-3-3-3-3-3-3-|
C|-0---------3----3--3--3--3--3--3--3-----0-----------3----3-3-3-3-3-3-3-|
G|-0---------1----1--1--1--1--1--1--1-----0-----------1----1-1-1-1-1-1-1-|
C|-0----------------------------------0----------------------------------|

_____________________________________________________________________________
Guitar 1:
D|-------------------------------------------------------------------------------|
A|-------------------------------------------------------------------------------|
F|-2--------------------------------------5-------5-------5----------------------|
C|-0-----10-------------------------------3-------3-------3---x-x-5--------------|
G|-0------8--8----8--8--8--8--8--7--7-----3-------3--3----3---x-x-5--------------|
C|-0---------8----8--8--8--8--8--8--8-----3-------3--3----3---x-x-5---1--1--1--1-|
                                                                      ..........

Guitar 2:
D|--------------------------------------------------------------------------------|
A|--------1-------1--1--1--------1--1---------------------------------------------|
F|-2------2--3----3--3--3--3--3--3--3-----5-------5-------5-----------------------|
C|-0---------3----3--3--3--3--3--3--3-----3-------3-------3---5-5-5---------------|
G|-0---------1----1--1--1--1--1--1--1-----3-------3--3----3---5-5-5---------------|
C|-0--------------------------------------3-------3--3----3---5-5-5----1--1--1--1-|

______________________________________________________________________________
Guitar 1:
D|---------------------------------------------------------------------------------|
A|---------------------------------------------------------------------------------|
F|-2--------------------------------------2----------------------------------------|
C|-0-----10-------------------------------0-------5---8-----8--8--8--8--10--10--10-|
G|-0------8--8----8--8--8--8--7--7--7-----0-------5---8-----8--8--8--8--10--10--10-|
C|-0---------8----8--8--8--8--8--8--8-----0-------5---8-----8--8--8--8--10--10--10-|

Guitar 2:
D|------------------------------------------------------------------------------|
A|--------1-------1--1--1--------1--1-------------1---------1--1--1--3--3--1--1-|
F|-2------2--3----3--3--3--3--3--3--3-----2-------2---3-----3--3--3--3--3--3--3-|
C|-0---------3----3--3--3--3--3--3--3-----0-----------3-----3--3--3--3--3--3--3-|
G|-0---------1----1--1--1--1--1--1--1-----0-----------1-----1--1--1--1--1--1--1-|
C|-0--------------------------------------0-------------------------------------|

_______________________________________________________________________________
Guitar 1:
D|---------------------------------------------|
A|---------------------------------------------|
F|------2--------------------------------------|
C|------0----10--------------------------------|
G|------0-----8-----8------8--8--8--8--7--7--7-|
C|------0-----------8------8--8--8--8--8--8--8-|

D|---------------------------------------------|
A|------------1------------1--1--1--------1--1-|
F|-2----------2-----3------3--3--3--3--3--3--3-|
C|-0----------------3------3--3--3--3--3--3--3-|
G|-0----------------1------1--1--1--1--1--1--1-|
C|-0-------------------------------------------|

End of Chorus 2.
________________________________________________________________________________
Guitar 1:
D|---------------------------------------|
A|---------------------------------------|
F|---------------------------------------|
C|-3----3--3----3---x--x--5--------------|
G|-3----3--3----3---x--x--5--------------|
C|-3----3--3----3---x--x--5---1--1--1--1-|
                              ..........
________________________________________________________________________________
Interlude
Guitar 1:
D|------------------------------------------------------------------------------------------------------|
A|------------------------------------------------------------------------------------------------------|
F|------------------------------------------------------------------------------------------------------|
C|----------------------------------------------------------------------------------------------------3-|
G|----------------------------------------------------------------------------------------------------3-|
C|-0-15p12-0-8p7-0-0h5-0-3h5-0-3h6-0--15p12-0-8p7-0-0h5-0-3h5-0-3*~~-0-15p12-0-8p7-0-0h5-0-3h5-0-3h6--3-|

_________________________________________________________________________________
Guitar 1:
D|---------------------------------------------|
A|---------------------------------------------|
F|---------------------------------------------|
C|-3--3--3--3--3--3--3--7--7--7--7--7--7--7----|
G|-3--3--3--3--3--3--3--7--7--7--7--7--7--7----|
C|-3--3--3--3--3--3--3--7--7--7--7--7--7--7--0-|

Guitar 2:
D|--------------------------------------------|
A|--------------------------------------------|
F|-10-10-10-12-12-12-14-14-9-9-9-10-10-10-9---|
C|--x--x--x--x--x--x--x--x-x-x-x--x--x--x-x---|
G|--8--8--8-10-10-10-12-12-7-7-7--8--8--8-7---|
C|------------------------------------------0-|

_________________________________________________________________________________
Guitar 1:
D|------------------------------------------------------------------------------------------------------|
A|------------------------------------------------------------------------------------------------------|
F|------------------------------------------------------------------------------------------------------|
C|----------------------------------------------------------------------------------------------------3-|
G|----------------------------------------------------------------------------------------------------3-|
C|-0-15p12-0-8p7-0-0h5-0-3h5-0-3h6-0--15p12-0-8p7-0-0h5-0-3h5-0-3*~~-0-15p12-0-8p7-0-0h5-0-3h5-0-3h6--3-|

_________________________________________________________________________________
Guitar 1:
D|---------------------------------------|
A|---------------------------------------|
F|---------------------------------------|
C|-3----3--3----3---x--x--5--------------|
G|-3----3--3----3---x--x--5--------------|
C|-3----3--3----3---x--x--5---1--1--1--1-|
                              ..........
__________________________________________________________________________________
Guitar 1:
D|----------------------------------------------------------------------------|
A|-3-----x--x--3------x--x--3----x--x--3------x--x--3------x--x--3----x--x--3-|
F|-2-----x--x--2------x--x--2----x--x--2------x--x--2------x--x--2----x--x--2-|
C|-0-----x--x--0------x--x--0----x--x--0------x--x--0------x--x--0----x--x--0-|
G|-0-----x--x--0------x--x--0----x--x--0------x--x--0------x--x--0----x--x--0-|
C|-0-----x--x--0------x--x--0----x--x--0------x--x--0------x--x--0----x--x--0-|

__________________________________________________________________________________
Guitar 1:
D|--------------------------------------------------------------------|
A|-x--x--3------x--x--3----x--x--3------x--x--3------x--x--3----x--x--|
F|-x--x--2------x--x--2----x--x--2------x--x--2------x--x--2----x--x--|
C|-x--x--0------x--x--0----x--x--0------x--x--0------x--x--0----x--x--|
G|-x--x--0------x--x--0----x--x--0------x--x--0------x--x--0----x--x--|
C|-x--x--0------x--x--0----x--x--0------x--x--0------x--x--0----x--x--|

__________________________________________________________________________________
Guitar Solo:
Guitar 1:
     1                                  1                              1
D|-----------------------------10-12--12b--------12p10-------------------------------|
A|-13b----------13~~~~~~~~~~10-------------------------10----------------------------|
F|-------------------------------------------------------------10-12-12b--(12)p10----|
C|---------------------------------------------------------/12--------------------12-|
G|-----------------------------------------------------------------------------------|
C|-----------------------------------------------------------------------------------|

Guitars 2 and 3:
D|----------------------------------------------------------------------------|
A|----------------------------------------------------------------------------|
F|----------------------------------------------------------------------------|
C|----------------------------------------------------------------------------|
G|-8----8--8--8--7------7--7---7-------8---------8--8--8-10-------7----8---10-|
C|-8----8--8--8--8------8--8---8-------8---------8--8--8--8-------8----8----8-|

____________________________________________________________________________________
Guitar 1: The .5 is for the 12 on the A string, and the 1 is for the 12 on the F string.

                                               .5        .5        .5       .5
                                                1         1         1        1
D|---------------------------------------------------------------------------------------|
A|------------------------------10------------12b--(12)-12b--(12)-12b-(12)-12b--(12)--10-|
F|-10--------------10-----------10------------12b--(12)-12b--(12)-12b-(12)-12b--(12)--10-|
C|-----12-10-12-12-----12-10-12-----12-10-12---------------------------------------------|
G|---------------------------------------------------------------------------------------|
C|---------------------------------------------------------------------------------------|
       ...........     ........     ........


Guitars 2 and 3:
D|-------------------------------------------------------------------------------|
A|-3------x--x--3------x--x--3----x--x-----3--------x--x--3------x--x--3----x--x-|
F|-2------x--x--2------x--x--2----x--x-----2--------x--x--2------x--x--2----x--x-|
C|-0------x--x--0------x--x--0----x--x-----0--------x--x--0------x--x--0----x--x-|
G|-0------x--x--0------x--x--0----x--x-----0--------x--x--0------x--x--0----x--x-|
C|-0------x--x--0------x--x--0----x--x-----0--------x--x--0------x--x--0----x--x-|

_____________________________________________________________________________________
Guitar 1:
                                1             1             1
D|-----12-13-12---------------15b-----15-13-15b-----------20b----20----17----19p17----------|
A|---13---------13---------13---------------------15~~~~~--------------------------18-------|
F|-14--------------12---14------------------------------------------------------------17-19-|
C|------------------------------------------------------------------------------------------|
G|------------------------------------------------------------------------------------------|
C|------------------------------------------------------------------------------------------|

Guitars 2 and 3:
D|---------------------------------------------------------------------------------------|
A|---------------------------------------------------------------------------------------|
F|---------------------------------------------------------------------------------------|
C|---------------------------------------------------------------------------------------|
G|-8-----8--8--8--7----------------7----7----7-----10-----10-10-10-10--------8---------7-|
C|-8-----8--8--8--8----------------8----8----8------8------8--8--8--8--------8---------8-|

_____________________________________________________________________________________
Guitar 1: Hold the 19 bend while picking the other 19s, below the =====s.

     1============================================                                1============
D|------------------------------------------------------------------------------------------------10-|
A|-------------------------------------------------------------------------------------13----10------|
F|-19b--19--19--19--19--19--19--19--19--19--19--19~~~~---(19)p17--19------10-12-12b------------------|
C|---------------------------------------------------------------------------------------------------|
G|---------------------------------------------------------------------------------------------------|
C|---------------------------------------------------------------------------------------------------|

Guitars 2 and 3:
D|----------------------------------------------------------------------------------------------------|
A|-3----------------x--x--3------------------x--x--3----x--x-------3-------x-x-3--------x-x-3-----x-x-|
F|-2----------------x--x--2------------------x--x--2----x--x-------2-------x-x-2--------x-x-2-----x-x-|
C|-0----------------x--x--0------------------x--x--0----x--x-------0-------x-x-0--------x-x-0-----x-x-|
G|-0----------------x--x--0------------------x--x--0----x--x-------0-------x-x-0--------x-x-0-----x-x-|
C|-0----------------x--x--0------------------x--x--0----x--x-------0-------x-x-0--------x-x-0-----x-x-|

____________________________________________________________________________________
Guitar 1:
D|-13p10h12p10-------13p10h12p10-------13p10h12p10-------13p10h12p10-------13p10h12p10-------13p10-|
A|-------------13p10-------------13p10-------------13p10-------------13p10-------------13p10-------|
F|-------------------------------------------------------------------------------------------------|
C|-------------------------------------------------------------------------------------------------|
G|-------------------------------------------------------------------------------------------------|
C|-------------------------------------------------------------------------------------------------|

Guitars 2 and 3:
D|-------------------------------------------------------------------------------------------------|
A|-------------------------------------------------------------------------------------------------|
F|-------------------------------------------------------------------------------------------------|
C|-------------------------------------------------------------------------------------------------|
G|-8----------------8------8-----8------7-----------------------7-----------7-----------7----------|
C|-8----------------8------8-----8------8-----------------------8-----------8-----------8----------|

____________________________________________________________________________________
Guitar 1:
D|-15p10h13p10-------15p10h13p10-------15p10h13p10-------15p10h13p10------15p10h13p10-------15-|
A|-------------13p10-------------13p10-------------13p10-------------13---------------13p10----|
F|---------------------------------------------------------------------------------------------|
C|---------------------------------------------------------------------------------------------|
G|---------------------------------------------------------------------------------------------|
C|---------------------------------------------------------------------------------------------|

Guitars 2 and 3:
D|---------------------------------------------------------------------------------------------|
A|---------------------------------------------------------------------------------------------|
F|---------------------------------------------------------------------------------------------|
C|---------------------------------------------------------------------------------------------|
G|-8----------------8------8------8----10------------------------7---------------------8-------|
C|-8----------------8------8------8-----8------------------------8---------------------8-------|

______________________________________________________________________________________
Guitar 1:
                                                   1                         1
D|--------------------------------------------------------------------------------------------------------------------------------|
A|-10-------10-------10--------------------------13b---10------10----------------------------10------------10---------------------|
F|----10-12----10-12----10-12----------9-10-9--------------13-----13p12p10-12b-(12)p10-10h12------12-10-12-----10p9h10p9----------|
C|-------------------------------10-12-----------------------------------------------------------------------------------12p10h12-|
G|----------------------------12--------------------------------------------------------------------------------------------------|
C|--------------------------------------------------------------------------------------------------------------------------------|
      .....    .....    ..............

GUitars 2 and 3:
D|-----------------------------------------------------------------------------------------------------------------------|
A|-----------------------------------------------------------------------------------------------------------------------|
F|-----------------------------------------------------------------------------------------------------------------------|
C|-------------------------------------------------------------------------------------------------------------------5---|
G|-7------7-----7------7----7-----7-----7----7-----5----5-------5------------3----------3----------2---------2-------3---|
C|-7------7-----7------7----7-----7-----7----7-----5----5-------5------------3----------3----------2---------2-----------|

End of Guitar Solo.
_______________________________________________________________________________________
Verse 3:
Guitar 1:
D|---------------------------------------------------------------------------------------------------------------|
A|---------------------------------------------------------------------------------------------------------------|
F|---------------------------------------------------------------------------------------------------------------|
C|---------------------------------------------------------------------------------------------------------------|
G|-------------------------------------------------------------------3-3---------------------------------------3-|
C|-0--0--0-0----0--0----0-0----3-5-0---0--0----0--0----0----0-3-5--0-3-3-0----0--0----0-0----0-0----0-0---3-5--3-|
   ..........................................................................................................


Guitar 2: These are all harmonics. The .9s and .8 mean you play a little bit before the 
fret or the 2nd fret.
          Just place your finger lightly over the string while sliding it down the neck.

   **********************************
D|-------------------------------------|
A|-------------------------------------|
F|-------------------------------------|
C|-------------------------------------|
G|-------------------------------------|
C|-3--3--2.9--2.9--2.5--2.5--1.8--1.8--|

_______________________________________________________________________________________
Guitar 1:
D|-----------------------------------|
A|-----------------------------------|
F|-----------------------------------|
C|-------------------7-7-7-7-7-7-7---|
G|-3-3-3-3--3--3--3--7-7-7-7-7-7-7---|
C|-3-3-3-3--3--3--3--7-7-7-7-7-7-7-0-|

Guitar 2:
D|-------------------------------------|
A|-------------------------------------|
F|-----------------9-9-9-10-10-10-9----|
C|-3-3-3-3-5-5-5-7-7-7-7-7--7--7--7----|
G|-3-3-3-3-3-3-3-3-7-7-7-7--7--7--7----|
C|-3-3-3-3-3-3-3-3-7-7-7-7--7--7--7--0-|

_______________________________________________________________________________________
Guitar 1:
D|---------------------------------------------------------------------------------------------------------------|
A|---------------------------------------------------------------------------------------------------------------|
F|---------------------------------------------------------------------------------------------------------------|
C|---------------------------------------------------------------------------------------------------------------|
G|-------------------------------------------------------------------3-3---------------------------------------3-|
C|-0--0--0-0----0--0----0-0----3-5-0---0--0----0--0----0----0-3-5--0-3-3-0----0--0----0-0----0-0----0-0---3-5--3-|
   ..........................................................................................................

________________________________________________________________________________________
Guitar 1:
D|---------------------------------------------|
A|---------------------------------------------|
F|---------------------------------------------|
C|-3--3--3--3--3--3--3--7--7--7--7--7--7--7----|
G|-3--3--3--3--3--3--3--7--7--7--7--7--7--7----|
C|-3--3--3--3--3--3--3--7--7--7--7--7--7--7--0-|

Guitar 2:
D|--------------------------------------------|
A|--------------------------------------------|
F|-10-10-10-12-12-12-14-14-9-9-9-10-10-10-9---|
C|--x--x--x--x--x--x--x--x-x-x-x--x--x--x-x---|
G|--8--8--8-10-10-10-12-12-7-7-7--8--8--8-7---|
C|------------------------------------------0-|

__________________________________________________________________________________________
Guitar 1:
D|---------------------------------------------------------------------------------------------------------------|
A|---------------------------------------------------------------------------------------------------------------|
F|---------------------------------------------------------------------------------------------------------------|
C|---------------------------------------------------------------------------------------------------------------|
G|-------------------------------------------------------------------3-3---------------------------------------3-|
C|-0--0--0-0----0--0----0-0----3-5-0---0--0----0--0----0----0-3-5--0-3-3-0----0--0----0-0----0-0----0-0---3-5--3-|
   ..........................................................................................................

__________________________________________________________________________________________
Guitar 1:
D|-----------------------------------|
A|-----------------------------------|
F|-----------------------------------|
C|-------------------7-7-7-7-7-7-7---|
G|-3-3-3-3--3--3--3--7-7-7-7-7-7-7---|
C|-3-3-3-3--3--3--3--7-7-7-7-7-7-7-0-|

Guitar 2:
D|-------------------------------------|
A|-------------------------------------|
F|-----------------9-9-9-10-10-10-9----|
C|-3-3-3-3-5-5-5-7-7-7-7-7--7--7--7----|
G|-3-3-3-3-3-3-3-3-7-7-7-7--7--7--7----|
C|-3-3-3-3-3-3-3-3-7-7-7-7--7--7--7--0-|

___________________________________________________________________________________________
Guitar 1:
D|---------------------------------------------------------------------------------------------------------------|
A|---------------------------------------------------------------------------------------------------------------|
F|---------------------------------------------------------------------------------------------------------------|
C|---------------------------------------------------------------------------------------------------------------|
G|-------------------------------------------------------------------3-3---------------------------------------3-|
C|-0--0--0-0----0--0----0-0----3-5-0---0--0----0--0----0----0-3-5--0-3-3-0----0--0----0-0----0-0----0-0---3-5--3-|
   ..........................................................................................................

____________________________________________________________________________________________
Guitar 1:
D|---------------------------------------------|
A|---------------------------------------------|
F|---------------------------------------------|
C|-3--3--3--3--3--3--3--7--7--7--7--7--7--7----|
G|-3--3--3--3--3--3--3--7--7--7--7--7--7--7----|
C|-3--3--3--3--3--3--3--7--7--7--7--7--7--7--0-|

Guitar 2:
D|--------------------------------------------|
A|--------------------------------------------|
F|-10-10-10-12-12-12-14-14-9-9-9-10-10-10-9---|
C|--x--x--x--x--x--x--x--x-x-x-x--x--x--x-x---|
G|--8--8--8-10-10-10-12-12-7-7-7--8--8--8-7---|
C|------------------------------------------0-|

____________________________________________________________________________________________
Chorus 3:
Guitar 1:
D|--------------------------------------------------------------------------|
A|--------------------------------------------------------------------------|
F|-2--------------------------------------2---------------------------------|
C|-0-----10-------------------------------0-------5---8----8-8-8-8-10-10-10-|
G|-0------8--8----8--8--8--8--7--7--7-----0-------5---8----8-8-8-8-10-10-10-|
C|-0---------8----8--8--8--8--8--8--8-----0-------5---8----8-8-8-8-10-10-10-|

Guitar 2:
D|-----------------------------------------------------------------------|
A|--------1-------1--1--1-----1--1----------------1--------1-1-1-3-3-1-1-|
F|-2------2--3----3--3--3--3--3--3--3-----2-------2---3----3-3-3-3-3-3-3-|
C|-0---------3----3--3--3--3--3--3--3-----0-----------3----3-3-3-3-3-3-3-|
G|-0---------1----1--1--1--1--1--1--1-----0-----------1----1-1-1-1-1-1-1-|
C|-0----------------------------------0----------------------------------|

_____________________________________________________________________________
Guitar 1:
D|-------------------------------------------------------------------------------|
A|-------------------------------------------------------------------------------|
F|-2--------------------------------------5-------5-------5----------------------|
C|-0-----10-------------------------------3-------3-------3---x-x-5--------------|
G|-0------8--8----8--8--8--8--8--7--7-----3-------3--3----3---x-x-5--------------|
C|-0---------8----8--8--8--8--8--8--8-----3-------3--3----3---x-x-5---1--1--1--1-|
                                                                      ..........

Guitar 2:
D|--------------------------------------------------------------------------------|
A|--------1-------1--1--1--------1--1---------------------------------------------|
F|-2------2--3----3--3--3--3--3--3--3-----5-------5-------5-----------------------|
C|-0---------3----3--3--3--3--3--3--3-----3-------3-------3---5-5-5---------------|
G|-0---------1----1--1--1--1--1--1--1-----3-------3--3----3---5-5-5---------------|
C|-0--------------------------------------3-------3--3----3---5-5-5----1--1--1--1-|

______________________________________________________________________________
Guitar 1:
D|---------------------------------------------------------------------------------|
A|---------------------------------------------------------------------------------|
F|-2--------------------------------------2----------------------------------------|
C|-0-----10-------------------------------0-------5---8-----8--8--8--8--10--10--10-|
G|-0------8--8----8--8--8--8--7--7--7-----0-------5---8-----8--8--8--8--10--10--10-|
C|-0---------8----8--8--8--8--8--8--8-----0-------5---8-----8--8--8--8--10--10--10-|

Guitar 2:
D|------------------------------------------------------------------------------|
A|--------1-------1--1--1--------1--1-------------1---------1--1--1--3--3--1--1-|
F|-2------2--3----3--3--3--3--3--3--3-----2-------2---3-----3--3--3--3--3--3--3-|
C|-0---------3----3--3--3--3--3--3--3-----0-----------3-----3--3--3--3--3--3--3-|
G|-0---------1----1--1--1--1--1--1--1-----0-----------1-----1--1--1--1--1--1--1-|
C|-0--------------------------------------0-------------------------------------|

_______________________________________________________________________________
Guitar 1:
D|---------------------------------------------|
A|---------------------------------------------|
F|------2--------------------------------------|
C|------0----10--------------------------------|
G|------0-----8-----8------8--8--8--8--7--7--7-|
C|------0-----------8------8--8--8--8--8--8--8-|

D|---------------------------------------------|
A|------------1------------1--1--1--------1--1-|
F|-2----------2-----3------3--3--3--3--3--3--3-|
C|-0----------------3------3--3--3--3--3--3--3-|
G|-0----------------1------1--1--1--1--1--1--1-|
C|-0-------------------------------------------|

End of Chorus 3.
_______________________________________________________________________________
Guitars 1 and 2:
D|-------------------------------------------------------------------------------|
A|-------------------------------------------------------------------------------|
F|-------------------------------------------------------------------------------|
C|-5-----5--5--5--5-------5--5--5--5---5-----------------------------------------|
G|-5-----5--5--5--5-------5--5--5--5---5-----4----4--4--4--4-----4--4--4--4----4-|
C|-5-----5--5--5--5-------5--5--5--5---5-----5----5--5--5--5-----5--5--5--5----5-|

_______________________________________________________________________________
Guitars 1 and 2:
D|-------------------------------------------------------------------------------|
A|-------------------------------------------------------------------------------|
F|-------------------------------------------------------------------------------|
C|-5-----5--5--5--5-------5--5--5--5---5-----------------------------------------|
G|-5-----5--5--5--5-------5--5--5--5---5-----4----4--4--4--7-----7--7--7--7----7-|
C|-5-----5--5--5--5-------5--5--5--5---5-----5----5--5--5--5-----5--5--5--5----5-|

_______________________________________________________________________________
Outro:
Guitars 1 and 2:
D|----------------------------------------------------------------------------------------------|
A|----------------------------------------------------------------------------------------------|
F|----------------------------------------------------------------------------------------------|
C|----------------------------------------------------------------------------------------------|
G|-------------8\7--------3--------------3---6----------------8\7--------3----------------------|
C|-0--3--0--0--8\7--0--0--3--0--0--0--0--3---6--0----3--0--0--8\7--0--0--3--0--0--0--0--0--0--0-|
   .     ....       ....     ..........                 ....       ....     ...................

______________________________________________________________________________
Guitars 1 and 2:
D|------------------------------------------------------------------------------------------|
A|------------------------------------------------------------------------------------------|
F|------------------------------------------------------------------------------------------|
C|------------------------------------------------------------------------------------------|
G|----------8\7--------3--------------3--6----------------8\7--------3----------------------|
C|-3--0--0--8\7--0--0--3--0--0--0--0--3--6--0----3--0--0--8\7--0--0--3--0--0--0--0--0--0--0-|
      ....       ....     ..........                ....       ....     ...................

______________________________________________________________________________
Guitars 1 and 2:
D|------------------------------------------------------------------------------------------|
A|------------------------------------------------------------------------------------------|
F|------------------------------------------------------------------------------------------|
C|------------------------------------------------------------------------------------------|
G|----------8\7--------3--------------3--6----------------8\7--------3----------------------|
C|-3--0--0--8\7--0--0--3--0--0--0--0--3--6--0----3--0--0--8\7--0--0--3--0--0--0--0--0--0--0-|
      ....       ....     ..........                ....       ....     ...................
______________________________________________________________________________
Guitars 1 and 2
D|------------------------------------------------------------------------------------------|
A|------------------------------------------------------------------------------------------|
F|------------------------------------------------------------------------------------------|
C|------------------------------------------------------------------------------------------|
G|----------8\7--------3--------------3--6----------------8\7--------3--------------------0-|
C|-3--0--0--8\7--0--0--3--0--0--0--0--3--6--0----3--0--0--8\7--0--0--3--0--0--0--0--0--0--0-|
      ....       ....     ..........                ....       ....     ................

That's it. It's a simple song to play. Please rate and comment it.
[travis]
comments
print report bad tab
5 comments total. Showing first comments.
+1 reply
mrdrmegna wrote on July 18 2008, 11:51 pm

this is by far the best tab i've ever seen for this song

0 reply
[travis] wrote on July 19 2008, 12:38 am

Thanks. Finally someone agrees on this tab. Thanks again mrdrmegna.

+1 reply
mrdrmegna wrote on July 24 2008, 01:38 pm

no prob

I want to post or [tab]
guest
You may want to rate the tab now too:
select rating
Please do not post tabs as comments. Select "correction" instead!