Oops, an error
Loading. Please wait.

Ten Thousand Fists Tab

ver1
33,759 views 6 this week
35 commentsread comments
1 2 3 4 5
not so good
x 9
Autoscroll
+/-
esc
set tempo
stop
Contributor
Hey! There's an official Ultimate Guitar app which is ideal
for learning songs when you're away from computer. Get the app
WARNING: You are trying to view
                                    content from Ultimate-Guitar.com
                                    in an unauthorized application,
                                    which is prohibited.

                                    Please use an official Ultimate
                                    Guitar Tabs application for iPhone,
                                    iPad or Android to access legitimate
                                    chords, guitar, bass, and drum tabs
                                    from Ultimate-Guitar.com database.

                                    Type "ultimate guitar tabs" in Apple
                                    App Store's or Android Market's
                                    search to find the application.
Band:Disturbed
Album: Ten Thousand Fists
Tabbed by:Joe Adzhiyev
disturbed is so awsome.the guitar tabs got so much cooler.
and i love the solos. here is the album tab by joe adzhiyev enjoy


10,000 Fists
Just Stop
Guarded
Deify
Stricken
I'm Alive
Son Of A Plunder
Overburdened
Decadance
Forgiven
Land Of Confusion
Sacred Life
Pain Redefined
Avarice
Artist: Disturbed
Song: Ten Thousand Fists
Album: Ten Thousand Fists

Tuning: Drop C (CGCFAD)

This song is an other insane song of Disturbed new CD Ten Thousands fists.

Intro
Guitar 1              
|----------------------|-----------------|
|----------------------|-----------------|
|----------------------|-----------------|
|----------------------|-----------------|
|--9868-9868-98689868--|--9868-98689868--|
|----------------------|-----------------|
                              Repeat

Guitar 2 (with sitar effect)
|-------9----9--9-8-----------|
|---------11--------11-10--8--|
|-11-10-----------------------|
|-----------------------------|
|-----------------------------|
|-----------------------------|

Pre-Verse
"SURVIVAL!"
|----------------------|-----------------|
|----------------------|-----------------|
|----------------------|-----------------|
|--4303-4303-43034303--|--4303-43034303--|
|--4303-4303-43034303--|--4303-43034303--|
|--4303-4303-43034303--|--4303-43034303--|
                             Repeat
Verse
"ONE MORE GODDAMN DAY.."
|----------------------------------------------------------|
|----------------------------------------------------------|
|----------------------------------------------------------|
|----------------------------------------------------------|
|--3-3-3-3-3-3/5-555-58444-4-4303-4303-43034303-4303-4303--|
|--3-3-3-3-3-3/5-555-58444-4-4303-4303-43034303-4303-4303--|

Chorus
"EVil Can No LONGER COVER THEIR EYES.."
|-----------------------|------|
|-----------------------|------|
|--5-5-5/7-7-7/8-8-8/10-|-8-7--|
|--3-3-3/5-5-5/6-6-6/8--|-6-5--|
|--3-3-3/5-5-5/6-6-6/8--|-6-5--|
|--3-3-3/5-5-5/6-6-6/8--|-6-5--|                
                                
|-----------------------|-------|
|-----------------------|---7^--|
|--5-5-5/7-7-7/8-8-8/10-|--7^---|
|--3-3-3/5-5-5/6-6-6/8--|-7^----|
|--3-3-3/5-5-5/6-6-6/8--|-------|
|--3-3-3/5-5-5/6-6-6/8--|-------|
           
|-----------------------|------|
|-----------------------|------|
|--5-5-5/7-7-7/8-8-8/10-|-8-7--|
|--3-3-3/5-5-5/6-6-6/8--|-6-5--|
|--3-3-3/5-5-5/6-6-6/8--|-6-5--|
|--3-3-3/5-5-5/6-6-6/8--|-6-5--|

|---------------|
|---------------|
|--5-5-5/3-3-3--|
|--3-3-3/1-1-1--|
|--3-3-3/1-1-1--|
|--3-3-3/1-1-1--|

"TEN THOUDAND FISTS IN THE AIR!"
|----------------|
|----------------|
|----------------|
|----------------|
|-10-8-6-5-1-5-3-|
|-10-8-6-5-1-5-3-|

Pre-Verse

Verse

Chorus

Interlude
Guitar 1 (with Delay effect) 
|------------|------------------------|
|------------|------------------------|
|------------|------------------------|
|--8-7-8-10--|---------------------0--|
|------------|--00---00-00---00-00-0--|
|------------|--00---00-00---00-00-0--|
PM              ..   .. ..   .. ..     
    Repeat             Repeat

Guitar 2 (with sitar effect)
|-------9----9--9-8-----------|
|---------11--------11-10--8--|
|-11-10-----------------------|
|-----------------------------|
|-----------------------------|
|-----------------------------|

Chorus

Pre-Verse

Outro
|-------------------------|----------------------------|
|-------------------------|----------------------------|
|-------------------------|----------------------------|
|--4303-4303-43034303-6-8-|-4303-4303-43034303-6-8-6-3-|
|--4303-4303-43034303-6-8-|-4303-4303-43034303-6-8-6-3-|
|--4303-4303-43034303-6-8-|-4303-4303-43034303-6-8-6-3-|


Disturbed is : David Draiman (Vocals)
               Dan Donegan (Guitar)
               John Moyer (Bass)
               Mike Wengren (Drums)
Band- Disturbed
Song- Just Stop
Album- Ten Thousand Fists
Tuning- Drop C

Intro/Guitar 1
|-------------------------------------------------------|
|-------------------------------------------------------|
|-------------------------------------------------------|
|-------------------------------------------------------|
|-----------3h5-----------5h7-----------3h5-5p3-5p7-----|
|-0-0-0-3h5-----0-0-0-5h7-----0-0-0-3h5-------------5p3-|

|-------------------------------------------------------|
|-------------------------------------------------------|
|-------------------------------------------------------|
|-------------------------------------------------------|
|-----------3h5-----------5h7-----------3h5-7p5---------|
|-0-0-0-3h5-----0-0-0-5h7-----0-0-0-3h5---------7p5-5p3-|

Intro/Guitar 2(Comes in after gtr.1 plays above 1 time)
|-------------------------------------------------------|
|-------------------------------------------------------|
|-------------------------------------------------------|
|-----------3h5-----------5h7-----------3h5-5p3-5p7-----|
|-------3h5-----------5h7-----------3h5-------------5p3-|
|-0-0-0---------0-0-0---------0-0-0---------------------|

|-------------------------------------------------------|
|-------------------------------------------------------|
|-------------------------------------------------------|
|-----------3h5-----------5h7-----------3h5-7p5---------|
|-------3h5-----------5h7-----------3h5---------7p5-5p3-|
|-0-0-0---------0-0-0---------0-0-0---------------------|

Verse
|-----------------------------------------------|
|-----------------------------------------------|
|-----------------------------------------------|
|-----------------------------------------------|
|-12/-0--0-0-0--0--0-0-0-0-0-0--0-3/2-3/2-3-3h5-|
|-12/-0--0-0-0--0--0-0-0-0-0-0--0-3/2-3/2-3-3h5-|(Not exact strumming pattern
P.M.  .  .....  .  ...........                       for the 0's)

|-------------------------------------------|
|-------------------------------------------|
|-------------------------------------------|
|-------------------------------------------|
|-0--0-0-0--0--0-0-0-0-0-0--0-3/2-3/2-3-5p3-|
|-0--0-0-0--0--0-0-0-0-0-0--0-3/2-3/2-3-5p3-|
P.M. .....  .  ...........

|-------------------------------------------|
|-------------------------------------------|
|-------------------------------------------|
|-------------------------------------------|
|-----------------------------3/2-3/2-3-3h5-|
|-0--0-0-0--0--0-0-0-0-0-0--0-3/2-3/2-3-3h5-|

|-----------------------------------|
|-----------------------------------|
|-----------------------------------|
|-----------------------------------|
|-----------------------------9-8-0-|
|-0--0-0-0--0--0-0-0-0-0-0--0-9-8-0-|

Chorus
|---------------------------------------|
|---------------------------------------|
|-----------------------5-5-5-5-5-5-5-5-|
|-8-8-8-8-8-8-8-3-3-3-3-5-5-5-5-5-5-5-5-|
|-8-8-8-8-8-8-8-3-3-3-3-3-3-3-3-3-3-3-3-|
|-8-8-8-8-8-8-8-3-3-3-3-----------------|

Play Intro

Fill
|------------------------------|
|------------------------------|
|------------------------------|
|------------------------------|
|-0--0-0-0--0--0-0-0-0-0-0-12/-|
|-0--0-0-0--0--0-0-0-0-0-0-12/-|
P.M. .....  .  ...........

Play Verse

Play Chorus

Bridge
|---------------------------------------------|
|---------------------------------------------|
|---------------------------------------------|
|---------------------------------------------|
|-0--3--0--5--0-7-0-3-5-0-3-0-5-3-0-3-5p3-----|
|-0--3--0--5--0-7-0-3-5-0-3-0-5-3-0-3-----5p3-|
P.M.                    .............

|----------------------------------------|
|----------------------------------------|
|---------------------------5~~~~~~~~~~~-|
|-8~~~~~~~~~~~-3~~~~~~~~~~~-5~~~~~~~~~~~-|
|-8~~~~~~~~~~~-3~~~~~~~~~~~-3~~~~~~~~~~~-|
|-8~~~~~~~~~~~-3~~~~~~~~~~~--------------|

Last Chorus Ending Part
|-----------------------------------|
|-----------------------------------|
|-------------------------5-5-5-5-5-|
|-8-8-8-8-8-8-8-2-2-2-2-2-5-5-5-5-5-|
|-8-8-8-8-8-8-8-2-2-2-2-2-3-3-3-3-3-|
|-8-8-8-8-8-8-8-2-2-2-2-2-----------|

Play Intro x2

Ending
|---------------------------------------|
|---------------------------------------|
|---------------------------------------|
|---------------------------------------|
|-5p3-7p5-3h5-5p3-7p5-3h5-5p3-7p5-3h5-0-|
|-5p3-7p5-3h5-5p3-7p5-3h5-5p3-7p5-3h5-0-|

Song- Guarded
Album- 10,000 Fists

Gtr I (C# G# C# F# A# D#) - 'Untitled'

   Intro
    Q=137
    N.C.
   4/4
    Gtr I
           PM----|     PM|              PM----|   PM|
    Q  S S S S S S S S S S S S   Q  S S S S S S E S S E
||-----------------------------|------------------------|
||o----------------------------|------------------------|
||-----------------------------|------------------------|
||-----------------------------|------------------------|
||o----3-5---------3-5-----3-5-|----3-5---------1-----6-|
||--0------0-0-0-0-----0-0-----|-0------0-0-0-0---0-0---|


         PM----|     PM|              PM----------------|
  Q  S S S S S S S S S S S S   Q  S S S S S S S S S S S S  3x
|----------------------------|-----------------------------||
|----------------------------|----------------------------o||
|----------------------------|-----------------------------||
|----------------------------|-----------------------------||
|----3-5---------3-5-----3-5-|----3-5---------------------o||
|-0------0-0-0-0-----0-0-----|-0------0-0-0-0-6-6-6-6-6-6--||


   Pre-Verse
    N.C.                        A5
    E E E E E E E E   E E E E E  E  E  E
||------------------|--------------------|
||o-----------------|-----------11-11-11-|
||------7-----7-----|-7-----7---10-10-10-|
||----7-----7-----7-|-----7------8--8--8-|
||o-----------------|------------8--8--8-|
||--0-----3-----0---|---3-----0--8--8--8-|


  N.C.                        A5
  E E E E E E E E   E E E E E  E  E  E
|-----------------|---------------------||
|-----------------|-----------11-11-11-o||
|-----7-----7-----|-7-----7---10-10-10--||
|---7-----7-----7-|-----7------8--8--8--||
|-----------------|------------8--8--8-o||
|-0-----3-----0---|---3-----0--8--8--8--||


   Verse
    N.C.                        Asus2
    E E E E E E E E   E E E E E  E  E  E
||------------------|--------------------|
||o-----------------|--------------------|
||----7-----7-----7-|-----7--------------|
||------7-----7-----|-7-----7---10-10-10-|
||o-----------------|------------8--8--8-|
||--0-----3-----0---|---3-----0--8--8--8-|


  N.C.                        Asus2
  E E E E E E E E   E E E E E  E  E  E
|-----------------|---------------------||
|-----------------|--------------------o||
|---7-----7-----7-|-----7---------------||
|-----7-----7-----|-7-----7---10-10-10--||
|-----------------|------------8--8--8-o||
|-0-----3-----0---|---3-----0--8--8--8--||


 Pre-Chorus
  E5G5F#5 F#E5G5F#5     E5    E5    E5    E5  E5G5F#5 F#E5G5F#5     E5    E5
                                                               2/4
  E E E E E E E E   S S E S S E S S E S S E   E E E E E E E E   S S E S S E
|-----------------|-------------------------|-----------------|-------------|
|-----------------|-------------------------|-----------------|-------------|
|-----------------|-------------------------|-----------------|-------------|
|-3-6-5---5-3-6-5-|-x-x-3-x-x-3-x-x-3-x-x-3-|-3-6-5---5-3-6-5-|-x-x-3-x-x-3-|
|-3-6-5---5-3-6-5-|-x-x-3-x-x-3-x-x-3-x-x-3-|-3-6-5---5-3-6-5-|-x-x-3-x-x-3-|
|-3-6-5---5-3-6-5-|-x-x-3-x-x-3-x-x-3-x-x-3-|-3-6-5---5-3-6-5-|-x-x-3-x-x-3-|


   Chorus
    C#5  N.C.D5        N.C.Esus2  C#5  N.C.D5        N.C.E5  N.C.
   4/4
    H    E E Q    +Q   E E H      H    E E Q    +Q   E E E E  E   E
||-------3-2----|------3-2------|------3-2----|------3-2---------------||
||o-------------|---------------|-------------|-----------------------o||
||--------------|---------------|-------------|------------------------||
||--0--------1--|-(1)------5----|-0--------1--|-(1)------3-x-----<5>---||
||o-0--------1--|-(1)------3----|-0--------1--|-(1)------3-x-<5>------o||
||--0--------1--|-(1)------3----|-0--------1--|-(1)------3-x-----------||


   Verse
    N.C.
           PM----|     PM|              PM----|   PM|
    Q  S S S S S S S S S S S S   Q  S S S S S S E S S E
||-----------------------------|------------------------|
||o----------------------------|------------------------|
||-----------------------------|------------------------|
||-----------------------------|------------------------|
||o----3-5---------3-5-----3-5-|----3-5---------1-----6-|
||--0------0-0-0-0-----0-0-----|-0------0-0-0-0---0-0---|


         PM----|     PM|              PM----------------|
  Q  S S S S S S S S S S S S   Q  S S S S S S S S S S S S
|----------------------------|-----------------------------||
|----------------------------|----------------------------o||
|----------------------------|-----------------------------||
|----------------------------|-----------------------------||
|----3-5---------3-5-----3-5-|----3-5---------------------o||
|-0------0-0-0-0-----0-0-----|-0------0-0-0-0-6-6-6-6-6-6--||


 Pre-Verse
  N.C.                        A5         N.C.                         A5
  E E E E E E E E   E E E E E  E  E  E   E E E E E E E E   E E E E Q   q
|-----------------|--------------------|-----------------|-----------------|
|-----------------|-----------11-11-11-|-----------------|------------11---|
|-----7-----7-----|-7-----7---10-10-10-|-----7-----7-----|-7-----7----10---|
|---7-----7-----7-|-----7------8--8--8-|---7-----7-----7-|-----7-------8---|
|-----------------|------------8--8--8-|-----------------|-------------8---|
|-0-----3-----0---|---3-----0--8--8--8-|-0-----3-----0---|---3-----0---8---|


   Verse
    N.C.                        Asus2
    E E E E E E E E   E E E E E  E  E  E
||------------------|--------------------|
||o-----------------|--------------------|
||----7-----7-----7-|-----7--------------|
||------7-----7-----|-7-----7---10-10-10-|
||o-----------------|------------8--8--8-|
||--0-----3-----0---|---3-----0--8--8--8-|


  N.C.                        Asus2
  E E E E E E E E   E E E E E  E  E  E
|-----------------|---------------------||
|-----------------|--------------------o||
|---7-----7-----7-|-----7---------------||
|-----7-----7-----|-7-----7---10-10-10--||
|-----------------|------------8--8--8-o||
|-0-----3-----0---|---3-----0--8--8--8--||


 Pre-Chorus
  E5G5F#5 F#E5G5F#5     E5    E5    E5    E5  E5G5F#5 F#E5G5F#5     E5    E5
                                                               2/4
  E E E E E E E E   S S E S S E S S E S S E   E E E E E E E E   S S E S S E
|-----------------|-------------------------|-----------------|-------------|
|-----------------|-------------------------|-----------------|-------------|
|-----------------|-------------------------|-----------------|-------------|
|-3-6-5---5-3-6-5-|-x-x-3-x-x-3-x-x-3-x-x-3-|-3-6-5---5-3-6-5-|-x-x-3-x-x-3-|
|-3-6-5---5-3-6-5-|-x-x-3-x-x-3-x-x-3-x-x-3-|-3-6-5---5-3-6-5-|-x-x-3-x-x-3-|
|-3-6-5---5-3-6-5-|-x-x-3-x-x-3-x-x-3-x-x-3-|-3-6-5---5-3-6-5-|-x-x-3-x-x-3-|


   Chorus
    C#5  N.C.D5        N.C.E5     C#5  N.C.D5        N.C.E5  N.C.
   4/4
    H    E E Q    +Q   E E H      H    E E Q    +Q   E E E E  E   E
||-------3-2----|------3-2------|------3-2----|------3-2---------------||
||o-------------|---------------|-------------|-----------------------o||
||--------------|---------------|-------------|------------------------||
||--0--------1--|-(1)------3----|-0--------1--|-(1)------3-x-----<5>---||
||o-0--------1--|-(1)------3----|-0--------1--|-(1)------3-x-<5>------o||
||--0--------1--|-(1)------3----|-0--------1--|-(1)------3-x-----------||


  C#5        C#5     N.C.
  W          H.       Q
|----------|--------------|
|----------|--------------|
|----------|--------------|
|-0--------|-0------------|
|-0--------|-0------------|
|-0--------|-0-------15\--|


   Bridge
    C#5                          A5A5G#5 C#5                          B5 B5 G#5
         PM--------------------|              PM--------------------|
                                 |-3-|                                 |-3--|
    Q.   S S E E E E   E S S E E Q Q Q   Q.   S S E E E E   E S S E E  Q  Q Q
||-------------------|-----------------|------------------|-------------------|
||o------------------|-----------------|------------------|-------------------|
||-------------------|-----------------|------------------|-------------------|
||-------------------|-----------8-8-7-|------------------|-------------------|
||o-0----0-0-0-0---0-|---0-0-0-0-8-8-7-|-0----0-0-0-0---0-|---0-0-0-0-10-10-7-|
||--0----0-0-0-0---0-|---0-0-0-0-8-8-7-|-0----0-0-0-0---0-|---0-0-0-0-10-10-7-|


  C#5                          A5A5G#5
       PM--------------------|
                               |-3-|
  Q.   S S E E E E   E S S E E Q Q Q
|------------------|-----------------|
|------------------|-----------------|
|------------------|-----------------|
|------------------|-----------------|
|-0----0-0-0-0---0-|---0-0-0-0-8-8-7-|
|-0----0-0-0-0---0-|---0-0-0-0-8-8-7-|


  E5                D#5     A5B5 A5B5 A5B5
                               |----3----|
  E E E E E E E E   E E E E a  Q a  Q a  Q  3x
|-----------------|-------------------------||
|-----------------|------------------------o||
|-----------------|-------------------------||
|-3-3-3-3-3-3-3-3-|-2-2-2-2-8s10-8s10-8s10--||
|-3-3-3-3-3-3-3-3-|-2-2-2-2-8s10-8S10-8S10-o||
|-3-3-3-3-3-3-3-3-|-2-2-2-2-8s10-8s10-8s10--||


 Guitar Break
  N.C.
         PM----|     PM|              PM----------------|
  Q  S S S S S S S S S S S S   Q  S S S S S S S S S S S S
|----------------------------|----------------------------|
|----------------------------|----------------------------|
|----------------------------|----------------------------|
|----------------------------|----------------------------|
|----------------------------|----------------------------|
|-0--3-5-0-0-0-0-3-5-0-0-3-5-|-0--3-5-0-0-0-0-6-6-6-6-6-6-|


 Breakdown
         PM----|     PM|              PM----|     PM|
  Q  S S S S S S S S S S S S   Q  S S S S S S S S S S S S
|----------------------------|----------------------------|
|----------------------------|----------------------------|
|----------------------------|----------------------------|
|----------------------------|----------------------------|
|----------------------------|----------------------------|
|-0--3-5-0-0-0-0-3-5-0-0-3-5-|-0--3-5-0-0-0-0-3-5-0-0-3-5-|


         PM----|     PM|              PM----------------|
  Q  S S S S S S S S S S S S   Q  S S S S S S S S S S S S
|----------------------------|----------------------------|
|----------------------------|----------------------------|
|----------------------------|----------------------------|
|----------------------------|----------------------------|
|----------------------------|----------------------------|
|-0--3-5-0-0-0-0-3-5-0-0-3-5-|-0--3-5-0-0-0-0-6-6-6-6-6-6-|


 Outro
  C#5  N.C.                    A5A5G#5 C#5  N.C.                    A5A5G#5
                               |-3-|                                |-3-|
  Q.   S S E E E E   E S S E E Q Q Q   Q.   S S E E E E   E S S E E Q Q Q
|------------------|-----------------|------------------|------------------|
|------------------|-----------------|------------------|------------------|
|------------------|-----------------|------------------|------------------|
|-0----------------|-----------8-8-7-|-0----------------|-----------8-8-7--|
|-0----------------|-----------8-8-7-|-0----------------|-----------8-8-7--|
|-0----0-0-0-0---0-|---0-0-0-0-8-8-7-|-0----0-0-0-0---0-|---0-0-0-0-8-8-7--|


  C#5  N.C.                    A5A5G#5 C#5  N.C.                    A5A5N.C.
                               |-3-|                                |-3-|
  Q.   S S E E E E   E S S E E Q Q Q   Q.   S S E E E E   E S S E E Q Q Q
|------------------|-----------------|------------------|------------------*|
|------------------|-----------------|------------------|------------------*|
|------------------|-----------------|------------------|-----------3-3-3--*|
|-0----------------|-----------8-8-7-|-0----------------|-----------3-3-2--*|
|-0----------------|-----------8-8-7-|-0----------------|-----------1-1-1--*|
|-0----0-0-0-0---0-|---0-0-0-0-8-8-7-|-0----0-0-0-0---0-|---0-0-0-0--------*|
-------------------------------------



deify:-------------------------------------------
Duration Legend
Samples:
E|-------------------------------------------------------------|
B|-------------------------------------------------------------|
G|-------------------------------------------------------------|
D|-------------------------------------------------------------|
A|-------------------------------------------------------------|
D|-------------------------------------------------------------|

Intro:
E|-------------------------------------------------------------|
B|-------------------------------------------------------------|
G|-------------------------------------------------------------|
D|-8-8--8-8--8-8--8-8--3-3-3-3-4-4--4-4--4-4--4-4--3-3-6-6-----|
A|-8-8--8-8--8-8--8-8--3-3-3-3-4-4--4-4--4-4--4-4--3-3-6-6-----|
D|-8-8--8-8--8-8--8-8--3-3-3-3-4-4--4-4--4-4--4-4--3-3-6-6-----|

E|-------------------------------------------------------------|
B|-------------------------------------------------------------|
G|-------------------------------------------------------------|
D|-4-4--4-4--4-4--4-4--3-3-3-3-1-1--1-1--6-6--6-6--10-10-10-10-|
A|-4-4--4-4--4-4--4-4--3-3-3-3-1-1--1-1--4-4--4-4--8--8--8--8--|
D|-4-4--4-4--4-4--4-4--3-3-3-3-1-1--1-1--6-6--6-6--10-10-10-10-|

Main Riff:
E|--------------------------------|     Repeat(x4)
B|--------------------------------|
G|--------------------------------|
D|-6-8-8-8----------8-----9-8-6-8-|
A|-6-8-8-8-9-8-6-8--8--8--9-8-6-8-|
D|-6-8-8-8-9-8-6-8--8--8--9-8-6-8-|


Verse:
E|-------------------------------------------------|    Repeat(x4)
B|-------------------------------------------------|
G|-------------------------------------------------|
D|-------------------------------------------------|
A|-1-1-1-1-1-1-2-2-2-2-----------------------------|
D|---------------------3-3-3-3-1-1-1-1-6-6-6-6-4-4-|

E|-------------------------------------------------|    Repeat(x3)
B|-------------------------------------------------|
G|-------------------------------------------------|
D|-8-8-8-8-8-8-9-9-9-9-3-3-3-3-1-1-1-1-6-6-6-6-4-4-|
A|-8-8-8-8-8-8-9-9-9-9-3-3-3-3-1-1-1-1-6-6-6-6-4-4-|
D|-8-8-8-8-8-8-9-9-9-9-3-3-3-3-1-1-1-1-6-6-6-6-4-4-|

E|-------------------------------------------------|
B|-------------------------------------------------|
G|-------------------------------------------------|
D|-8-8-8-8-8-8-9-9-9-9-3-3-3-3-1-1-1-1-6-6-6-6-3-3-|
A|-8-8-8-8-8-8-9-9-9-9-3-3-3-3-1-1-1-1-6-6-6-6-3-3-|
D|-8-8-8-8-8-8-9-9-9-9-3-3-3-3-1-1-1-1-6-6-6-6-3-3-|

Pre-Chorus:
E|-----------------------------| Repeat
B|-----------------------------|
G|-----------------------------|
D|-4----6----3--4--x-x-3--4----|
A|-4----6----3--4--x-x-3--4----|
D|-4----6----3--4--x-x-3--4----|

Chorus:
E|-------------------------------------------------------------|
B|-------------------------------------------------------------|
G|-------------------------------------------------------------|
D|-8-8--8-8--8-8--8-8--3-3-3-3-4-4--4-4--4-4--4-4--3-3-6-6-----|
A|-8-8--8-8--8-8--8-8--3-3-3-3-4-4--4-4--4-4--4-4--3-3-6-6-----|
D|-8-8--8-8--8-8--8-8--3-3-3-3-4-4--4-4--4-4--4-4--3-3-6-6-----|

E|-------------------------------------------------------------|
B|-------------------------------------------------------------|
G|-------------------------------------------------------------|
D|-4-4--4-4--4-4--4-4--3-3-3-3-1-1--1-1--6-6--6-6--10-10-10-10-|
A|-4-4--4-4--4-4--4-4--3-3-3-3-1-1--1-1--4-4--4-4--8--8--8--8--|
D|-4-4--4-4--4-4--4-4--3-3-3-3-1-1--1-1--6-6--6-6--10-10-10-10-|

Repeat:
Main Riff
Verse
Pre-Chorus
Chorus

Bridge:
E|---------------------------------|
B|---------------------------------|
G|---------------------------------|
D|-6/8-8-8-9-8-8-11-8-8-8-9-8-8-9-8|
A|---------------------------------|
D|---------------------------------|

E|---------------------------------|
B|---------------------------------|
G|---------------------------------|
D|-6/8-8-8-9-8-8-11-8-8-8-9-8-8-9~-|
A|---------------------------------|
D|---------------------------------|

E|---------------------------------|
B|---------------------------------|
G|---------------------------------|
D|-6/8-8-8-9-8-8-11-8-8-8-9-8-8-9-8|
A|---------------------------------|
D|---------------------------------|

E|------------------------------------------|
B|------------------------------------------|
G|------------------------------------------|
D|-11-11-11-15-11-11-15-11-9-9-9-15-9-9-12--|
A|------------------------------------------|
D|------------------------------------------|

Repeat with power chords...
E|---------------------------------|
B|---------------------------------|
G|---------------------------------|
D|---------------------------------|
A|-6/8-8-8-9-8-8-11-8-8-8-9-8-8-9-8|
D|-6/8-8-8-9-8-8-11-8-8-8-9-8-8-9-8| etc

Repeat:
Intro
~
Chorus
Main Riff (x3)

E|--------------------------------|--|
B|--------------------------------|--|
G|--------------------------------|--|
D|-6-8-8-8----------8-----9-8-6---|--|
A|-6-8-8-8-9-8-6-8--8--8--9-8-6---|--|
D|-6-8-8-8-9-8-6-8--8--8--9-8-6---|--|

THE END
Intro

Gtr. 1 and 2 w/ dist.

D|----------------------------------------------------------------------------|
A|----------------------------------------------------------------------------|
F|----------------------------------------------------------------------------|
C|----14--15-----8--7-----2--3-----3--5-----5--6----play 2x-------------------|
G|----14--15-----8--7-----2--3-----3--5-----5--6------------------------------|
C|-0--14--15--0--8--7--0--2--3--0--3--5--0--5--6------------------------------|
              .        .        .        .
cont.

D|----------------------------------------------------------------------------|
A|----------------------------------------------------------------------------|
F|------------------------------------------------5--5--5--5--5--5--5--5/9-9--|
C|----14--15-----8--7-----2--3-----3--5-----5--7--3--3--3--3--3--3--3--3/7-7--|
G|----14--15-----8--7-----2--3-----3--5-----5--7--3--3--3--3--3--3--3--3/7-7--|
C|-0--14--15--0--8--7--0--2--3--0--3--5--0--5--7--3--3--3--3--3--3--3--3/7-7--|
              .        .        .        .

cont.

D|------------------|--------------------------------------------------------|
A|------------------|--------------------------------------------------------|
F|-9--9--10-10-10-9-|--------------------------------------------------------|
C|-7--7--7--7--7--7-|--------------------------------------------------------|
G|-7--7--7--7--7--7-|--------------------------------------------------------|
C|-7--7--7--7--7--7-|--------------------------------------------------------|

Intro to verse 2

D|---------------------------------------------------------------------------|
A|---------------------------------------------------------------------------|
F|---------------------------------------------------------------------------|
C|---------------------------------------------------------------------------|
G|---------------------------------------------------------------------------|
C|-0--14-15--0-8-7--0-2-3--0-3-5--0-5-7--0--14-15--0-8-7--0-2-3-0-3-5-5------|
             .      .      .      .                .      .     .     *

Verse

Gtr.1 and 2 w/dist.

D|---------------------------------------------------------------------------|
A|---------------------------------------------------------------------------|
F|---------------------------------------------------------------------------|
C|-0--0-0--0-0--0-0--0-0--0-3-5--0--0-0--0-0--0-0--0-3-5-3-0-0---------------|
G|-0--0-0--0-0--0-0--0-0--0-3-5--0--0-0--0-0--0-0--0-3-5-3-0-0---------------|
C|-0--0-0--0-0--0-0--0-0--0-3-5--0--0-0--0-0--0-0--0-3-5-3-0-0---------------|
   .  . .  . .  . .  . .  .      .  . .  . .  . .  . . . . . .

2nd part of 2nd verse        ...on the last verse add some wah

D|---------------------------------------------------------------------------|
A|---------------------------------------------------------------------------|
F|---------------------------------------------------------------------------|
C|---------------------------------------------------------------------------|
G|---------------------------------------------------------------------------|
C|-0--0-0--0-0--0-0--0-0--0-3-5--0--0-0--0-0--0-0-0-3-5-3-0-0----------------|

Chorus

Gtr.1 and 2 w/dist.

D|---------------------------------------------------------------------------|
A|---------------------------------------------------------------------------|
F|---------------------------------------------------------------------------|
C|-0-3--8--8-8--8--0--3--8--8--8--8/10-0--3--8--8--8--8--3--3--3-5-5-5-5-5-5-|
G|-0-3--8--8-8--8--0--3--8--8--8--8/10-0--3--8--8--8--8--3--3--3-5-5-5-5-5-5-|
C|-0-3--8--8-8--8--0--3--8--8--8--8/10-0--3--8--8--8--8--3--3--3-5-5-5-5-5-5-|
                                                                 . .   . .

Bridge

Gtr. 1 w/ dist.

D|----------------------------------------------------------------------------|
A|----------------------------------------------------------------------------|
F|----------------------------------------------------------------------------|
C|-0--0--x--x--0--0--x--x--0--0-----------------------------------------------|
G|-0--0--x--x--0--0--x--x--0--0-----------------------------------------------|
C|-0--0--x--x--0--0--x--x--0--0-----------------------------------------------|

Solo

Gtr. 2 w/dist.

D|--------------------12--12^--12--10----------------------------------------|
A|-13^--13~~--10--13-------------------10------------------------------10----|
F|---------------------------------------------10--12--14--12--10------10----|
C|-----------------------------------------12----------------------12--------|
G|---------------------------------------------------------------------------|
C|---------------------------------------------------------------------------|

cont.
D|---------------------------------------------------------------------------|
A|-------------------10---------------10--------------12^--12^--12^--12^--10-|
F|-------------------10---------------10--------------12^--12^--12^--12^--10-|
C|--12--10--12--12-------12--10--12-------12--10--12-------------------------|
G|---------------------------------------------------------------------------|
C|---------------------------------------------------------------------------|
    .    .   .   .        .   .   .        .   .   .

D|------10--12--13--12--10--------10--15^-15--13--15/17------20^--20--17--18-|
A|--10--------------------10--10-------------------------15------------------|
F|---------------------------------------------------------------------------|
C|---------------------------------------------------------------------------|
G|---------------------------------------------------------------------------|
C|---------------------------------------------------------------------------|

                          gradually release bend
D|--17-----------------------------------------------------------------------|
A|------18-------------------------------------------------------------------|
F|----------19--19^-19^-19^-19^-19^-19^-19^-19^-19^-19^-19^-19^-19^-17-19~~--|
C|---------------------------------------------------------------------------|
G|---------------------------------------------------------------------------|
C|---------------------------------------------------------------------------|

D|-----------------------10--13p10-12p10-----13p10-12p10----13p10-12p10------|
A|---------------13--10------------------10--------------10-------------10---|
F|--10--12--12^--------------------------------------------------------------|
C|---------------------------------------------------------------------------|
G|---------------------------------------------------------------------------|
C|---------------------------------------------------------------------------|

D|--13p10-12p10-----13p10-12p10-----13--15p10-13p10-----15p10-13p10----------|
A|--------------10--------------10------------------10--------------10-------|
F|---------------------------------------------------------------------------|
C|---------------------------------------------------------------------------|
G|---------------------------------------------------------------------------|
C|---------------------------------------------------------------------------|

D|--15p10-13p10-----15p10-13p10-----15p10-13p10------------------------------|
A|--------------10--------------10--------------10--10--------10-------------|
F|-----------------------------------------------------10-12-----10-12-------|
C|---------------------------------------------------------------------------|
G|---------------------------------------------------------------------------|
C|---------------------------------------------------------------------------|
                                                        .  .      .  .

D|----------------------------------------------------------------------------|
A|-10--------10------------------13^-10h13p10h13p10h13p10h13p10---------------|
F|----10-12-----10-12--9--10--9---------------------------------13^-10h13p10h-|
C|----------------------------------------------------------------------------|
G|----------------------------------------------------------------------------|
C|----------------------------------------------------------------------------|
      .   .     .   .

D|---------------------------------------------------------------------------|
A|---------------------------------------------------------------------------|
F|-13p10h13p10h13p10h13------------------------------------------------------|
C|----------------------12---------------------------------------------------|
G|---------------------------------------------------------------------------|
C|---------------------------------------------------------------------------|
 not really sure about the last bar of the solo, but you can tinker with it

gtr. 1 during solo

D|----------------------------------------------------------------------------|
A|----------------------------------------------------------------------------|
F|----------------------------------------------------------------------------|
C|---8--8--8--8--8--8--8--8--8--8--0--0--x--x--0--0--x--x--0--0---------------|
G|---8--8--8--8--8--8--8--8--8--8--0--0--x--x--0--0--x--x--0--0---------------|
C|---8--8--8--8--8--8--8--8--8--8--0--0--x--x--0--0--x--x--0--0---------------|

octave fill during last verse

D|----------------------------------------------------------------------------|
A|----------------------------------------------------------------------------|
F|--10-10-10-10/12-12/14--9-9-9-9/10-10\9-------------------------------------|
C|---x--x--x--x/-x--x/-x--x-x-x-x/-x--x\x-------------------------------------|
G|---8--8--8--8/10-10/12--7-7-7-7/-8--8\7-------------------------------------|
C|----------------------------------------------------------------------------|

Outro

D|----------------|----------------------------------------------------------|
A|----------------|----------------------------------------------------------|
F|----------------|----------------------------------------------------------|
C|--5--5--5--5--5-|----------------8--7--0--2--3--0--0--0--0--5--7-----------|
G|--5--5--5--5--5-|----------------8--7--0--2--3--0--0--0--0--5--7-----------|
C|--5--5--5--5--5-|---0--8--7--0---8--7--0--2--3--0--0--0--0--5--7-----------|
                                         .        .  .  .  .


| *  pinch harmonic
| .  palm mute
| /  slide up
| \  slide down
| h  hammer-on
| p  pull-off
| ~  vibrato
| +  harmonic
| x  Mute note
===============================================================

================
Band- Disturbed
Song- I'm Alive
Album- Ten Thousand Fists
Tuning- Drop C

Intro
|-----------------------------------------------------------|
|-----------------------------------------------------------|
|-----------------------------------------------------------|
|-4-4-4-5-4-4-5-4-4-7h9---4-4-4-5-4-4-5-4-4-7h9-0-7h9-0-7h9-|
|-4-4-4-5-4-4-5-4-4-7h9---4-4-4-5-4-4-5-4-4-7h9-0-7h9-0-7h9-|
|-4-4-4-5-4-4-5-4-4-7h9---4-4-4-5-4-4-5-4-4-7h9-0-7h9-0-7h9-|
P.M.                                            .     .

|------------------------------------------------------|
|------------------------------------------------------|
|------------------------------------------------------|
|-4-4-4-5-4-4-5-4-4-7h9-0-7h9-1-1-1-3-2-1-1--1-1-3-2-1-|
|-4-4-4-5-4-4-5-4-4-7h9-0-7h9-1-1-1-3-2-1-1--1-1-3-2-1-|
|-4-4-4-5-4-4-5-4-4-7h9-0-7h9-1-1-1-3-2-1-1--1-1-3-2-1-|
P.M.                    .

Verse
|--------------------------|--------------------------|
|-----------------x3-------|--------------------------|
|--------------------------|--------------------------|
|-4-4-4--4-5-5-5-----9-7-9-|-1-1-1-3-2-1-1--1-1-3-2-1-|
|-4-4-4--4-5-5-5-----9-7-9-|-1-1-1-3-2-1-1--1-1-3-2-1-|
|-4-4-4--4-5-5-5-----9-7-9-|-1-1-1-3-2-1-1--1-1-3-2-1-|
P.M....  .......     .....

|-------------------------------|--------------------------|
|-------------------x3----------|--------------------------|
|-------------------------------|--------------------------|
|-4-4-4--4-5-5-5-4-5-5-5--9-7-9-|-1-1-1-3-2-1-1--1-1-3-2-1-|
|-4-4-4--4-5-5-5-4-5-5-5--9-7-9-|-1-1-1-3-2-1-1--1-1-3-2-1-|
|-4-4-4--4-5-5-5-4-5-5-5--9-7-9-|-1-1-1-3-2-1-1--1-1-3-2-1-|

Pre-Chorus
|-------------------------------------------|
|-------------------------------------------|
|-6-6-6-6--11-11-11-11-4-4-4-4--------------|
|-4-4-4-4--9--9--9--9--2-2-2-2--12-12-12-12-|
|-4-4-4-4--9--9--9--9--2-2-2-2--12-12-12-12-|
|-4-4-4-4--9--9--9--9--2-2-2-2--12-12-12-12-|(Not exact strumming pattern)

|---------------------------------------|
|---------------------------------------|
|-6-6-6-6--11-11-11-11-4-4-4-4--7-7-7-7-|
|-4-4-4-4--9--9--9--9--2-2-2-2--x-x-x-x-|
|-4-4-4-4--9--9--9--9--2-2-2-2--5-5-5-5-|
|-4-4-4-4--9--9--9--9--2-2-2-2----------|

|-------------------------|
|-------------------------|
|-------------------------|
|-5-5-5--5-5-5-5--5-5-5-5-|
|-5-5-5--5-5-5-5--5-5-5-5-|
|-5-5-5--5-5-5-5--5-5-5-5-|
P.M....  .......  .......

Chorus
|---------------------------|
|---------------------------|
|---------------------------|
|-4--0--2-x-x-x-4--0--2-4-5-|
|-4--0--2-x-x-x-4--0--2-4-5-|
|-4--0--2-x-x-x-4--0--2-4-5-|

Play Verse

Play Pre-Chorus

Bridge
|-------------------------------------------------|
|-------------------------------------------------|
|-------------------------------------------------|
|-0-7-0-7-6-0-7-0-7-9-0-7-0-7-6-3-3-3-------------|
|-0-7-0-7-6-0-7-0-7-9-0-7-0-7-6-3-3-3-------------|
|-0-7-0-7-6-0-7-0-7-9-0-7-0-7-6-3-3-3-4-6-7-6-4-2-|
P.M.                                  ...........

Play Intro

Play Pre-Chorus

Ending
|---------------------------------------|
|---------------------------------------|
|---------------------------------------|
|-5p3-3p2-3h5-4--0--2-x-x-x-4--0--2-5-7-|
|-5p3-3p2-3h5-4--0--2-x-x-x-4--0--2-5-7-|
|-5p3-3p2-3h5-4--0--2-x-x-x-4--0--2-5-7-|

End On
|--------------|
|--------------|
|--------------|
|-4~~~~~~~~~~~-|
|-4~~~~~~~~~~~-|
|-4~~~~~~~~~~~-|

Next up,Sacred Lie.Enjoy!
Band- Disturbed
Song- Son Of A Plunder
Album- Ten Thousand Fists
Tuning- C G C F A D

Intro
Guitar 1
|-----------------------------------------------------------------------|
|-----------------------------------------------------------------------|2x
|-----------------------------------------------------------------------|
|-----------------------------------------------------------------------|
|-----------------------------------------------------------------------|
|--3p0-0-5p0-0-3p0-0-3p0-0-5-0-3-5-3p0-0-5p0-0-3p0-0-3p0-0-6-5-3-5------|

Verse
Guitar 1
|-----------------------------------------------------------------------|
|-----------------------------------------------------------------------|
|-----------------------------------------------------------------------|4x
|-----------------------------------------------------------------------|
|-----------------------------------------------------------------------|
|--3p0-0-5p0-0-3p0-0-3p0-0-5-0-3-5-3p0-0-5p0-0-3p0-0-3p0-0-6-5-3-5------|
pm . . . . . . . . . . . . . . . . . . . . . . . . . . . . . . . .

Pre-Chorus
|--------------------------------------------|
|--------------------------------------------|
|--------------------------------------------|
|--0--6--0--3--0--6--0--6--3--5--3--6--5--3--|
|--0--6--0--3--0--6--0--6--3--5--3--6--5--3--|
|--0--6--0--3--0--6--0--6--3--5--3--6--5--3--|


|--------------------------------------------|
|--------------------------------------------|
|--------------------------------------------|
|-------6--0--3--0--6--0--6--3--5--3--6--0---|
|-0-0-0-6--0--3--0--6--0--6--3--5--3--6--0---|
|-0-0-0-6--0--3--0--6--0--6--3--5--3--6--0---|
pm. . .

Chorus
Guitar 1
   16x     16x      16x       16x
|--------------------------------------------|
|--------------------------------------------|
|--------------------------------------------|
|--12-------7--------8--------10-------------|
|--12-------7--------8--------10-------------|
|--12-------7--------8--------10-------------|

Guitar 2
|--------------------------------------------|
|--------------------------------------------|
|--7--9-10--9--7--5--7--9-10--12-10--5-------|
|--x--x--x--x--x--x--x--x--x---x--x--x-------|
|--5--7--8--7--5--3--5--7--8--10--8--3-------|
|--------------------------------------------|

Guitar 1
|----------------------------------------------------------|
|----------------------------------------------------------|
|----------------------------------------------------------|
|--12-------7--------8----8--3/5-5-5-x-3/5-5-5-x-3-5-------|
|--12-------7--------8----8--3/5-5-5-x-3/5-5-5-x-3-5-------|
|--12-------7--------8----8--3/5-5-5-x-3/5-5-5-x-3-5-------|

Guitar 2
|----------------------------------------------------------|
|----------------------------------------------------------|
|--7--9-10--9--7--5--8----8--3/5-5-5-x-3/5-5-5-x-3-5-------|
|--x--x--x--x--x--x--8----8--3/5-5-5-x-3/5-5-5-x-3-5-------|
|--5--7--8--7--5--3--8----8--3/5-5-5-x-3/5-5-5-x-3-5-------|
|----------------------------------------------------------|

Verse 2
Lead In
Guitar 1
|-------------------------------------|
|-------------------------------------|
|-------------------------------------|
|-------------------------------------|
|-------------------------------------|
|--3p0-0-5p0-0-3p0-0-3p0-0-5-0-3-5----|
pm . . . . . . . . . . . . . . . .

Guitar 1
|------------------------------------------------------|
|------------------------------------------------------|
|------------------------------------------------------|
|--------------------------2-------------------------2-|
|--0-0-0-0-0-00-0-0-0-0-00-2-0-0-0-0-0-00-0-0-0-0-00-2-|
|--0-0-0-0-0-00-0-0-0-0-00-2-0-0-0-0-0-00-0-0-0-0-00-2-|
pm . . . . . .. . . . . . .  . . . . . .. . . . . ..

Guitar 1
|-----------------------------------------------------------------------|
|-----------------------------------------------------------------------|
|-----------------------------------------------------------------------|2x
|-----------------------------------------------------------------------|
|-----------------------------------------------------------------------|
|--3p0-0-5p0-0-3p0-0-3p0-0-5-0-3-5-3p0-0-5p0-0-3p0-0-3p0-0-6-5-3-5------|

Pre-Chorus

Chorus

Bridge
Here's the Bass line translated to guitar to help describe the timing
|---------------------------------------------------|
|---------------------------------------------------|
|---------------------------------------------------|
|----3---2---2---3---2-0-----3---2---2---3---2---5--|
|------------------------3--------------------------|
|--0---0---0---0---0-------0---0---0---0---0---0----|

Guitar 1
|----------------------------------------------------|
|----------------------------------------------------|
|--2~~~~~~~~~~~~~~~~~~~~~~~2~~~~~~~~~~~~~~~~~~~~~~~~~
|--0~~~~~~~~~~~~~~~~~~~~~~~0~~~~~~~~~~~~~~~~~~~~~~~~~
|--0~~~~~~~~~~~~~~~~~~~~~~~0~~~~~~~~~~~~~~~~~~~~~~~~~
|--0~~~~~~~~~~~~~~~~~~~~~~~0~~~~~~~~~~~~~~~~~~~~~~~~~

|---------------------------------------------------|
|---------------------------------------------------|
|---------------------------------------------------|
|----3---2---2---3---2-0-----3---2---2---3---2---5--|
|------------------------3--------------------------|
|--0---0---0---0---0-------0---0---0---0---0---0----|

|---------------------------------------------------|
|---------------------------------------------------|
|~~~~~~~~~~~~~~~~~~~~~~~~~~~~~~~~~~~~~~~~~~~~~~~~~~~|
|~~~~~~~~~~~~~~~~~~~~~~~~~~~~~~~~~~~~~~~~~~~~~~~~~~~|
|~~~~~~~~~~~~~~~~~~~~~~~~~~~~~~~~~~~~~~~~~~~~~~~~~~~|
|~~~~~~~~~~~~~~~~~~~~~~~~~~~~~~~~~~~~~~~~~~~~~~~~~~~|

Part II
|---------------------------------------------------------------------------|
|---------------------------------------------------------------------------|
|---------------------------------------------------------------------------|
|-------------------------------------------------------------------12-11---|
|--0-10h12-0-12h13-0-10h12-0-12h13-0-8h10-0-10h12-0-12h13-0-10h12-0-10--9-0-|
|--0-10h12-0-12h13-0-10h12-0-12h13-0-8h10-0-10h12-0-12h13-0-10h12-0-------0-|
pm         .       .       .       .      .       .       .       .       .

|----------------------------------------------------------------------|
|----------------------------------------------------------------------|
|----------------------------------------------------------------------|2x
|----------------------------------------------8--8/13--13--8----------|
|-13p12-0-10h12-0-12h13-0-10h12-0-12h13-0-8h10-8--8/13--13--8----------|
|-13p12-0-10h12-0-12h13-0-10h12-0-12h13-0-8h10-8--8/13--13--8----------|
pm              .       .       .       .

Last Chorus

Guitar 1
   16x     16x      16x       16x
|--------------------------------------------|
|--------------------------------------------|
|--------------------------------------------|
|--12-------7--------8--------10-------------|
|--12-------7--------8--------10-------------|
|--12-------7--------8--------10-------------|

Guitar 2
|--------------------------------------------|
|--------------------------------------------|
|--7--9-10--9--7--5--7--9-10--12-10--5-------|
|--x--x--x--x--x--x--x--x--x---x--x--x-------|
|--5--7--8--7--5--3--5--7--8--10--8--3-------|
|--------------------------------------------|

Guitar 1
|----------------------------------------------------------|
|----------------------------------------------------------|
|----------------------------------------------------------|
|--12-------7--------8----8--3/5-5-5-x-3/5-5-5-x-3-5-------|
|--12-------7--------8----8--3/5-5-5-x-3/5-5-5-x-3-5-------|
|--12-------7--------8----8--3/5-5-5-x-3/5-5-5-x-3-5-------|

Guitar 2
|--------------------------------------------------------------|
|--------------------------------------------------------------|
|--7--9-10--9--7--5--8----8--3/5-5-5-x-3/5-5-5-x---------------|
|--x--x--x--x--x--x--8----8--3/5-5-5-x-3/5-5-5-x---------------|
|--5--7--8--7--5--3--8----8--3/5-5-5-x-3/5-5-5-x-0-0-0-3-------|
|--------------------------------------------------------5-4-3-|
pm                                               . . .   . . .

Guitar 1
   16x     16x      16x       16x
|--------------------------------------------|
|--------------------------------------------|
|--------------------------------------------|
|--12-------7--------8--------10-------------|
|--12-------7--------8--------10-------------|
|--12-------7--------8--------10-------------|

Guitar 2
|--------------------------------------------|
|--------------------------------------------|
|--7--9-10--9--7--5--7--9-10--12-10--5-------|
|--x--x--x--x--x--x--x--x--x---x--x--x-------|
|--5--7--8--7--5--3--5--7--8--10--8--3-------|
|--------------------------------------------|

Guitar 1
|----------------------------------------------------------|
|----------------------------------------------------------|
|----------------------------------------------------------|
|--12-------7--------8----8--3/5-5-5-x-3/5-5-5-x-3-5-------|
|--12-------7--------8----8--3/5-5-5-x-3/5-5-5-x-3-5-------|
|--12-------7--------8----8--3/5-5-5-x-3/5-5-5-x-3-5-------|

Guitar 2
|----------------------------------------------------------|
|----------------------------------------------------------|
|--7--9-10--9--7--5--8----8--3/5-5-5-x-3/5-5-5-x-3-5-------|
|--x--x--x--x--x--x--8----8--3/5-5-5-x-3/5-5-5-x-3-5-------|
|--5--7--8--7--5--3--8----8--3/5-5-5-x-3/5-5-5-x-3-5-------|
|----------------------------------------------------------|

Outro
Guitar 1
|-----------------------------------------------------------------------|
|-----------------------------------------------------------------------|
|-----------------------------------------------------------------------|2x
|-----------------------------------------------------------------------|
|-----------------------------------------------------------------------|
|--3p0-0-5p0-0-3p0-0-3p0-0-5-0-3-5-3p0-0-5p0-0-3p0-0-3p0-0-6-5-3-5------|
pm . . . . . . . . . . . . . . . . . . . . . . . . . . . . . . . .

Guitar 1
|-----------------------------------------------------------------------|
|-----------------------------------------------------------------------|
|-----------------------------------------------------------------------|2x
|-----------------------------------------------------------------------|
|-----------------------------------------------------------------------|
|--3p0-0-5p0-0-3p0-0-3p0-0-5-0-3-5-3p0-0-5p0-0-3p0-0-3p0-0-6-5-3-5------|
Band- Disturbed
Song- Overburdened
Album- Tem Thousand Fists
Tuning- Drop C

|----------------------------------------------|
|----------------------------------------------|
|----------------------------------------------|
|-0~~~~~~-------0-0------0~~~~~----9----6------|
|-0~~~~~~-------0-0------0~~~~~----9----6------|
|-0~~~~~~-------0-0------0~~~~~----9----6--12/-|
P.M.            ...
Intro bass,  you can also do this on guitar
|-10------10--10----10-14------12------10----|
|----12----------12-------12------12------12-|
|-------0--------------------0-------0-------|
|--------------------------------------------|
|--------------------------------------------|

|-9------9--9---------------------------|
|---10--------10---9------9------9------|
|------0---------0---10-----10-----10---|
|-----------------------0------0------0-|
|---------------------------------------|

|--9~~~~~~~~~~~~~~-|
|-10~~~~~~~~~~~~~~-|
|--0~~~~~~~~~~~~~~-|
|------------------|
|------------------|

Verse
|-------------------------------------------------------------|
|---14---12---15---15---17---15-----14---12---10---10---9---9-|
|-0----0----0----0----0----0----0-0----0----0----0----0---0---|
|-------------------------------------------------------------|
|-------------------------------------------------------------|

|-------------------------------------------------------|
|---14---12---15---15---17---15-------------------------|
|-0----0----0----0----0----0----------------------------|
|-------------------------------9-9-9-9-9-9-6-6-6-6-6-6-|
|-------------------------------------------------------|


Verse
|--------------------------------------------------|
|--------------------------------------------------|
|--------------------------------------------------|
|-0--0-0--0--0-0-0--0-3-5--0--0-0--0--0-0-0--5-5-0-|
|-0--0-0--0--0-0-0--0-3-5--0--0-0--0--0-0-0--5-5-0-|
|-0--0-0--0--0-0-0--0-3-5--0--0-0--0--0-0-0--5-5-0-|
P.M. ...  .  .....  .....     ...  .  .....  ...

|------------------------------|
|------------------------------|
|------------------------------|
|-0-0--0--0-0-0--0-3-5--9----6-|
|-0-0--0--0-0-0--0-3-5--9----6-|
|-0-0--0--0-0-0--0-3-5--9----6-|
P.M..  .  .....  .....

Pre-Chorus-with wah pedal
|------------------------------|
|------------------------------|
|------------------------------|
|------------------------------|
|-7-10-7-9-7-5-7--7-10-7-9-7-5-|
|------------------------------|

Chorus
|------------------------------------------|
|------------------------------------------|
|------------------------------------------|
|-0-0-6--0--3-3--0-3-5--0-0-6--0--3--5-5-3-|
|-0-0-6--0--3-3--0-3-5--0-0-6--0--3--5-5-3-|
|-0-0-6--0--3-3--0-3-5--0-0-6--0--3--5-5-3-|
P.M..                   ...

|---------------------------------------------|
|---------------------------------------------|
|---------------------------------------------|
|-0-0-6--0--3-3--0-3-5-6-6-6--8-6-9-9-9-9-9-9-|
|-0-0-6--0--3-3--0-3-5-6-6-6------9-9-9-9-9-9-|
|-0-0-6--0--3-3--0-3-5-6-6-6------9-9-9-9-9-9-|
P.M..                               .....

Fill
|--------------------------|--------|
|------------x2------------|--------|
|--------------------------|--------|
|-0--0-0--0--0-0-0--0-0--0-|-9----6-|
|-0--0-0--0--0-0-0--0-0--0-|-9----6-|
|-0--0-0--0--0-0-0--0-0--0-|-9----6-|
P.M  ...  .  .....  ...

Verse 2
|-------------------------------------------------|
|-------------------------------------------------|
|-------------------------------------------------|
|-0--0-0--0--0-0-0--0-3-5-0--0-0--0--0-0-0--5-5-3-|
|-0--0-0--0--0-0-0--0-3-5-0--0-0--0--0-0-0--5-5-3-|
|-0-----------------------0-----------------------|

|--------------------------------------------------|
|--------------------------------------------------|
|--------------------------------------------------|
|-0--0-0--0--0-0-0--0-3-5--9-9-9-9-9-9-6-6-6-6-6-6-|
|-0--0-0--0--0-0-0--0-3-5--9-9-9-9-9-9-6-6-6-6-6-6-|
|-0------------------------9-9-9-9-9-9-6-6-6-6-6-6-|


Solo
|--------------------------------------------|
|-10^----10-12^-10----------10^--------------|
|-----11-----------9-9-11-9-----11-11-11/7\9-|
|--------------------------------------------|
|--------------------------------------------|
|--------------------------------------------|

|--------------------------------------------------------|
|--------------------------------------------------------|
|-9-9-10p9p7h9-10p9p7h9-10p9p7h9-------------10h12p10----|
|--------------------------------------10h12----------12-|
|--------------------------------10h12-------------------|
|--------------------------------------------------------|

|-----------------------------|
|-----------------------------|
|-----------------------------|
|-------10-12-12-12^-12p10-12-|
|-10h12-----------------------|
|-----------------------------|

|----------------------------------------------|
|----------------------------------------------|
|---19---17---15---17---15---14---15---14---12-|
|-0----0----0----0----0----0----0----0----0----|
|----------------------------------------------|
|----------------------------------------------|

|------------------------------------------------|
|------------------------------------------------|
|------------------------------------------------|
|-14-15-17-14-15-17-14-15-18-14-15-17-14-15-14*^-|
|------------------------------------------------|
|------------------------------------------------|

|------------------------------------------------|
|-13^-13-12-12-------13-15-15^-15-13----13-15-17-|
|--------------12-12-----------------14----------|
|------------------------------------------------|
|------------------------------------------------|
|------------------------------------------------|

|-15p13p12-17p13p12-15p13p12-17p13p12-15p13p12-17p13p12-18^-|
|-----------------------------------------------------------|
|-----------------------------------------------------------|
|-----------------------------------------------------------|
|-----------------------------------------------------------|
|-----------------------------------------------------------|
Band- Disturbed
Song- Decadance
Album- 10,000 Fists
Tuning- C G C F A D

Intro- Fade in
|------------------------------------|------------------------------------|
|------------------------------------|------------------------------------|
|------------------------------------|------------------------------------|2x
|------------------------------------|------------------------------------|
|--------------5-------3-------2-----|--------------5-------3-------5-----|
|--3-2-0-2-0-2---2-0-2---2-0-2---2---|--3-2-0-2-0-2---2-0-2---2-0-2---2---|

Intro- Heavy Distortion
|------------------------------------|------------------------------------|
|------------------------------------|------------------------------------|
|------------------------------------|------------------------------------|2x
|--------------5-------3-------2-----|--------------5-------3-------5-----|
|--3-2-0-2-0-2---2-0-2---2-0-2---2---|--3-2-0-2-0-2---2-0-2---2-0-2---2---|
|--3-2-0-2-0-2---2-0-2---2-0-2---2---|--3-2-0-2-0-2---2-0-2---2-0-2---2---|

Verse
|--------------------------------|-------------------------------|
|--------------------------------|-------------------------------|
|--------------------------------|-------------------------------|
|--------------------------------|-------------------------------|
|--------------------------------|-------------------------------|
|--222-0-2-0-2-222-0-2-0-2-3-2-0-|-222-0-2-0-2-222-0-2-0-2-3-2-0-|
pm ... . . . . ... . . . . . . .   ... . . . . ... . . . . . . .  
                                                                  2x

|--------------------------------|-------------------------------|
|--------------------------------|-------------------------------|
|--------------------------------|-------------------------------|
|--------------------------------|-------------------------------|
|--------------------------------|-------------5-------3-------5-|
|--222-0-2-0-2-222-0-2-0-2-3-2-0-|-222-0-2-0-2---2-0-2---2-0-2-5-|
pm ... . . . . ... . . . . . . .   ... . . . .   . . .   . . .

Chorus
|---------------------------------------------|
|---------------------------------------------|
|--------------------------------------4-5-4--|
|--2--2--10--10--10--10-10-4-4-4-4-4-4--------|
|--2--2--10--10--10--10-10-4-4-4-4-4-4--------|
|--2--2--10--10--10--10-10-4-4-4-4-4-4--------|

|--------------------------------------------|
|--------------------------------------------|
|-------------------------------------4---7--|
|--2--2--10--10--10--10-10-4--4--4----x---x--|
|--2--2--10--10--10--10-10-4--4--4-44-2-0-5--|
|--2--2--10--10--10--10-10-4--4--4-44---0----|
pm                                 ..   .

|---------------------------------------------|
|---------------------------------------------|
|--------------------------------------4-5-4--|
|--2--2--10--10--10--10-10-4-4-4-4-4-4--------|
|--2--2--10--10--10--10-10-4-4-4-4-4-4--------|
|--2--2--10--10--10--10-10-4-4-4-4-4-4--------|

|-------------------------------------------------------------|
|-------------------------------------------------------------|
|-------------------------------------------------------------|
|--2--2--0--0--0-0-0--10-10-10-10-10-10-10-10-10-10-10-10-10--|
|--2--2--0--0--0-0-0--10-10-10-10-10-10-10-10-10-10-10-10-10--|
|--2--2--0--0--0-0-0--10-10-10-10-10-10-10-10-10-10-10-10-10--|

Post Chorus
|------------------------------------|------------------------------------|
|------------------------------------|------------------------------------|
|------------------------------------|------------------------------------|
|------------------------------------|------------------------------------|
|--------------5-------3-------2-----|--------------5-------3-------5-----|
|--3-2-0-2-0-2---2-0-2---2-0-2---2---|--3-2-0-2-0-2---2-0-2---2-0-2---2---|

|------------------------------------|------------------------------------|
|------------------------------------|------------------------------------|
|------------------------------------|------------------------------------|
|------------------------------------|------------------------------------|
|--------------5-------3-------2-----|--------------5-------3-------5-----|
|--3-2-0-2-0-2---2-0-2---2-0-2---2---|--3-2-0-2-0-2---2-0-2---2-0-2-5-----|

Verse 2x

Chorus

Bridge
|-------------------------------------------------|
|-------------------------------------------------|
|-------------------------------------------------|
|--14\\2-3-2-x-2-3-2-----14\\2-3-2-7-8-7-x-3-3----|
|--14\\2-3-2-x-2-3-2-2-2-14\\2-3-2-7-8-7-x-3-3----|
|--14\\2-3-2-x-2-3-2-2-2-14\\2-3-2-7-8-7-x-3-3----|
pm                   . .
                                                   4x   

|-------------------------------------------------|
|-------------------------------------------------|
|-------------------------------------------------|
|--14\\2-3-2-x-2-3-2-----14\\2-3-2-7-8-7-x-10-10--|
|--14\\2-3-2-x-2-3-2-2-2-14\\2-3-2-7-8-7-x-10-10--|
|--14\\2-3-2-x-2-3-2-2-2-14\\2-3-2-7-8-7-x-10-10--|
pm                   . .

Last Chorus
|-----------------------------------------------|
|-----------------------------------------------|
|--------------------------------------4-5-4----|
|--2--2--10--10--10--10-10-4-4-4-4-4-4----------|
|--2--2--10--10--10--10-10-4-4-4-4-4-4----------|
|--2--2--10--10--10--10-10-4-4-4-4-4-4----------|

|-----------------------------------------------|
|-----------------------------------------------|
|-------------------------------------4---------|
|--2--2--10--10--10--10-10-4--4--4----x---------|
|--2--2--10--10--10--10-10-4--4--4-44-2-0-0-0-0-|
|--2--2--10--10--10--10-10-4--4--4-44---0-0-0-0-|
pm                                 ..   . . . .

|-----------------------------------------------|
|-----------------------------------------------|
|--------------------------------------4-5-4----|
|--2--2--10--10--10--10-10-4-4-4-4-4-4----------|
|--2--2--10--10--10--10-10-4-4-4-4-4-4----------|
|--2--2--10--10--10--10-10-4-4-4-4-4-4----------|

|-------------------------------------------------------------|
|-------------------------------------------------------------|
|-------------------------------------------------------------|
|--2--2--0--0--0-0-0--10-10-10-10-10-10-10-10-10-10-10-10-10--|
|--2--2--0--0--0-0-0--10-10-10-10-10-10-10-10-10-10-10-10-10--|
|--2--2--0--0--0-0-0--10-10-10-10-10-10-10-10-10-10-10-10-10--|

|-----------------------------------------|
|-----------------------------------------|
|-----------------------------------------|
|-10-10-10-10-10-10-10-10-10~~~~~~~~~~~~--|
|-10-10-10-10-10-10-10-10-10~~~~~~~~~~~~--|
|-10-10-10-10-10-10-10-10-10~~~~~~~~~~~~--|

Outro
|------------------------------------|------------------------------------|
|------------------------------------|------------------------------------|
|------------------------------------|------------------------------------|
|------------------------------------|------------------------------------|
|--------------5-------3-------2-----|--------------5-------3-------5-----|
|--3-2-0-2-0-2---2-0-2---2-0-2---2---|--3-2-0-2-0-2---2-0-2---2-0-2---2---|

|------------------------------------|------------------------------------|
|------------------------------------|------------------------------------|
|------------------------------------|------------------------------------|
|------------------------------------|------------------------------------|
|--------------5-------3-------2-----|--------------5-------3-------5-----|
|--3-2-0-2-0-2---2-0-2---2-0-2---2---|--3-2-0-2-0-2---2-0-2---2-0-2-5-----|

|------------------------------------|------------------------------------|
|------------------------------------|------------------------------------|
|------------------------------------|------------------------------------|
|------------------------------------|------------------------------------|
|--------------5-------3-------2-----|--------------5-------3-------5-----|
|--3-2-0-2-0-2---2-0-2---2-0-2---2---|--3-2-0-2-0-2---2-0-2---2-0-2---2---|
pm . . . . . .   . . .   . . .   .      . . . . . .   . . .   . . .   .

|------------------------------------|------------------------------------|
|------------------------------------|------------------------------------|
|------------------------------------|------------------------------------|
|------------------------------------|------------------------------------|
|--------------5-------3-------2-----|--------------5-------3-------5-----|
|--3-2-0-2-0-2---2-0-2---2-0-2---2---|--3-2-0-2-0-2---2-0-2---2-0-2-5-----|
pm . . . . . .   . . .   . . .   .
Band- Disturbed
Song- Forgiven
Album- Ten Thousand Fists
Tuning- Drop C

Intro
|---------------------------------------|
|---------------------------------------|
|---------------------------------------|
|-----------------------3-3-3-8-8-8-8-8-|
|-7-5-7-5-7-7-5-7-5-7-7-3-3-3-8-8-8-8-8-|
|-7-5-7-5-7-7-5-7-5-7-7-3-3-3-8-8-8-8-8-|(Play 3's and 8' open last time)
P.M....................................

|---------------------------------------|
|---------------------------------------|
|---------------------------------------|
|-----------------------3-3-3-8-8-8-8-8-|
|-7-5-7-5-7-7-5-7-5-7-7-3-3-3-8-8-8-8-8-|
|-7-5-7-5-7-7-5-7-5-7-7-3-3-3-8-8-8-8-8-|

Guitar 2
|--------------------------------------------|
|--------------------------------------------|
|-----------------------5-5-5-10-10-10-10-10-|
|-----------------------x-x-x-x--x--x--x--x--|
|-7-5-7-5-7-7-5-7-5-7-7-3-3-3-8--8--8--8--8--|
|-7-5-7-5-7-7-5-7-5-7-7----------------------|

Verse
|---------------------------------------|
|---------------------------------------|
|---------------------------------------|
|-----------------------3-3-3-8-8-8-8-8-|
|-7-5-7-5-7-7-5-7-5-7-7-3-3-3-8-8-8-8-8-|
|-7-5-7-5-7-7-5-7-5-7-7-3-3-3-8-8-8-8-8-|(Play 2 times)
P.M....................................

|-------|
|-------|
|-------|
|----5*-|
|-5*----|
|-------|(After the harmonics play the other verse part w/o P.M.)

Chorus
|-----------------------------------------|
|-----------------------------------------|
|-----------------------------------------|
|-3-x-x-3-0-7---------------5h7p5---------|
|-3-x-x-3-0-7-5h7-7-0-0-5h7-------7p5-----|
|-3-x-x-3-0-7-5h7-7-0-0---------------7p5-|
P.M.                ...

|-----------------------------------|
|-----------------------------------|
|-----------------------------------|
|-3-x-x-3-8-7-----------------------|
|-3-x-x-3-8-7-5h7-7p5-5h7-7p5-5-7-8-|
|-3-x-x-3-8-7-5h7-7p5-5h7-7p5-5-7-8-|

|-----------------------------------------|
|-----------------------------------------|
|-----------------------------------------|
|-3-x-x-3-0-7---------------5h7p5---------|
|-3-x-x-3-0-7-5h7-7-0-0-5h7-------7p5-----|
|-3-x-x-3-0-7-5h7-7-0-0---------------7p5-|
P.M.                ...

|---------------------------|
|---------------------------|
|-7-7-7-7-7-7-7-------------|
|-5-5-5-5-5-5-5-3-2-0-2-3-5-|
|-5-5-5-5-5-5-5-3-2-0-2-3-5-|
|-5-5-5-5-5-5-5-3-2-0-2-3-5-|

Play Intro

Play Verse

Play Chorus

Bridge
|----------|
|----------|
|----------|
|-7~~~~~~~-|
|-7~~~~~~~-|
|-7~~~~~~~-|

|-----------------------------------------|
|-----------------------------------------|
|-----------------------------------------|
|-7-7-7-7-7-3-3-3-3-3-8-8-8-8-8-2-2-2-2-2-|
|-7-7-7-7-7-3-3-3-3-3-8-8-8-8-8-2-2-2-2-2-|
|-7-7-7-7-7-3-3-3-3-3-8-8-8-8-8-2-2-2-2-2-|
P.M......................................

Solo Build-Up
|---------------|
|---------------|
|---------------|
|-2-2-2-2-2-2-2-|
|-2-2-2-2-2-2-2-|
|-2-2-2-2-2-2-2-|
P.M....

Solo Backing
(Play intro part with a few variations that you should be able to figure out)

Play Chorus

Last Chorus Ending
|-------------------------------|
|-------------------------------|
|-------------------------------|
|-----------------5h7p5---------|
|-3p2-3p2-3p2-5h7-------7p5-----|
|-3p2-3p2-3p2---------------7p5-|

Ending
|--------------------------------------------------|
|--------------------------------------------------|
|--------------------------------------------------|
|-----------------------3-x-3-x-3-8-x-8-x-8-x-8-10-|
|-7-5-7-5-7-7-5-7-5-7-7-3-x-3-x-3-8-x-8-x-8-x-8-10-|
|-7-5-7-5-7-7-5-7-5-7-7-3-x-3-x-3-8-x-8-x-8-x-8-10-|

End On
|---------------|
|---------------|
|---------------|
|-7~~~~~~~~~~~~-|
|-7~~~~~~~~~~~~-|
|-7~~~~~~~~~~~~-|
Band- Disturbed
Song- Land Of Confusion
Album- Ten Thousand Fists
Tuning- Drop C

Intro
|----------------------------------|
|----------------------------------|
|----------------------------------|
|-5-7-5-5-5-5-7-5--5-7-5-5-5-5-7-5-|
|-5-7-5---5-5-7-5--5-7-5---5-5-7-5-|
|-5-7-5---5-5-7-5--5-7-5---5-5-7-5-|

Verse
|-------------------------------------------------|
|-------------------------------------------------|
|-------------------------------------------------|
|-5-7/--------------------7-9/--------------------|
|-5-7/-5-5--5-5-5-5-5-5-5-7-9/-7-7--7-7-7-7-7-7-7-|
|-5-7/-5-5--5-5-5-5-5-5-5-7-9/-7-7--7-7-7-7-7-7-7-|
P.M.   ...  .............      ...  .............

|------------------------------------------------|
|------------------------------------------------|
|------------------------------------------------|
|-9-11/------------------5-7/--------------------|
|-9-11/-9-9--9-9-9-9-9-9-5-7/-5-5--5-5-5-5-5-5-5-|
|-9-11/-9-9--9-9-9-9-9-9-5-7/-5-5--5-5-5-5-5-5-5-|
P.M.    ...  ...........      ...  .............

Pre-Chorus
|--------------------------------|
|--------------------------------|
|--------------------------------|
|-0--2---5--7---0--2---5--0------|
|-0--2---5--7---0--2---5--0--12/-|
|-0--2---5--7---0--2---5--0--12/-|

Chorus
|-------------------|
|-------------------|
|-7-7-8-8-----------|
|-x-x-x-x-7-7--3--5-|
|-5-5-6-6-7-7--3--5-|
|---------7-7--3--5-|

Play Intro

Play Verse

Play Pre-Chorus

Play Chorus

Play Intro

Bridge
|------------------------------------|
|------------------------------------|
|------------------------------------|
|------------------------------------|
|-7-9-10-7-9-10-7-9-10-6-7-9-5-7-5-3-|
|------------------------------------|

|-------------------------------------|
|-------------------------------------|
|-------------------------------------|
|-------------------------------------|
|-7-9-10-7-9-10-7-9-10-6-7-9-5-7-5-10-|
|-------------------------------------|

|-------------------------|
|-------------------------|
|-------------------------|
|-5-5-5-4-4-4-7-7-7-9-9-9-|
|-5-5-5-4-4-4-7-7-7-9-9-9-|
|-5-5-5-4-4-4-7-7-7-9-9-9-|

|----------------------------------------|
|----------------------------------------|
|----------------------------------------|
|-7~-------------------------------------|
|-7~--7-7--7-7-7-7-7-7--7-7--7-7-7-7-7-7-|
|-7~--7-7--7-7-7-7-7-7--7-7--7-7-7-7-7-7-|(Play the 7's open after 2 times)
P.M.  ...  ...........  ...  ...........

|----|
|----|
|----|
|-5~-|
|-5~-|
|-5~-|

Play Verse

Play Pre-Chorus

Play Chorus

Play Intro(to end)

That's all.No solo yet,I'll post it when I figure it out)I'll also be posting
Forgiven,I'm Alive,and Sacred Lie soon.Check out my other tabs too(Overburdened,
Just Stop,Guarded,and Stricken.)






ill tab scared life later. come on its just so easy to learn by ear.

Intro (guitar1 with delay effect)
D|---------------------|
A|---------------------|
F|---------------------|
C|---------------------|   Not to sure on this bit. 
G|-000-4--44-111-3--33-|   Either way, Palm mute it.
C|-000-4--44-111-3--33-|     


Pre-Verse (guitar1)
D|----------------------------|
A|----------------------------|
F|----------------------------|
C|----------------------------|
G|----------------------------|
C|-555-7-555-3-555-7-555-7562-|   Palm mute this section.


Pre-Verse (guitar2)
D|---------------------------------|
A|---------------------------------|
F|-xxx-9-xxx-7-xx-5-xxx-3-xx-5-x-3-|
C|-xxx-x-xxx-x-xx-x-xxx-x-xx-x-x-x-|
G|-xxx-7-xxx-5-xx-3-xxx-1-xx-3-x-1-|
C|---------------------------------|

Verse (guitar1)
D|---------------------------------------------------------|
A|---------------------------------------------------------| Palm mute this.
F|---------------------------------------------------------|
C|---------------------------------------------------------|
G|---------------------------------------------------------|
C|-5-5-5--5-5-55-5-5-5--5-5-55-1-1-1--1-1-11-3-3-3--3-3-33-|

Verse (guitar2)
D|-----------------------------|
A|-----------------------------|
F|-7---9---5~----7---9-10---5~-|
C|-x---x---x~----x---x-x----x~-|
G|-5---7---3~----5---7-8----3~-|
C|-----------------------------|

Pre-Chorus (both guitars)
D|---------------------------------------------------------------------|
A|---------------------------------------------------------------------|
F|---------------------------------------------------------------------|
C|---------------------------------------------------------------------|
G|-5-8-5-5-5-5-5-555-5-10-5-5-5-5-5-555-5-12-5-5-5-5-5-555-3-3-3/8-8-8-|
C|-5-8-5-5-5-5-5-555-5-10-5-5-5-5-5-555-5-12-5-5-5-5-5-555-3-3-3/8-8-8-|

Chorus (guitar1)
D|----------------------------------|
A|----------------------------------|
F|----------------------------------|
C|-5-5-5-3-3-3-8-8-8-8-1-1-1-0-0-44-|
G|-5-5-5-3-3-3-8-8-8-8-1-1-1-0-0-44-|
C|-5-5-5-3-3-3-8-8-8-8-1-1-1-0-0-44-|

Chorus (guitar2)
D|----------------------------|
A|----------------------------|
F|-777-555-101010-333-555-----|
C|-xxx-xxx-x-x-x--xxx-xxx-----|
G|-555-333-8-8-8--111-333-----|
C|----------------------------|

Bridge (guitar2)
D|-----------------|
A|-----------------|  I only have guitar2 figured out so far. 
F|-5---6---5---7---|  The rest will be up soon.
C|-x---x---x---x---|
G|-3---4---3---5---|
C|-----------------|

Bridge - Part 2 (both guitars)
D|-------------------------------------|
A|-------------------------------------|
F|-------------------------------------|
C|-5--3--8--3--5--3-5-3--8--3--5--33-3-|
G|-5--3--8--3--5--3-5-3--8--3--5--33-3-|
C|-5--3--8--3--5--3-5-3--8--3--5--33-3-|

Thats all so far. You can tweak around with it to make it
perfect. I know its not perfect, but its around those lines. Enjoy this
amazing song!

ill tab the rest later.
comments
print report bad tab
35 comments total. Showing first comments.
+2 reply
Operator (CA) wrote on September 27 2005, 04:40 pm

copy/paste all the way

-2 reply
Andrew Zara wrote on September 27 2005, 05:28 pm

Dude you really suck.I was gonna paste MY tabs to make my album tab but you already did it stop copying tabs.

-1 reply
Andrew Zara wrote on September 27 2005, 05:31 pm

Oh,yeah and also you said you'll tab sacred lie later yeah when I or some other guy tab it then you'll just paste it on.Your such a loser dude it's pathetic.You just probably can't tab anything so you copy someone else's work and you take all the credit.Pathetic.

I want to post or [tab]
guest
You may want to rate the tab now too:
select rating
Please do not post tabs as comments. Select "correction" instead!