Oops, an error
Loading. Please wait.

Ten Thousand Fists Tab

ver2
4,761 views 1 this week
5 commentsread comments
1 2 3 4 5
not so good
x 5
Autoscroll
+/-
esc
set tempo
stop
Contributor
Hey! There's an official Ultimate Guitar app which is ideal
for learning songs when you're away from computer. Get the app
WARNING: You are trying to view
                                    content from Ultimate-Guitar.com
                                    in an unauthorized application,
                                    which is prohibited.

                                    Please use an official Ultimate
                                    Guitar Tabs application for iPhone,
                                    iPad or Android to access legitimate
                                    chords, guitar, bass, and drum tabs
                                    from Ultimate-Guitar.com database.

                                    Type "ultimate guitar tabs" in Apple
                                    App Store's or Android Market's
                                    search to find the application.
    Here is the better version in my mind. This one has all of the tracks. I believe it's more accurate.

Artist:Disturbed
Album:Ten Thousand Fists
Year:2005
Track Listing:

1.10,000 Fists
2.Just Stop
3.Guarded
4.Deify
5.Stricken
6.I'm Alive
7.Sons Of Plunder
8.Overburdened
9.Decadence
10.Forgiven
11.Land Of Confusion
12.Sacred Lie
13.Pain Redefined
14.Avarice

p=pull off
h=hammer on
b=bend
*=harmonic
~=vibrato
/or\=slide
PM=palm mute
X=chug

1.10,000 Fists
Drop Db

Intro:Sitar effect(found in Digitech Weapon)
D-------9----9--9-8-----------|
A---------11--------11-10--8--|
F-11-10-----------------------|  X2
C-----------------------------|
G-----------------------------|
C-----------------------------|

This is a second guitar.
D----------------------------------------|
A----------------------------------------|
F----------------------------------------|  X2
C----------------------------------------|
G--9868-9868-98689868-----9868-98689868--|
C----------------------------------------|

Pre-Verse
D------------------------------------|
A------------------------------------|   X2
F------------------------------------|
C--3202-3202-302320-----3202-320320--|
G--3202-3202-302320-----3202-320320--|
C--3202-3202-302320-----3202-320320--|

Verse
D------------------------------------------------------------|
A------------------------------------------------------------| X2
F------------------------------------------------------------|
C------------------------------------------------------------|
G------------------------------4303-4303-43034303-4303-4303--|
C--3-3-3-3-3-3/5-555-5-8-444-4-4303-4303-43034303-4303-4303--|

Chorus
D------------------------------|
A------------------------------|
F--5-5-5/7-7-7/8-8-8/10---8-7--|
C--3-3-3/5-5-5/6-6-6/8----6-5--|
G--3-3-3/5-5-5/6-6-6/8----6-5--|
C--3-3-3/5-5-5/6-6-6/8----6-5--|

D-------------------------------|
A---------------------------7*--|
F--5-5-5/7-7-7/8-8-8/10----7*---|
C--3-3-3/5-5-5/6-6-6/8----7*----|
G--3-3-3/5-5-5/6-6-6/8----------|
C--3-3-3/5-5-5/6-6-6/8----------|

D------------------------------|
A------------------------------|
F--5-5-5/7-7-7/8-8-8/10---8-7--|
C--3-3-3/5-5-5/6-6-6/8----6-5--|
G--3-3-3/5-5-5/6-6-6/8----6-5--|
C--3-3-3/5-5-5/6-6-6/8----6-5--|

D------------|
A------------|
F--5-5/3-3---|
C--3-3/1-1---|
G--3-3/1-1---|
C--3-3/1-1---|

D----------------|
A----------------|
F----------------|
C-9-8-6-5-1-5-3--|
G-9-8-6-5-1-5-3--|
C-9-8-6-5-1-5-3--|

Interlude:Flanger and delay effect.
D------------------------------------|
A------------------------------------|
F------------------------------------|
C--8-7-8-10-----------------------X--|
G--------------XX---XX-XX---XX-XX-X--|
C--------------XX---XX-XX---XX-XX-X--|

Remember sitar effect.
D-------9----9--9-8-----------|
A---------11--------11-10--8--|
F-11-10-----------------------|  X2
C-----------------------------|
G-----------------------------|
C-----------------------------|


Outro
D------------------------------------------------------|
A------------------------------------------------------|
F------------------------------------------------------|
C--4303-4303-43034303-6-8---4303-4303-43034303-6-8-6-3-|
G--4303-4303-43034303-6-8---4303-4303-43034303-6-8-6-3-|
C--4303-4303-43034303-6-8---4303-4303-43034303-6-8-6-3-|

2.Just Stop

Intro
E----------------------------------------------------------------|
B----------------------------------------------------------------|
G----------------------------------------------------------------|
D--------------------------------------------------------4p3-----|
A------------3h5-----------5h6--------------3h5---6p5p0----------|
D-0-0--0-3h5------0--0-5h7-------0-0--0-3h5-----------------3p5--|

E----------------------------------------------------------------|
B----------------------------------------------------------------|
G----------------------------------------------------------------|
D----------------------------------------------------------------|
A------------3h5-----------5h6--------------3h5-6p5--------------|
D-0-0--0-3h5------0--0-5h7-------0-0--0-3h5---------5p3p0--2h3---|

E----------------------------------------------------------------|
B----------------------------------------------------------------|
G----------------------------------------------------------------|
D--------------------------------------------------------4p3-----|
A------------3h5-----------5h6--------------3h5---6p5p0----------|
D-0-0--0-3h5------0--0-5h7-------0-0--0-3h5-----------------3p5--|

E----------------------------------------------------------------|
B----------------------------------------------------------------|
G----------------------------------------------------------------|
D----------------------------------------------------------------|
A------------3h5-----------5h6--------------3h5-6p5--------------|
D-0-0--0-3h5------0--0-5h7-------0-0--0-3h5---------5p3p0--2h3---|


This is played when the second half of the first guitar is played.
E----------------------------------------------------------------|
B----------------------------------------------------------------|
G----------------------------------------------------------------|
D------------3h5-----------5h6--------------3h5-------4p3--------|
A--------3h5-----------5h7--------------3h5-----6p5p0------------|
D-0-0--0----------0--0-----------0-0--0-------------------5p3----|

E----------------------------------------------------------------|
B----------------------------------------------------------------|
G----------------------------------------------------------------|
D------------3h5-----------5h6--------------3h5------------------|
A--------3h5-----------5h7-----------3h5--------6p5--------------|
D-0-0--0----------0--0--------0-0--0-----------------5p3p0-2h3---|


Verse
E-------------------------------------------------------------------------|
B-------------------------------------------------------------------------|
G-------------------------------------------------------------------------|
D-------------------------------------------------------------------------|
A----------------------------------------------------------2/3-2/3-2/3----|
D----0--0---0-0-0-0---0--0---0-0-0-0-0-0--0--0-0-0-0-0--0--2/3-2/3-2/3----|
P.M. .  .   . . . .   .  .   . . . . . .  .  . . . . .  .

E-------------------------------------------------------------------------|
B-------------------------------------------------------------------------|
G-------------------------------------------------------------------------|
D-------------------------------------------------------------------------|
A----------------------------------------------------------2/3-2/3-2/3----|
D----0--0---0-0-0-0---0--0---0-0-0-0-0-0--0--0-0-0-0-0--0--2/3-2/3-2/3----|
P.M. .  .   . . . .   .  .   . . . . . .  .  . . . . .  .

E-------------------------------------------------------------------------|
B-------------------------------------------------------------------------|
G-------------------------------------------------------------------------|
D-------------------------------------------------------------------------|
A----------------------------------------------------------2/3-2/3-2/3----|
D----0--0---0-0-0-0---0--0---0-0-0-0-0-0--0--0-0-0-0-0--0--2/3-2/3-2/3----|

E-------------------------------------------------------------------------|
B-------------------------------------------------------------------------|
G-------------------------------------------------------------------------|
D-------------------------------------------------------------------------|
A----------------------------------------------------------2/3-2/3-2/3----|
D----0--0---0-0-0-0---0--0---0-0-0-0-0-0--0--0-0-0-0-0--0--2/3-2/3-2/3----|

E---------|
B---------|
G---------|
D-8-7-3---|
A-8-7-3---|
D-8-7-3---|

Chorus
E--------------------------------------------|
B--------------------------------13-13-13----|
G-10-10-10--5--5--5---12-12-12---12-12-12----| X2
D-8--8--8---3--3--3---10-10-10---10-10-10----|
A-8--8--8---3--3--3---10-10-10---10-10-10----|
D-8--8--8---3--3--3---10-10-10---10-10-10----|

E------------------------------------------|
B------------------------------------------|
G------------------------------------------|
D------------------------------------------|
A------------------------------------------|
D-----0--0---0-0-0-0---0--0---0-0-0-0-0-0--|
P.M.  .  .   . . . .   .  .   . . . . . .

Breakdown
E----------------------------------------------------------------|
B----------------------------------------------------------------|
G----------------------------------------------------------------|
D--0---1---0---3---0--6-----0--1-0--6--0-------------------------|
A--0---1---0---3---0--6-----0--1-0--6--0-3--0--1--0--6--0--3--5--|
D--0---1---0---3---0--6-----0--1-0--6--0-3--0--1--0--6--0--3--5--|
P.M.                                        .  .  .  .  .  .  .

Last Chorus
E------------------------------|
B-------------------------13---|
G-10------5-------12------12---|
D-8-------3-------10------10---|
A-8-------3-------10------10---|
D-8-------3-------10------10---|

E------------------------|
B------------------------|
G-9-------7-------7------|
D-7-------5-------5------|
A-7-------5-------5------|
D-7-------5-------5------|

E--------------------------------------------|
B--------------------------------13-13-13----|
G-10-10-10--5--5--5---12-12-12---12-12-12----| X2
D-8--8--8---3--3--3---10-10-10---10-10-10----|
A-8--8--8---3--3--3---10-10-10---10-10-10----|
D-8--8--8---3--3--3---10-10-10---10-10-10----|

Outro
E----------------------------------------------------------------|
B----------------------------------------------------------------|
G----------------------------------------------------------------|
D--------------------------------------------------------4p3-----|
A------------3h5-----------5h6--------------3h5---6p5p0----------|
D-0-0--0-3h5------0--0-5h7-------0-0--0-3h5-----------------3p5--|

E----------------------------------------------------------------|
B----------------------------------------------------------------|
G----------------------------------------------------------------|
D----------------------------------------------------------------|
A------------3h5-----------5h6--------------3h5-6p5--------------|
D-0-0--0-3h5------0--0-5h7-------0-0--0-3h5---------5p3p0--2h3---|

E----------------------------------------------------------------|
B----------------------------------------------------------------|
G----------------------------------------------------------------|
D--------------------------------------------------------4p3-----|
A------------3h5-----------5h6--------------3h5---6p5p0----------|
D-0-0--0-3h5------0--0-5h7-------0-0--0-3h5-----------------3p5--|

E----------------------------------------------------------------|
B----------------------------------------------------------------|
G----------------------------------------------------------------|
D----------------------------------------------------------------|
A------------3h5-----------5h6--------------3h5-6p5--------------|
D-0-0--0-3h5------0--0-5h7-------0-0--0-3h5---------5p3p0--2h3---|

E-------------------------------------|
B-------------------------------------|
G-------------------------------------|
D-------------------------------------|
A6p5--------------6p5-----------------|
D----0h3h5-0h3h5------0h3h5-0h3h5--0--|

3.Guarded
Drop Db

Intro
E--------------------------------------------------------|
B--------------------------------------------------------|
G--------------------------------------------------------|
D--------------------------------------------------------|
A----3-5-----------3-5--3-5----3-5---------1-3---6-------|
D--0------0-0-0-0------0-----0-----0-0-0-0-----0---------|
P.M.      . . . .      .     .     . . . .     .

E--------------------------------------------------------|
B--------------------------------------------------------|
G--------------------------------------------------------|
D--------------------------------------------------------|
A----3-5---------3-5-----3-5---3-5-----------------------|
D--0-----0-0-0-0-----0-0-----0------0-0-0-0-6-6-6-6-6-6--|
P.M.     . . . .     . .     .      . . . . . . . . . .

Chorus:Pretty much the same as intro.
E--------------------------------------------------------|
B--------------------------------------------------------|
G--------------------------------------------------------|
D--------------------------------------------------------|
A----3-5-----------3-5--3-5----3-5---------1-3---6-------|
D--0------0-0-0-0------0-----0-----0-0-0-0-----0---------|
P.M.      . . . .      .     .     . . . .     .

E--------------------------------------------------------|
B--------------------------------------------------------|
G--------------------------------------------------------|
D--------------------------------------------------------|
A----3-5---------3-5-----3-5---3-5-----------------------|
D--0-----0-0-0-0-----0-0-----0------0-0-0-0-6-6-6-6-6-6--|
P.M.     . . . .     . .     .      . . . . . . . . . .

E--------------------------------------------------------|
B--------------------------------------------------------|
G--------------------------------------------------------|
D--------------------------------------------------------|
A----3-5-----------3-5--3-5----3-5---------1-3---6-------|
D--0------0-0-0-0------0-----0-----0-0-0-0-----0---------|
P.M.      . . . .      .     .     . . . .     .

E--------------------------------------------------------|
B--------------------------------------------------------|
G--------------------------------------------------------|
D--------------------------------------------------------|
A----3-5---------3-5-----3-5---3-5-----------------------|
D--0-----0-0-0-0-----0-0-----0------0-0-0-0-6-6-6-6-6-6--|
P.M.     . . . .     . .     .      . . . . . . . . . .

Pre-verse
E--------------------------------------|
B--------------------------------------|
G------7-----7-----7-----7----101010---|
D----7-----7-----7-----7------101010---|
A-----------------------------8-8-8----|
D--0-----0-----0-----0-----0--8-8-8----|

E--------------------------------------|
B--------------------------------------|
G------7-----7-----7-----7----101010---|
D----7-----7-----7-----7------101010---|
A-----------------------------8-8-8----|
D--0-----0-----0-----0-----0--8-8-8----|

E--------------------------------------|
B--------------------------------------|
G------7-----7-----7-----7----101010---|
D----7-----7-----7-----7------101010---|
A-----------------------------8-8-8----|
D--0-----0-----0-----0-----0--8-8-8----|

E--------------------------------------|
B--------------------------------------|
G------7-----7-----7-----7----101010---|
D----7-----7-----7-----7------101010---|
A-----------------------------8-8-8----|
D--0-----0-----0-----0-----0--8-8-8----|

Verse
E--------------------------------------|
B--------------------------------------|
G----7-----7-----7-----7---------------|
D------7-----7-----7-----7---101010----|
A----------------------------8-8-8-----|
D--0-----0-----0-----0-------8-8-8-----|

E--------------------------------------|
B--------------------------------------|
G----7-----7-----7-----7---------------|
D------7-----7-----7-----7---101010----|
A----------------------------8-8-8-----|
D--0-----0-----0-----0-------8-8-8-----|

E--------------------------------------|
B--------------------------------------|
G----7-----7-----7-----7---------------|
D------7-----7-----7-----7---101010----|
A----------------------------8-8-8-----|
D--0-----0-----0-----0-------8-8-8-----|

E--------------------------------------|
B--------------------------------------|
G----7-----7-----7-----7---------------|
D------7-----7-----7-----7---101010----|
A----------------------------8-8-8-----|
D--0-----0-----0-----0-------8-8-8-----|


Verse(continued)
E-------------------------------------------------------------------|
B-------------------------------------------------------------------|
G-------------------------------------------------------------------|
D--3-6-5---5-3-6-5--XX-3-XX-3-XX-3-XX-3--3-6-5---5-3-6-5-XX-3-XX-3--|
A--3-6-5---5-3-6-5--XX-3-XX-3-XX-3-XX-3--3-6-5---5-3-6-5-XX-3-XX-3--|
D--3-6-5---5-3-6-5--XX-3-XX-3-XX-3-XX-3--3-6-5---5-3-6-5-XX-3-XX-3--|

E--------3-2--------------3-2------------3-2----------3-2-----------|
B-------------------------------------------------------------------|
G-------------------------------------------------------------------|
D--0---------1----(1)---------3----0---------1--(1)-------3-XX------|
A--0---------1----(1)---------3----0---------1--(1)-------3-XX------|
D--0---------1----(1)---------3----0---------1--(1)-------3-XX------|

E--------3-2--------------3-2------------3-2----------3-2-----------|
b-------------------------------------------------------------------|
G-------------------------------------------------------------------|
D--0---------1----(1)---------3----0---------1--(1)-------3-XX---5*-|
A--0---------1----(1)---------3----0---------1--(1)-------3-XX-5*---|
D--0---------1----(1)---------3----0---------1--(1)-------3-XX------|

Chorus
E--------------------------------------------------------|
B--------------------------------------------------------|
G--------------------------------------------------------|
D--------------------------------------------------------|
A----3-5-----------3-5--3-5----3-5---------1-3---6-------|
D--0------0-0-0-0------0-----0-----0-0-0-0-----0---------|
P.M.      . . . .      .     .     . . . .    .

E--------------------------------------------------------|
B--------------------------------------------------------|
G--------------------------------------------------------|
D--------------------------------------------------------|
A----3-5---------3-5-----3-5---3-5-----------------------|
D--0-----0-0-0-0-----0-0-----0------0-0-0-0-6-6-6-6-6-6--|
P.M.     . . . .     . .     .      . . . . . . . . . .

E--------------------------------------------------------|
B--------------------------------------------------------|
G--------------------------------------------------------|
D--------------------------------------------------------|
A----3-5-----------3-5--3-5----3-5---------1-3---6-------|
D--0------0-0-0-0------0-----0-----0-0-0-0-----0---------|
P.M.      . . . .      .     .     . . . .     .

E--------------------------------------------------------|
B--------------------------------------------------------|
G--------------------------------------------------------|
D--------------------------------------------------------|
A----3-5---------3-5-----3-5---3-5-----------------------|
D--0-----0-0-0-0-----0-0-----0------0-0-0-0-6-6-6-6-6-6--|
P.M.     . . . .     . .     .      . . . . . . . . . .

Pre-verse
E--------------------------------------|
B--------------------------------------|
G------7-----7-----7-----7----101010---|
D----7-----7-----7-----7------101010---|
A-----------------------------8-8-8----|
D--0-----0-----0-----0-----0--8-8-8----|

E--------------------------------------|
B--------------------------------------|
G------7-----7-----7-----7----101010---|
D----7-----7-----7-----7------101010---|
A-----------------------------8-8-8----|
D--0-----0-----0-----0-----0--8-8-8----|

Verse
E--------------------------------------|
B--------------------------------------|
G----7-----7-----7-----7---------------|
D------7-----7-----7-----7---101010----|
A----------------------------8-8-8-----|
D--0-----0-----0-----0-------8-8-8-----|

E--------------------------------------|
B--------------------------------------|
G----7-----7-----7-----7---------------|
D------7-----7-----7-----7---101010----|
A----------------------------8-8-8-----|
D--0-----0-----0-----0-------8-8-8-----|

E--------------------------------------|
B--------------------------------------|
G----7-----7-----7-----7---------------|
D------7-----7-----7-----7---101010----|
A----------------------------8-8-8-----|
D--0-----0-----0-----0-------8-8-8-----|

E--------------------------------------|
B--------------------------------------|
G----7-----7-----7-----7---------------|
D------7-----7-----7-----7---101010----|
A----------------------------8-8-8-----|
D--0-----0-----0-----0-------8-8-8-----|

Verse(continued)
E-------------------------------------------------------------------|
B-------------------------------------------------------------------|
G-------------------------------------------------------------------|
D--3-6-5---5-3-6-5--XX-3-XX-3-XX-3-XX-3--3-6-5---5-3-6-5-XX-3-XX-3--|
A--3-6-5---5-3-6-5--XX-3-XX-3-XX-3-XX-3--3-6-5---5-3-6-5-XX-3-XX-3--|
D--3-6-5---5-3-6-5--XX-3-XX-3-XX-3-XX-3--3-6-5---5-3-6-5-XX-3-XX-3--|

E--------3-2--------------3-2------------3-2----------3-2-----------|
B-------------------------------------------------------------------|
G-------------------------------------------------------------------|
D--0---------1----(1)---------3----0---------1--(1)-------3-XX------|
A--0---------1----(1)---------3----0---------1--(1)-------3-XX------|
D--0---------1----(1)---------3----0---------1--(1)-------3-XX------|

E--------3-2--------------3-2------------3-2----------3-2-----------|
B-------------------------------------------------------------------|
G-------------------------------------------------------------------|
D--0---------1----(1)---------3----0---------1--(1)-------3-XX---5*-|
A--0---------1----(1)---------3----0---------1--(1)-------3-XX-5*---|
D--0---------1----(1)---------3----0---------1--(1)-------3-XX------|

Bridge
E------------------------------|
B------------------------------|
G------------------------------|
D--0000000000000000------------|
A--0000000000000000------------|
D--0000000000000000-----15/----|

Breakdown:Parts of this has some wah w/ it.
E---------------------------------------------------|
B---------------------------------------------------|
G---------------------------------------------------|
D---------------------------------------------------|
A--0-0-0000-0-0000-8-8-7--0-0-0000-0-0000-10-10-7---|
D--0-0-0000-0-0000-8-8-7--0-0-0000-0-0000-10-10-7---|
P.M.   .... . ....            .... . ....

E----------------------------------------------------------|
B----------------------------------------------------------|
G----------------------------------------------------------|
D----------------------------------------------------------|
A--0-0-0000-0-0000-8-8-7--333333322222222--8/10-8/10-8/10--|
D--0-0-0000-0-0000-8-8-7--333333322222222--8/10-8/10-8/10--|
P.M.   .... . ....

E---------------------------------------------------|
B---------------------------------------------------|
G---------------------------------------------------|
D---------------------------------------------------|
A--0-0-0000-0-0000-8-8-7--0-0-0000-0-0000-10-10-7---|
D--0-0-0000-0-0000-8-8-7--0-0-0000-0-0000-10-10-7---|
P.M.   .... . ....            .... . ....

E----------------------------------------------------------|
B----------------------------------------------------------|
G----------------------------------------------------------|
D----------------------------------------------------------|
A--0-0-0000-0-0000-8-8-7--333333322222222--8/10-8/10-8/10--|
D--0-0-0000-0-0000-8-8-7--333333322222222--8/10-8/10-8/10--|
P.M.   .... . ....

E---------------------------------------------------|
B---------------------------------------------------|
G---------------------------------------------------|
D---------------------------------------------------|
A--0-0-0000-0-0000-8-8-7--0-0-0000-0-0000-10-10-7---|
D--0-0-0000-0-0000-8-8-7--0-0-0000-0-0000-10-10-7---|
P.M.   .... . ....            .... . ....

E----------------------------------------------------------|
B----------------------------------------------------------|
G----------------------------------------------------------|
D----------------------------------------------------------|
A--0-0-0000-0-0000-8-8-7--333333322222222--8/10-8/10-8/10--|
D--0-0-0000-0-0000-8-8-7--333333322222222--8/10-8/10-8/10--|
P.M.   .... . ....

Bridge 2
E-------------------------------------------------------|
B-------------------------------------------------------|
G-------------------------------------------------------|
D-------------------------------------------------------|
A-------------------------------------------------------|
D--0--3-5-0-0-0-0-3-5-0-3-5-0--3-5-0-0-0-0-6-6-6-6-6-6--|
P.M.      . . . .     .     .      . . . . . . . . . .

E-------------------------------------------------------|
B-------------------------------------------------------|
G-------------------------------------------------------|
D-------------------------------------------------------|
A-------------------------------------------------------|
D--0--3-5-0-0-0-0-3-5-0-3-5-0--3-5-0-0-0-0-3-5-0-0-3-5--|
P.M.      . . . .    .     .      . . . .    . .

E-------------------------------------------------------|
B-------------------------------------------------------|
G-------------------------------------------------------|
D-------------------------------------------------------|
A-------------------------------------------------------|
D--0--3-5-0-0-0-0-3-5-0-3-5-0--3-5-0-0-0-0-6-6-6-6-6-6--|
P.M.      . . . .     .     .      . . . . . . . . . .

Outro
E------------------------------------------------|
B------------------------------------------------|
G------------------------------------------------|
D------------------8-8-7------------------8-8-7--|
A------------------8-8-7------------------8-8-7--|
D--0-0-0000-0-0000-8-8-7--0-0-0000-0-0000-8-8-7--|

E------------------------------------------------|
B------------------------------------------------|
G------------------------------------------------|
D------------------8-8-7------------------8-8-7--|
A------------------8-8-7------------------8-8-7--|
D--0-0-0000-0-0000-8-8-7--0-0-0000-0-0000-8-8-7--|


4.Deify
Drop Db

Intro:I'm seeing poeple typing up power chords for the intro and I disagree w/ that.Also
the end of the intro there are 11's these are not 11's, they are 1's next to each other
like the rest of the intro.
e----------------------------------------------------------------------|
B----------------------------------------------------------------------|
G----------------------------------------------------------------------|
D--88-88-88-88-3333-44-44-44-44-3366-44-44-44-44-4444-33-33-11-11-8888-|
A--88-88-88-88-3333-44-44-44-44-3366-44-44-44-44-4444-33-33-11-11-6666-|
D--88-88-88-88-3333-44-44-44-44-3366-44-44-44-44-4444-33-33-11-11-8888-|


e----------------------------------------------------------------------|
B----------------------------------------------------------------------|
G----------------------------------------------------------------------|
D--88-88-88-88-3333-44-44-44-44-3366-44-44-44-44-4444-33-33-11-11-8888-|
A--88-88-88-88-3333-44-44-44-44-3366-44-44-44-44-4444-33-33-11-11-6666-|
D--88-88-88-88-3333-44-44-44-44-3366-44-44-44-44-4444-33-33-11-11-8888-|

Bridge
e--------------------------|
B--------------------------|
G--------------------------|
D--6666-6-6-6666-6-6-6666--|
A--4444-4-4-4444-4-4-4444--|
D--6666-6-6-6666-6-6-6666--|

Verse:You can really here the bass in the verse and this is the part for it but Dan does 
thing but he has some kinda distortion or EFX w/ it.
e----------------------------------------|
B----------------------------------------|
G----------------------------------------|  X4
D----------------------------------------|
A--111111222222--------------------------|
D--------------333333111111666666444444--|

e-----------------------------------------|
B-----------------------------------------|
G-----------------------------------------|  X4
D-----------------------------------------|
A--999999888888333333111111666666444444---|
D--999999888888333333111111666666444444---|

Pre-chorus
e-----------------------------|
B-----------------------------|
G-----------------------------|  X4
D--4---6--4-3--4---XX-4-3--4--|
A--4---6--4-3--4---XX-4-3--4--|
D--4---6--4-3--4---XX-4-3--4--|

Chorus
e----------------------------------------------------------------------|
B----------------------------------------------------------------------|
G----------------------------------------------------------------------|
D--88-88-88-88-3333-44-44-44-44-3366-44-44-44-44-4444-33-33-11-11-8888-|
A--88-88-88-88-3333-44-44-44-44-3366-44-44-44-44-4444-33-33-11-11-6666-|
D--88-88-88-88-3333-44-44-44-44-3366-44-44-44-44-4444-33-33-11-11-8888-|


e----------------------------------------------------------------------|
B----------------------------------------------------------------------|
G----------------------------------------------------------------------|
D--88-88-88-88-3333-44-44-44-44-3366-44-44-44-44-4444-33-33-11-11-8888-|
A--88-88-88-88-3333-44-44-44-44-3366-44-44-44-44-4444-33-33-11-11-6666-|
D--88-88-88-88-3333-44-44-44-44-3366-44-44-44-44-4444-33-33-11-11-8888-|


Bridge
e--------------------------|
B--------------------------|
G--------------------------|
D--6666-6-6-6666-6-6-6666--|
A--4444-4-4-4444-4-4-4444--|
D--6666-6-6-6666-6-6-6666--|


Verse
e----------------------------------------|
B----------------------------------------|
G----------------------------------------|  X4
D----------------------------------------|
A--111111222222--------------------------|
D--------------333333111111666666444444--|

e-----------------------------------------|
B-----------------------------------------|
G-----------------------------------------|  X4
D-----------------------------------------|
A--999999888888333333111111666666444444---|
D--999999888888333333111111666666444444---|

Pre-chorus
e-----------------------------|
B-----------------------------|
G-----------------------------|  X4
D--4---6--4-3--4---XX-4-3--4--|
A--4---6--4-3--4---XX-4-3--4--|
D--4---6--4-3--4---XX-4-3--4--|

Chorus
e----------------------------------------------------------------------|
B----------------------------------------------------------------------|
G----------------------------------------------------------------------|
D--88-88-88-88-3333-44-44-44-44-3366-44-44-44-44-4444-33-33-11-11-8888-|
A--88-88-88-88-3333-44-44-44-44-3366-44-44-44-44-4444-33-33-11-11-6666-|
D--88-88-88-88-3333-44-44-44-44-3366-44-44-44-44-4444-33-33-11-11-8888-|

e----------------------------------------------------------------------|
B----------------------------------------------------------------------|
G----------------------------------------------------------------------|
D--88-88-88-88-3333-44-44-44-44-3366-44-44-44-44-4444-33-33-11-11-8888-|
A--88-88-88-88-3333-44-44-44-44-3366-44-44-44-44-4444-33-33-11-11-6666-|
D--88-88-88-88-3333-44-44-44-44-3366-44-44-44-44-4444-33-33-11-11-8888-|

Bridge 2:I'm pretty sure this is how it goes and you need some wah w/ it. Do this 3 times
e------------------------------------|
B------------------------------------|
G------------------------------------|  X3
D--6-8-8-8-8-8-8-9-11-9-8-8-8-8-8-8--|
A------------------------------------|
D------------------------------------|

e-------------------------------------------------|
B-------------------------------------------------|
G-------------------------------------------------|
D--8-8-8-9-11-11-11-11-15-11-15-9-12-9-9-9-15-12--|
A-------------------------------------------------|
D-------------------------------------------------|

Breakdown:Same thing as intro and chorus
e----------------------------------------------------------------------|
B----------------------------------------------------------------------|
G----------------------------------------------------------------------|
D--88-88-88-88-3333-44-44-44-44-3366-44-44-44-44-4444-33-33-11-11-8888-|
A--88-88-88-88-3333-44-44-44-44-3366-44-44-44-44-4444-33-33-11-11-6666-|
D--88-88-88-88-3333-44-44-44-44-3366-44-44-44-44-4444-33-33-11-11-8888-|

Another bridge in which the guitar does not play but the bass does add in.


Chorus
e----------------------------------------------------------------------|
B----------------------------------------------------------------------|
G----------------------------------------------------------------------|
D--88-88-88-88-3333-44-44-44-44-3366-44-44-44-44-4444-33-33-11-11-8888-|
A--88-88-88-88-3333-44-44-44-44-3366-44-44-44-44-4444-33-33-11-11-6666-|
D--88-88-88-88-3333-44-44-44-44-3366-44-44-44-44-4444-33-33-11-11-8888-|

e----------------------------------------------------------------------|
B----------------------------------------------------------------------|
G----------------------------------------------------------------------|
D--88-88-88-88-3333-44-44-44-44-3366-44-44-44-44-4444-33-33-11-11-8888-|
A--88-88-88-88-3333-44-44-44-44-3366-44-44-44-44-4444-33-33-11-11-6666-|
D--88-88-88-88-3333-44-44-44-44-3366-44-44-44-44-4444-33-33-11-11-8888-|


Outro:Same as bridge
e--------------------------|
B--------------------------|
G--------------------------|
D--6666-6-6-6666-6-6-6666--|
A--4444-4-4-4444-4-4-4444--|
D--6666-6-6-6666-6-6-6666--|

5.Stricken
Drop C

Intro
D--------------------------------------------------|
A--------------------------------------------------|
F--------------------------------------------------| X2
C----14--15-----8--7-----2--3-----3--5-----5--6----|
G----14--15-----8--7-----2--3-----3--5-----5--6----|
C-0--14--15-----8--7-----2--3-----3--5-----5--6----|

D-------------------------------------------------------------------|
A-------------------------------------------------------------------|
F-----------------------------------5555555-9-9-9-10-10-10-9--9-----|
C---14--15--8--7--2--3--3--5--5--6--3333333-7-7-7-7--7--7--7--7-----|
G---14--15--8--7--2--3--3--5--5--6--3333333-7-7-7-7--7--7--7--7-----|
C-0-14--15--8--7--2--3--3--5--5--6--3333333-7-7-7-7--7--7--7--7--0--|

D--------------------------------------|
A--------------------------------------|
F--------------------------------------| X2
C--------------------------------------|
G--------------------------------------|
C-0--14--15--8--7--2--3--3--5--5--6----|

D-------------------------------------------------------------------|
A-------------------------------------------------------------------|
F-----------------------------------5555555-9-9-9-10-10-10-9--9-----|
C-----------------------------------3333333-7-7-7-7--7--7--7--7-----|
G-----------------------------------3333333-7-7-7-7--7--7--7--7-----|
C-0-14--15--8--7--2--3--3--5--5--6--3333333-7-7-7-7--7--7--7--7--0--|

Verse:Repeat this, second verse, second measure play open, on last verse use an octave 
for the chords.
D----------------------------------------------------------------------|
A----------------------------------------------------------------------|
F----------------------------------------------------------------------|
C----------------------------------------------------------------------|
G----------------------------------------------------------------------|
C-0--0-0--0-0--0-0--0-0--0-3-5--0--0-0--0-0--0-0-0-3-5-3-0-0-----------|
P.M. . .  . .  . .  . .  . . .  .  . .  . .  . . . . . . . .

D----------------------------------------------------------------------|
A----------------------------------------------------------------------|
F-------------------------------5555555-9-9-9-9--10-10-10-10-----------|
C-------------------------------3333333-7-7-7-7--7--7--7--7------------|
G-------------------------------3333333-7-7-7-7--7--7--7--7------------|
C-0--0-0--0-0--0-0--0-0--0-3-5--3333333-7-7-7-7--7--7--7--7--0---------|
P.M. . .  . .  . .  . .  . . .

Chorus
D---------------------------------------------------------------------|
A---------------------------------------------------------------------|
F---------------------------------------------------------------------|
C-0-3--8-8-8-8--0--3--8-8-8-8/10-0--3--8-8-8-8--3--3--3-5-5-5-5-5-5---| X2
G-0-3--8-8-8-8--0--3--8-8-8-8/10-0--3--8-8-8-8--3--3--3-5-5-5-5-5-5---|
C-0-3--8-8-8-8--0--3--8-8-8-8/10-0--3--8-8-8-8--3--3--3-5-5-5-5-5-5---|
P.M.                                                    . . . . . .
Bridge
D--------------------------------------------|
A--------------------------------------------|
F--------------------------------------------|
C-0--0--x--x--0--0--x--x--0--0---------------|
G-0--0--x--x--0--0--x--x--0--0---------------|
C-0--0--x--x--0--0--x--x--0--0---------------|

Solo
D----------------------12b--12--10-----------------------------------------|
A-13b--13~~--10--13-----------------10------------------------------10-----|
F-------------------------------------------10--12--13--12--10------10-----|
C---------------------------------------12----------------------12---------|
G--------------------------------------------------------------------------|
C--------------------------------------------------------------------------|

D--------------------------------------------------------------------------|
A-----------------10--------------10---------------12^--12^--12^--12^------|
F-----------------10--------------10---------------12^--12^--12^--12^--10--|
C-12--10--12--12----12--10--12--12---12--10--12--12------------------------|
G--------------------------------------------------------------------------|
C--------------------------------------------------------------------------|
P.M.  .   .   .     .   .   .   .    .   .   .   .

D------10--12--13--12--10--------10--15b-15--13--15/17------20b--20--17--18-|
A--10--------------------12--10-------------------------15------------------|
F---------------------------------------------------------------------------|
C---------------------------------------------------------------------------|
G---------------------------------------------------------------------------|
C---------------------------------------------------------------------------|

D--17----------------------------------------------------------------------|
A------18------------------------------------------------------------------|
F----------19--19b19b19b19b19b19b19b19b19b19b19b19b19b-17-19~~-------------|
C--------------------------------------------------------------------------|
G--------------------------------------------------------------------------|
C--------------------------------------------------------------------------|
                    ^Note:This is all one big bend.

D-----------------------10--13p10-12p10-----13p10-12p10----13p10-12p10-----|
A---------------13--10------------------10--------------10-------------10--|
F--10--12--12b-------------------------------------------------------------|
C--------------------------------------------------------------------------|
G--------------------------------------------------------------------------|
C--------------------------------------------------------------------------|

D--13p10-12p10-----13p10-12p10-----13--15p10-13p10-----15p10-13p10---------|
A--------------10--------------10------------------10--------------10------|
F--------------------------------------------------------------------------|
C--------------------------------------------------------------------------|
G--------------------------------------------------------------------------|
C--------------------------------------------------------------------------|

D--15p10-13p10-----15p10-13p10-----15p10-13p10-----------------------------|
A--------------10--------------10--------------10--10--------10------------|
F-----------------------------------------------------10-12-----10-12------|
C--------------------------------------------------------------------------|
G--------------------------------------------------------------------------|
C--------------------------------------------------------------------------|
P.M.                                                   .  .      .  .

D---------------------------------------------------------------------------|
A-10------10------------------13p12p10h13p12p10h13p12p10h13p12p10-----------|
F---10-12-----10-12--9--10--9--------------------------------------13p12p10-|
C---------------------------------------------------------------------------|
G---------------------------------------------------------------------------|
C---------------------------------------------------------------------------|

D--------------------------------------------------------------------------|
A--------------------------------------------------------------------------|
Fh13p12p10h13p12p10h13p12p10-----------------------------------------------|
C----------------------------12~~~~~~~-------------------------------------|
G--------------------------------------------------------------------------|
C--------------------------------------------------------------------------|

This is behind the solo.
D-------------------------------------------------------------------------|
A-------------------------------------------------------------------------|
F-------------------------------------------------------------------------|
C---8--8--8--8--8--8--8--8--8--8--0--0--x--x--0--0--x--x--0--0------------|
G---8--8--8--8--8--8--8--8--8--8--0--0--x--x--0--0--x--x--0--0------------|
C---8--8--8--8--8--8--8--8--8--8--0--0--x--x--0--0--x--x--0--0------------|

Outro:Play twice.
D--------------------------------|
A--------------------------------|
F--------------------------------|  X2
C-0-14-15---8-7---2-3---00000----|
G-0-14-15---8-7---2-3---00000----|
C-0-14-15---8-7---2-3---00000----|
P.M.                    .....

D------------------------------------------------------------|
A------------------------------------------------------------|
F------------------------------------------------------------|
C-0-14-15---8-7---2-3---00000---0-14-15---8-7---2-3---55555--|
G-0-14-15---8-7---2-3---00000---0-14-15---8-7---2-3---55555--|
C-0-14-15---8-7---2-3---00000---0-14-15---8-7---2-3---55555--|
P.M.                    .....


6.I'm Alive
Drop Db

Intro
E-----------------------------------------------------------|
B-----------------------------------------------------------|
G-----------------------------------------------------------|
D-4-4-4-5-4-4-5-4-4-5h7---4-4-4-5-4-4-5-4-4-5h7-0-5h7-0-5h7-|
A-4-4-4-5-4-4-5-4-4-5h7---4-4-4-5-4-4-5-4-4-5h7-0-5h7-0-5h7-|
D-4-4-4-5-4-4-5-4-4-5h7---4-4-4-5-4-4-5-4-4-5h7-0-5h7-0-5h7-|
P.M.. .   . .   . .         . .   . .   . .

E------------------------------------------------------|
B------------------------------------------------------|
G------------------------------------------------------|
D-4-4-4-5-4-4-5-4-4-5h7-0-5h7-0-0-0-3-2-0-0--0-0-3-2-0-|
A-4-4-4-5-4-4-5-4-4-5h7-0-5h7-0-0-0-3-2-0-0--0-0-3-2-0-|
D-4-4-4-5-4-4-5-4-4-5h7-0-5h7-0-0-0-3-2-0-0--0-0-3-2-0-|
P.M.. .   . .   . .

Verse
E-----------------------------------------------------|
B-------------------------X3--------------------------|
G-----------------------------------------------------|
D-4-4-4--4-5-5-5-----9-7-9---1-1-1-3-2-1-1--1-1-3-2-1-|
A-4-4-4--4-5-5-5-----9-7-9---1-1-1-3-2-1-1--1-1-3-2-1-|
D-4-4-4--4-5-5-5-----9-7-9---1-1-1-3-2-1-1--1-1-3-2-1-|
P.M.. .  .......     .....

E----------------------------------------------------------|
B-------------------x3-------------------------------------|
G----------------------------------------------------------|
D-4-4-4--4-5-5-5-4-5-5-5--9-7-9---1-1-1-3-2-1-1--1-1-3-2-1-|
A-4-4-4--4-5-5-5-4-5-5-5--9-7-9---1-1-1-3-2-1-1--1-1-3-2-1-|
D-4-4-4--4-5-5-5-4-5-5-5--9-7-9---1-1-1-3-2-1-1--1-1-3-2-1-|

Pre-Chorus:Repeat this.
E-------------------------------------------|
B-------------------------------------------|
G-6-6-6-6--11-11-11-11-4-4-4-4--------------|
D-4-4-4-4--9--9--9--9--2-2-2-2--12-12-12-12-|
A-4-4-4-4--9--9--9--9--2-2-2-2--12-12-12-12-|
D-4-4-4-4--9--9--9--9--2-2-2-2--12-12-12-12-|

E---------------------------------------|
B---------------------------------------|
G-6-6-6-6--11-11-11-11-4-4-4-4--7-7-7-7-|
D-4-4-4-4--9--9--9--9--2-2-2-2--x-x-x-x-|
A-4-4-4-4--9--9--9--9--2-2-2-2--5-5-5-5-|
D-4-4-4-4--9--9--9--9--2-2-2-2----------|

E-------------------------|
B-------------------------|
G-------------------------|
D-5-5-5--5-5-5-5--5-5-5-5-|
A-5-5-5--5-5-5-5--5-5-5-5-|
D-5-5-5--5-5-5-5--5-5-5-5-|
P.M....  .......  .......

Chorus:Repeat once.
E---------------------------|
B---------------------------|
G---------------------------|
D-4--0--2-0-0-0-4--0--2-4-5-|
A-4--0--2-0-0-0-4--0--2-4-5-|
D-4--0--2-0-0-0-4--0--2-4-5-|
P.M.     . . .

Bridge
E-------------------------------------------------|
B-------------------------------------------------|
G-------------------------------------------------|
D-0-7-0-7-6-0-7-0-7-9-0-7-0-7-6-3-3-3-------------|
A-0-7-0-7-6-0-7-0-7-9-0-7-0-7-6-3-3-3-------------|
D-0-7-0-7-6-0-7-0-7-9-0-7-0-7-6-3-3-3-4-6-7-6-4-2-|
P.M.                                  ...........

Outro
E-------------------------------------------------------|
B-------------------------------------------------------|
G-------------------------------------------------------|
D-5p3-3p2-3h5-4--0--2-x-x-x-4--0--2-5-7--0--------------|
A-5p3-3p2-3h5-4--0--2-x-x-x-4--0--2-5-7--0--------------|
D-5p3-3p2-3h5-4--0--2-x-x-x-4--0--2-5-7--0--------------|


7.Sons Of Plunder
Drop Db

Intro:Play this twice and then 4 times, then palm muted twice and open twice again for the verse.
E--------------------------------------------------------------------------|
B--------------------------------------------------------------------------|
G--------------------------------------------------------------------------|
D--------------------------------------------------------------------------|
A--------------------------------------------------------------------------|
D-3p0-0--5p0-0--3p0-0--3p0-0--5p0--3h5--3p0-0--5p0-0--3p0-0-3p0-0--6p5-3h5-|

Pre-chorus
E-----------------------------------------------------|
B-----------------------------------------------------|
G-----------------------------------------------------|
D--0---6---0---3---0--6------0---6---3---5--------3---|
A--0---6---0---3---0--6------0---6---3---5--3-6-6-3---|
D--0---6---0---3---0--6------0---6---3---5--3-6-6-3---|


E-----------------------------------------------------|
B-----------------------------------------------------|
G-----------------------------------------------------|
D-------6---0---3---0--6-----0---6---3---5--------3---|
A-0-0-0-6---0---3---0--6-----0---6---3---5--3-5-6-3---|
D-0-0-0-6---0---3---0--6-----0---6---3---5--3-5-6-3---|
P.M.. .

Chorus:After this, repeat first two measure and play the *ed measure, do not play that the first time.
E----------------------------------------------------------------------|
B----------------------------------------------------------------------|
G----------------------------------------------------------------------|
D--12--12--12--12--12--12----14--14--14--14--14--14----15--15--15--15--|
A--12--12--12--12--12--12----12--12--12--12--12--12----12--12--12--12--|
D--12--12--12--12--12--12----12--12--12--12--12--12----12--12--12--12--|

E----------------------------------------------------------------------|
B----------------------------------------------------------------------|
G--9--9--9--9--9--9----------------------------------------------------|
D--7--7--7--7--7--7-----12--12--12--12--12--12-----10--10--10--10------|
A--7--7--7--7--7--7-----7---7---7---7---7---7------7---7---7---7-------|
D--7--7--7--7--7--7-----7---7---7---7---7---7------7---7---7---7-------|

E----------------------------------------------------------------------|
B----------------------------------------------------------------------|
G-----------------------------9--9--9--9--9--9-----10--10--10--10------|
D--12--12--12--12--12--12-----8--8--8--8--8--8-----8---8---8---8-------|
A--8---8---8---8---8---8------8--8--8--8--8--8-----8---8---8---8-------|
D--8---8---8---8---8---8------8--8--8--8--8--8-----8---8---8---8-------|

E----------------------------------------------------------------------|
B----------------------------------------------------------------------|
G--12--12--12--12--12--12----------------------------------------------|
D--10--10--10--10--10--10----14--14--14--14--14--14----10--10--10--10--|
A--10--10--10--10--10--10----10--10--10--10--10--10----10--10--10--10--|
D--10--10--10--10--10--10----10--10--10--10--10--10----10--10--10--10--|

Last measure:***********************************************
E-----------------------------------------------------------|
B-----------------------------------------------------------|
G-----------------------------------------------------------|
D--5---5---5---3---5--3------3-5-5-5-----3-5-5-5----0-3--5--|
A--3---3---3---3---3--3------3-5-5-5-----3-5-5-5----0-3--5--|
D--3---3---3---3---3--3------3-5-5-5-----3-5-5-5----0-3--5--|

Interlude
E----------------------------------------|
B----------------------------------------|
G----------------------------------------|
D----------------------------------------|
A----------------------------------------|
D--3p0-0--5p0-0--3p0-0--3p0-0--5p0--3h5--|
     . . .  . . .  . . .  . . .  . .  . .

Verse
E----------------------------------------------------------|
B----------------------------------------------------------|
G----------------------------------------------------------|
D------------------------------------------------------1---|
A--0---0---0---0---0--0--0-----0---0---0---0--0--1--0--1---|
D--0---0---0---0---0--0--0-----0---0---0---0--0--1--0--1---|
   .   .   .   .   .  .  .     .   .   .   .  .  .  .  .

E---------------------------------------------------------|
B---------------------------------------------------------|
G---------------------------------------------------------|
D------------------------------------------------------1--|
A--0---0---0---0---0--0--0-----0---0---0---0--0--1--0--1--|
D--0---0---0---0---0--0--0-----0---0---0---0--0--1--0--1--|
   .   .   .   .   .  .  .     .   .   .   .  .  .  .  .

E--------------------------------------------------------------------------|
B--------------------------------------------------------------------------|
G--------------------------------------------------------------------------|
D--------------------------------------------------------------------------|
A--------------------------------------------------------------------------|
D-3p0-0--5p0-0--3p0-0--3p0-0--5p0--3h5--3p0-0--5p0-0--3p0-0-3p0-0-6p5--3h5-|

E--------------------------------------------------------------------------|
B--------------------------------------------------------------------------|
G--------------------------------------------------------------------------|
D--------------------------------------------------------------------------|
A--------------------------------------------------------------------------|
D-3p0-0--5p0-0--3p0-0--3p0-0--5p0--3h5--3p0-0--5p0-0-3p0-0-3p0-0--6p0--0h1-|


Bridge
E--------------------------------------------------------------------------|
B--------------------------------------------------------------------------|
G--------------------------------------------------------------------------|
D------3---------------3---------------------3-------------------3---------|
A--3-5-----5-----5-3-5-----5-----5-3-5---3-5-----5-----5-3-5-3-5-----5-3-5-|
D--------------------------------------------------------------------------|
P.M...     .     . . .  .  .     . . .   . . .   .     . . . . . .   . . .


Breakdown:Repeat.
E--------------------------------------------------------------------------|
B--------------------------------------------------------------------------|
G--------------------------------------------------------------------------|
D------------------------------------------------------------12/11---------|
A-0-10-12-12-13-0-10-12-12-13-0-8-10--0-10-12--12-13-0-10-12-10/9--0-10-12-|
D-0-10-12-12-13-0-10-12-12-13-0-8-10--0-10-12--12-13-0-10-12-------0-10-12-|

E-------------------------------------------------------------------|
B-------------------------------------------------------------------|
G-------------------------------------------------------------------|
D----------------------------------------------------8---8--8-8-----|
A--0--10-12---12-13-0-10-12---12-13-0-8-10---8---8---6---6--6-6-7---|
D--0--10-12---12-13-0-10-12---12-13-0-8-10---8---8--------------7---|

Pkay intro for outro.

8.Overburdened
Drop C

Intro:Starts with a bass lick, here's the guitar that comes in after.
D----------------------------------------------|
A----------------------------------------------|
F----------------------------------------------|
C-0~~~~~~-------0-0------0~~~~~----9----6------|
G-0~~~~~~-------0-0------0~~~~~----9----6------|
C-0~~~~~~-------0-0------0~~~~~----9----6--12/-|
P.M.            . .

Verse
D--------------------------------------------------|
A--------------------------------------------------|
F--------------------------------------------------|
C-0--0-0--0--0-0-0--0-3-5--0--0-0--0--0-0-0--5-5-0-|
G-0--0-0--0--0-0-0--0-3-5--0--0-0--0--0-0-0--5-5-0-|
C-0--0-0--0--0-0-0--0-3-5--0--0-0--0--0-0-0--5-5-0-|
P.M. . .  .  . . .  . . .     . .  .  . . .  . .

D------------------------------|
A------------------------------|
F------------------------------|
C-0-0--0--0-0-0--0-3-5--9----6-|
G-0-0--0--0-0-0--0-3-5--9----6-|
C-0-0--0--0-0-0--0-3-5--9----6-|
P.M..  .  . . .  . . .

Pre-Chorus:Use some wah.
D------------------------------|
A------------------------------|
F------------------------------|
C------------------------------|
G-7-10-7-9-7-5-7--7-10-7-9-7-5-|
C------------------------------|

Chorus
D------------------------------------------|
A------------------------------------------|
F------------------------------------------|
C-0-0-6--0--3-3--0-3-5--0-0-6--0--3--5-5-3-|
G-0-0-6--0--3-3--0-3-5--0-0-6--0--3--5-5-3-|
C-0-0-6--0--3-3--0-3-5--0-0-6--0--3--5-5-3-|
P.M..                   . .

D---------------------------------------------|
A---------------------------------------------|
F---------------------------------------------|
C-0-0-6--0--3-3--0-3-5-6-6-6--8-6-9-9-9-9-9-9-|
G-0-0-6--0--3-3--0-3-5-6-6-6------9-9-9-9-9-9-|
C-0-0-6--0--3-3--0-3-5-6-6-6------9-9-9-9-9-9-|
P.M..                               . . .

Bridge
D-----------------------------------|
A------------x2---------------------|
F-----------------------------------|
C-0--0-0--0--0-0-0--0-0--0---9----6-|
G-0--0-0--0--0-0-0--0-0--0---9----6-|
C-0--0-0--0--0-0-0--0-0--0---9----6-|
P.M  . .  .  . . .  . .


Verse 2
D-------------------------------------------------|
A-------------------------------------------------|
F-------------------------------------------------|
C-0--0-0--0--0-0-0--0-3-5-0--0-0--0--0-0-0--5-5-3-|
G-0--0-0--0--0-0-0--0-3-5-0--0-0--0--0-0-0--5-5-3-|
C-0-----------------------0-----------------------|

D--------------------------------------------------|
A--------------------------------------------------|
F--------------------------------------------------|
C-0--0-0--0--0-0-0--0-3-5--9-9-9-9-9-9-6-6-6-6-6-6-|
G-0--0-0--0--0-0-0--0-3-5--9-9-9-9-9-9-6-6-6-6-6-6-|
C-0------------------------9-9-9-9-9-9-6-6-6-6-6-6-|


Solo:Guitar 1 on top and 2 on bottom, guitar 3 comes in later(harmonized).
D---------------------------------------------------------------------------|
A-13b15b13--10~---13--15b17b15--10~------------13^15^13--10-----------------|
F------------------------------------10-12-10~--------------12^14^p10-12~---|
C----------------------------------12------------------------------------12-|
G---------------------------------------------------------------------------|
C---------------------------------------------------------------------------|

D--------------------------------------------------------------------------|
A--------------------------------------------------------------------------|
F--------------------------------------------------------------------------|
C-x-x-12----------10----------------8-----12----------------------10-----8-|
G-x-x-12----------10----------------8-----12----------------------10-----8-|
C-x-x-12----------10----------------8-----12----------------------10-----8-|

D--------------------------------------------------------------------------|
A--------------------------------------------------------------------------|
F-9h10p9----9~-----9h10p9----9~------9h10p9----9~------9h10p9----9~--------|
C--------12---------------12----------------12----------------12-----------|
G--------------------------------------------------------------------------|
C--------------------------------------------------------------------------|

D--------------------------------------------------------------------------|
A--------------------------------------------------------------------------|
F--------------------------------------------------------------------------|
C-x----x------12--------------------------------------------10-------------|
G-x----x------12--------------------------------------------10-------------|
C-x----x------12--------------------------------------------10-------------|

D--------------------------------------------------------------------------|
A---------10h11h12p11p10---------------------------------------------------|
F-9h10h12----------------12p10p9-----------------------------9/------------|
C-------------------------------10--10/12~---10--10-12-10-12----10-----10~-|
G------------------------------------------12----------------------12------|
C--------------------------------------------------------------------------|

D--------------------------------------------------------------------------|
A--------------------------------------------------------------------------|
F--------------------------------------------------------------------------|
C--------------8-----------------------8------------------------7----------|
G--------------8-----------------------8------------------------7----------|
C--------------8-----------------------8------------------------7----------|

Harmonized Part:Here's the best part of the song.
D--13----12-------------13--12------------13----12---------|
A-----10----10--13--10---------10--13--10----10----10--13--|
F----------------------------------------------------------|
C----------------------------------------------------------|
G----------------------------------------------------------|
C----------------------------------------------------------|
D----------------------------------------------------------|
A----------------------------------------------------------|
F----------------------------------------------------------|
C--x--x--12--------------------10------------------8-------|
G--x--x--12--------------------10------------------8-------|
C--x--x--12--------------------10------------------8-------|

D--10----8--------------10--8-------------10----8----------|
A-----6-----6---10---6---------6---10---6----6-----6---10--|
F----------------------------------------------------------|
C----------------------------------------------------------|
G----------------------------------------------------------|
C----------------------------------------------------------|

D-------------------------------------------10-------------|
A-----10--13--10------13----10--13--10------------13----10-|
F--12-------------12-----12--------------12----12----12----|
C----------------------------------------------------------|
G----------------------------------------------------------|
C----------------------------------------------------------|

D----------------------------------------------------------|
A----------------------------------------------------------|
F----------------------------------------------------------|
C--12---------------------------10--------------8----------|
G--12---------------------------10--------------8----------|
C--12---------------------------10--------------8----------|

D--------------------------------------------6-------------|
A-----6---10---6------10----6---10---6------------10-----6-|
F--9---------------9------9---------------9-----9-----9----|
C----------------------------------------------------------|
G----------------------------------------------------------|
C----------------------------------------------------------|


D--------------------------------------------12-13--12-----------------|
A------13^15~---13^15^13~---13^15\10~---/15------------15-13----13-15--|
F------------------------------------------------------------14--------|
C----------------------------------------------------------------------|
G----------------------------------------------------------------------|
C----------------------------------------------------------------------|

D----------------------------------------------------------------------|
A----------------------------------------------------------------------|
F----------------------------------------------------------------------|
C--x-x-12----------10--------------------8------8---------------10-----|
G--x-x-12----------10--------------------8------8---------------10-----|
C--x-x-12----------10--------------------8------8---------------10-----|

D----------------------------------------------------------------------|
A--15p13----17p13----15p13----15p13-----15^17^15~----------------------|
F--------14-------14-------14-------14---------------------------------|
C----------------------------------------------------------------------|
G----------------------------------------------------------------------|
C----------------------------------------------------------------------|

D----------------------------------------------------------------------|
A----------------------------------------------------------------------|
F----------------------------------------------------------------------|
C---------------------------------------------x-x-12---10--8-----------|
G---------------------------------------------x-x-12---10--8-----------|
C---------------------------------------------x-x-12---10--8-----------|

9.Decadence
Drop Db

Intro:Play two times, use octave effect.
E------------------------------------------------------------------------|
B------------------------------------------------------------------------|
G------------------------------------------------------------------------|
D------------------------------------------------------------------------|
A--------------5-------3-------2-------------------5-------3-------5-----|
D--3-2-0-2-0-2---2-0-2---2-0-2---2-----3-2-0-2-0-2---2-0-2---2-0-2---2---|

Pre-verse;Play two times.
E------------------------------------------------------------------------|
B------------------------------------------------------------------------|
G------------------------------------------------------------------------|
D--------------5-------3-------2-------------------5-------3-------5-----|
A--3-2-0-2-0-2---2-0-2---2-0-2---2-----3-2-0-2-0-2---2-0-2---2-0-2---2---|
D--3-2-0-2-0-2---2-0-2---2-0-2---2-----3-2-0-2-0-2---2-0-2---2-0-2---2---|

Verse:Play two times.
E----------------------------------------------------------------|
B----------------------------------------------------------------|
G----------------------------------------------------------------|
D----------------------------------------------------------------|
A----------------------------------------------------------------|
D--222-0-2-0-2-222-0-2-0-2-3-2-0---222-0-2-0-2-222-0-2-0-2-3-2-0-|
P.M... . . . . ... . . . . . . .   ... . . . . ... . . . . . . .

E----------------------------------------------------------------|
B----------------------------------------------------------------|
G----------------------------------------------------------------|
D----------------------------------------------------------------|
A----------------------------------------------5-------3-------5-|
D--222-0-2-0-2-222-0-2-0-2-3-2-0---222-0-2-0-2---2-0-2---2-0-2-5-|
P.M... . . . . ... . . . . . . .   ... . . . .   . . .   . . .


Chorus
E---------------------------------------------|
B---------------------------------------------|
G--------------------------------------4-5-4--|
D--2--2--10--10--10--10-10-4-4-4-4-4-4--------|
A--2--2--10--10--10--10-10-4-4-4-4-4-4--------|
D--2--2--10--10--10--10-10-4-4-4-4-4-4--------|

E---------------------------------------------|
B---------------------------------------------|
G-------------------------------------4---7---|
D--2--2--10--10--10--10-10-4--4--4----x---x---|
A--2--2--10--10--10--10-10-4--4--4-44-2-0-5---|
D--2--2--10--10--10--10-10-4--4--4-44---0-----|
P.M.                               ..   .

E---------------------------------------------|
B---------------------------------------------|
G--------------------------------------4-5-4--|
D--2--2--10--10--10--10-10-4-4-4-4-4-4--------|
A--2--2--10--10--10--10-10-4-4-4-4-4-4--------|
D--2--2--10--10--10--10-10-4-4-4-4-4-4--------|

E-------------------------------------------------------------|
B-------------------------------------------------------------|
G-------------------------------------------------------------|
D--2--2--0--0--0-0-0--10-10-10-10-10-10-10-10-10-10-10-10-10--|
A--2--2--0--0--0-0-0--10-10-10-10-10-10-10-10-10-10-10-10-10--|
D--2--2--0--0--0-0-0--10-10-10-10-10-10-10-10-10-10-10-10-10--|

Interlude
E------------------------------------------------------------------------|
B------------------------------------------------------------------------|
G------------------------------------------------------------------------|
D------------------------------------------------------------------------|
A--------------5-------3-------2-------------------5-------3-------5-----|
D--3-2-0-2-0-2---2-0-2---2-0-2---2-----3-2-0-2-0-2---2-0-2---2-0-2---2---|

E------------------------------------------------------------------------|
B------------------------------------------------------------------------|
G------------------------------------------------------------------------|
D------------------------------------------------------------------------|
A--------------5-------3-------2-------------------5-------3-------5-----|
D--3-2-0-2-0-2---2-0-2---2-0-2---2-----3-2-0-2-0-2---2-0-2---2-0-2-5-----|


Bridge:Fave part of the song, play four times.
E-------------------------------------------------|
B-------------------------------------------------|
G-------------------------------------------------|
D--14\\2-3-2-x-2-3-2-----14\\2-3-2-7-8-7-x-3-3----|
A--14\\2-3-2-x-2-3-2-2-2-14\\2-3-2-7-8-7-x-3-3----|
D--14\\2-3-2-x-2-3-2-2-2-14\\2-3-2-7-8-7-x-3-3----|
P.M.                 . .

E-------------------------------------------------|
B-------------------------------------------------|
G-------------------------------------------------|
D--14\\2-3-2-x-2-3-2-----14\\2-3-2-7-8-7-x-10-10--|
A--14\\2-3-2-x-2-3-2-2-2-14\\2-3-2-7-8-7-x-10-10--|
D--14\\2-3-2-x-2-3-2-2-2-14\\2-3-2-7-8-7-x-10-10--|
P.M.                 . .

Chorus
E-----------------------------------------------|
B-----------------------------------------------|
G--------------------------------------4-5-4----|
D--2--2--10--10--10--10-10-4-4-4-4-4-4----------|
A--2--2--10--10--10--10-10-4-4-4-4-4-4----------|
D--2--2--10--10--10--10-10-4-4-4-4-4-4----------|

E-----------------------------------------------|
B-----------------------------------------------|
G-------------------------------------4---------|
D--2--2--10--10--10--10-10-4--4--4----x---------|
A--2--2--10--10--10--10-10-4--4--4-44-2-0-0-0-0-|
D--2--2--10--10--10--10-10-4--4--4-44---0-0-0-0-|
P.M.                               ..   . . . .

E-----------------------------------------------|
B-----------------------------------------------|
G--------------------------------------4-5-4----|
D--2--2--10--10--10--10-10-4-4-4-4-4-4----------|
A--2--2--10--10--10--10-10-4-4-4-4-4-4----------|
D--2--2--10--10--10--10-10-4-4-4-4-4-4----------|

E-------------------------------------------------------------|
B-------------------------------------------------------------|
G-------------------------------------------------------------|
D--2--2--0--0--0-0-0--10-10-10-10-10-10-10-10-10-10-10-10-10--|
A--2--2--0--0--0-0-0--10-10-10-10-10-10-10-10-10-10-10-10-10--|
D--2--2--0--0--0-0-0--10-10-10-10-10-10-10-10-10-10-10-10-10--|

E-----------------------------------------|
B-----------------------------------------|
G-----------------------------------------|
D-10-10-10-10-10-10-10-10-10~~~~~~~~~~~~--|
A-10-10-10-10-10-10-10-10-10~~~~~~~~~~~~--|
D-10-10-10-10-10-10-10-10-10~~~~~~~~~~~~--|

Outro
E------------------------------------------------------------------------|
B------------------------------------------------------------------------|
G------------------------------------------------------------------------|
D------------------------------------------------------------------------|
A--------------5-------3-------2-------------------5-------3-------5-----|
D--3-2-0-2-0-2---2-0-2---2-0-2---2-----3-2-0-2-0-2---2-0-2---2-0-2---2---|

E------------------------------------------------------------------------|
B------------------------------------------------------------------------|
G------------------------------------------------------------------------|
D------------------------------------------------------------------------|
A--------------5-------3-------2-------------------5-------3-------5-----|
D--3-2-0-2-0-2---2-0-2---2-0-2---2-----3-2-0-2-0-2---2-0-2---2-0-2-5-----|

E------------------------------------------------------------------------|
B------------------------------------------------------------------------|
G------------------------------------------------------------------------|
D------------------------------------------------------------------------|
A--------------5-------3-------2-------------------5-------3-------5-----|
D--3-2-0-2-0-2---2-0-2---2-0-2---2-----3-2-0-2-0-2---2-0-2---2-0-2---2---|
P.M. . . . . .   . . .   . . .   .     . . . . . .   . . .   . . .   .

E------------------------------------------------------------------------|
B------------------------------------------------------------------------|
G------------------------------------------------------------------------|
D------------------------------------------------------------------------|
A--------------5-------3-------2-------------------5-------3-------5-----|
D--3-2-0-2-0-2---2-0-2---2-0-2---2-----3-2-0-2-0-2---2-0-2---2-0-2-5-----|
P.M. . . . . .   . . .   . . .   .

  10.Forgiven
Drop C

Intro
D---------------------------------------|
A---------------------------------------|
F---------------------------------------|
C-----------------------3-3-3-8-8-8-8-8-|
G-7-5-7-5-7-7-5-7-5-7-7-3-3-3-8-8-8-8-8-|
C-7-5-7-5-7-7-5-7-5-7-7-3-3-3-8-8-8-8-8-|
P.M.. . . . . . . . . . . . . . . . . .

D---------------------------------------|
A---------------------------------------|
F---------------------------------------|
C-----------------------3-3-3-8-8-8-8-8-|
G-7-5-7-5-7-7-5-7-5-7-7-3-3-3-8-8-8-8-8-|
C-7-5-7-5-7-7-5-7-5-7-7-3-3-3-8-8-8-8-8-|
P.M.. . . . . . . . . .

Pre-verse:Guitar 1, play twice.
D----------------------------------------|
A----------------------------------------|
F----------------------------------------|
C-----------------------3-3-3-8-8-8-8-8--|
G-7-5-7-5-7-7-5-7-5-7-7-3-3-3-8-8-8-8-8--|
C-7-5-7-5-7-7-5-7-5-7-7-3-3-3-8-8-8-8-8--|

Guitar 2:Play twice, Sounds like there's a high part through this whole thing.
D----------------------------------------|
A----------------------------------------|
F-9-7-9-7-9-9-7-9-7-9-9-5-5-5-1010101010-|
C-X-X-X-x-X-X-X-X-X-X-X-X-X-X-X-X-X-X-X--|
G-7-5-7-5-7-7-5-7-5-7-7-3-3-3-8-8-8-8-8--|
C----------------------------------------|

Verse:Play twice, Guitar 1 I believe.
D---------------------------------------|
A---------------------------------------|
F---------------------------------------| Play twice . . .then . . .
C-----------------------3-3-3-8-8-8-8-8-|
G-7-5-7-5-7-7-5-7-5-7-7-3-3-3-8-8-8-8-8-|
C-7-5-7-5-7-7-5-7-5-7-7-3-3-3-8-8-8-8-8-|
P.M.. . . . . . . . . . . . . . . . . .

D--------|
A--------|
F--------| . . . then . . .
C----5*--|
G-5*-----|
C--------|

Guitar 1 only.
D---------------------------------------|
A---------------------------------------|
F---------------------------------------| Play twice
C-----------------------3-3-3-8-8-8-8-8-|
G-7-5-7-5-7-7-5-7-5-7-7-3-3-3-8-8-8-8-8-|
C-7-5-7-5-7-7-5-7-5-7-7-3-3-3-8-8-8-8-8-|

Guitar 2 I believe, use a tremelo and reverb effect, hard to figure out.
D--------------------------|
A--------------------------|
F-------5*-------------5*--| Play four times.
C----5*-------------5*-----|
G-5*--------5*---5*--------|
C--------------------------|

Chorus
D-----------------------------------------|
A-----------------------------------------|
F-----------------------------------------|
C-3-x-x-3-0-7---------------5h7p5---------|
G-3-x-x-3-0-7-5h7-7-0-0-5h7-------7p5-----|
C-3-x-x-3-0-7-5h7-7-0-0---------------7p5-|
P.M.                . .

D-----------------------------------|
A-----------------------------------|
F-----------------------------------|
C-3-x-x-3-8-7-----------------------|
G-3-x-x-3-8-7-5h7-7p5-5h7-7p5-5-7-8-|
C-3-x-x-3-8-7-5h7-7p5-5h7-7p5-5-7-8-|

D-----------------------------------------|
A-----------------------------------------|
F-----------------------------------------|
C-3-x-x-3-0-7---------------5h7p5---------|
G-3-x-x-3-0-7-5h7-7-0-0-5h7-------7p5-----|
C-3-x-x-3-0-7-5h7-7-0-0---------------7p5-|
P.M.                . .

D---------------------------|
A---------------------------|
F-7-7-7-7-7-7-7-------------|
c-5-5-5-5-5-5-5-3-2-0-2-3-5-|
G-5-5-5-5-5-5-5-3-2-0-2-3-5-|
C-5-5-5-5-5-5-5-3-2-0-2-3-5-|

Bridge:Hold.
D----------|
A----------|
F----------|
C-7--------|
G-7--------|
C-7--------|

Play four times.
D-----------------------------------------|
A-----------------------------------------|
F-----------------------------------------|
C-7-7-7-7-7-3-3-3-3-3-8-8-8-8-8-2-2-2-2-2-|
G-7-7-7-7-7-3-3-3-3-3-8-8-8-8-8-2-2-2-2-2-|
C-7-7-7-7-7-3-3-3-3-3-8-8-8-8-8-2-2-2-2-2-|
P.M. . . . . . . . . . . . . . . . . . .

D---------------|
A---------------|
F---------------|
C-2-2-2-2-2-2-2-|
G-2-2-2-2-2-2-2-|
C-2-2-2-2-2-2-2-|
P.M.. .

Solo:Use a lotta wah.
D------------------------------------------------------|
A------------------------------------------------------|
F---------------------------7^-7-5-------7^-7-5--------|
C-7-5-7-5-7-7-5-7-5-7-7-5-7--------7-5-7--------5-7-7--|
G------------------------------------------------------|
C------------------------------------------------------|

D-----------------------------------------|
A-----------------------------------------|
F-----------------------------------------|
C-7-5-7-7-5-7-5/3-------2/4-4/6-6/7-9-5h7-|
G-----------------3\5-3-------------------|
C-----------------------------------------|

D----------------------------------------------------------------------|
A----------------------------------------------------------------------|
F-------12--------------------------12^--12-10----12-14-12----12-10----|
C-12-14----14-12--------------12-14------------12----------12-------12-|
G----------------14--14-12-14------------------------------------------|
C----------------------------------------------------------------------|

D-----------------------------13/15-|
A-------------17^-17-15-13-10-------|
F-15-17-15-17-----------------------|
C-----------------------------------|
G-----------------------------------|
C-----------------------------------|

D-17p15p13-19p17p13-17p15p13-19p17p13-17p15p13-19p17p13-17p15p13-12~-|
A--------------------------------------------------------------------|
F--------------------------------------------------------------------|
C--------------------------------------------------------------------|
G--------------------------------------------------------------------|
C--------------------------------------------------------------------|


Last chorus
D-----------------------------------------|
A-----------------------------------------|
F-----------------------------------------|
C-3-x-x-3-0-7---------------5h7p5---------|
G-3-x-x-3-0-7-5h7-7-0-0-5h7-------7p5-----|
C-3-x-x-3-0-7-5h7-7-0-0---------------7p5-|
P.M.                . .

D-----------------------------------|
A-----------------------------------|
F-----------------------------------|
C-3-x-x-3-8-7-----------------------|
G-3-x-x-3-8-7-5h7-7p5-5h7-7p5-5-7-8-|
C-3-x-x-3-8-7-5h7-7p5-5h7-7p5-5-7-8-|

D-----------------------------------------|
A-----------------------------------------|
F-----------------------------------------|
C-3-x-x-3-0-7---------------5h7p5---------|
G-3-x-x-3-0-7-5h7-7-0-0-5h7-------7p5-----|
C-3-x-x-3-0-7-5h7-7-0-0---------------7p5-|
P.M.                . .

D---------------------------|
A---------------------------|
F-7-7-7-7-7-7-7-------------|
c-5-5-5-5-5-5-5-3-2-0-2-3-5-|
G-5-5-5-5-5-5-5-3-2-0-2-3-5-|
C-5-5-5-5-5-5-5-3-2-0-2-3-5-|

D-------------------------------|
A-------------------------------|
F-------------------------------|
C-----------------5h7p5---------|
G-3p2-3p2-3p2-5h7-------7p5-----|
C-3p2-3p2-3p2---------------7p5-|

Outro
D--------------------------------------------------|
A--------------------------------------------------|
F--------------------------------------------------|
C-----------------------3-x-3-x-3-8-x-8-x-8-x-8-10-|
G-7-5-7-5-7-7-5-7-5-7-7-3-x-3-x-3-8-x-8-x-8-x-8-10-|
C-7-5-7-5-7-7-5-7-5-7-7-3-x-3-x-3-8-x-8-x-8-x-8-10-|

Hold it.
D---------------|
A---------------|
F---------------|
C-7-------------|
G-7-------------|
C-7-------------|

11.Land Of Confusion
Drop Db

Intro:Guitar 1, play eight times.
E------------------------|
B------------------------|
G------------------------|
D-----------7------------|
A-----7------------7-----|
D--7-----7-----7-7----7--|

Guitar 2 play four times.
E------------------------------------------------------------------|
B------------------------------------------------------------------|
G-6666666666666666666666666666666655555555555555555555555555555555-
D-XXXXXXXXXXXXXXXXXXXXXXXXXXXXXXXXXXXXXXXXXXXXXXXXXXXXXXXXXXXXXXXX-
A-4444444444444444444444444444444433333333333333333333333333333333-
D------------------------------------------------------------------


Verse:Guitar 1 play twice.
E----------------------------------------------------------------------|
B-------------8-8-8--8/10-10-10\---------------------------------------|
G-7/9--9--9\--X-X-X--X/X--X--X-\--5-5-5--5/7--7--7\--7-7-7--7\9--9--9\-|
D-X/X--X--X\--5-5-5--5/7--7--7-\--X-X-X--X/X--X--X\--X-X-X--X/X--X--X\-|
A-5/7--7--7\----------------------3-3-3--3/5--5--5\--5-5-5--5/7--7--7\-|
D----------------------------------------------------------------------|

Guitar 2 play twice.
E------------------------------------------------------------------------|
B------------------------------------------------------------------------|
G------------------------------------------------------------------------|
D------------------------------------------------------------------------|
A------------------------------------------------------------------------|
D-222-22-22-22-222--777-77-77-77-777--000-00-00-00-000--222-22-22-22-222-|
P.M.. .. .. .. ...  ... .. .. .. ...  ... .. .. .. ...  ... .. .. .. ...

Pre-chorus:Play twice.
E------------------------------------------|
B------------------------------------------|
G------------------------------------------|
D-0-----2----5-----7----0-----2----5-----0-|
A-0-----2----5-----7----0-----2----5-----0-|
D-0-----2----5-----7----0-----2----5-----0-|

Chorus:Play four times.
E----------------------|
B----------------------|
G-9---9---9--------4-7-|
D-9---10--10---0---4-7-|
A-7---7---7----0---2-5-|
D--------------0-------|

Interlude
E------------------------------------------------------------------|
B------------------------------------------------------------------|
G------------------------------------------------------------------|
D-----6-----6-----6--------------------6-----6-----6-------------6-|
A-7-9---7-9---6-7---6-7-9-6-7-6----7-9---7-9---6-7---6-7-9-6-7-9---|
D-------------------------------9----------------------------------|

E------------------------------------------------------------------|
B------------------------------------------------------------------|
G--------------------------------------------------6-6-6-6---------|
D-----6-----6-----6----------------2-2-2-2-1-1-1-1-6-6-6-6-4-4-4-4-|
A-7-9---7-9---6-7---6-7-9-6-7-6----2-2-2-2-1-1-1-1-4-4-4-4-4-4-4-4-|
D-------------------------------9--2-2-2-2-1-1-1-1---------4-4-4-4-|

E------------------------------------------------------------------|
B------------------------------------------------------------------|
G------------------------------------------------------------------|
D-----6-----6-----6--------------------6-----6-----6-------------6-|
A-7-9---7-9---6-7---6-7-9-6-7-6----7-9---7-9---6-7---6-7-9-6-7-9---|
D-------------------------------9----------------------------------|

E---------------------------------------------------------------------|
B---------------------------------------------------------------------|
G--------------------------------------------------6-6-6-6----------2-|
D-----6-----6-----6----------------2-2-2-2-1-1-1-1-6-6-6-6-4-4-4-4--2-|
A-7-9---7-9---6-7---6-7-9-6-7-6----2-2-2-2-1-1-1-1-4-4-4-4-4-4-4-4--0-|
D-------------------------------9--2-2-2-2-1-1-1-1---------4-4-4-4----|

Solo
E--------------------------------------------------------------------------|
B----------------------------------------------------------------------12--|
G--12~-------12-----11~---------------------------------11~----------------|
D---------------------------12~-------10~--------10----------------12------|
A--------------------------------------------------------------------------|
D--------------------------------------------------------------------------|

E-15----14----------15----14----------15----14----------15-----14----------|
B----12----12-15-12----12----12-15-12-----12----12-15-12----12----12-15-12-|
G--------------------------------------------------------------------------|
D--------------------------------------------------------------------------|
A--------------------------------------------------------------------------|
D--------------------------------------------------------------------------|

E-12h15p12----------12h15p12----------12h15p12----------12h15p12-----------|
B----------15p12h15----------15p12h15----------15p12h12----------15p12h12--|
G--------------------------------------------------------------------------|
D--------------------------------------------------------------------------|
A--------------------------------------------------------------------------|
D--------------------------------------------------------------------------|

E--------------------------------------------------------------------------|
B--15b--12h13p12-13p12-------------12g13-----------12----------------------|
G----------------------14p12h14p12--------12h14p12----14p12h14p12----------|
D------------------------------------------------------------------12/-----|
A--------------------------------------------------------------------------|
D--------------------------------------------------------------------------|

E--------------12/------14---------------/19~------/22^24~-----------------|
B--------------------------------------------------------------------------|
G--------------------------------------------------------------------------|
D--/14~-------------------------12h14p12~----------------------------------|
A--------------------------------------------------------------------------|
D--------------------------------------------------------------------------|

Chorus:Play four times.
E----------------------|
B----------------------|
G-9---9---9--------4-7-|
D-9---10--10---0---4-7-|
A-7---7---7----0---2-5-|
D--------------0-------|

Play four times.
E----------------------|
B----------------------|
G-9---9---XXX-X----4-7-|
D-9---10--XXX-X--0-4-7-|
A-7---7---XXX-X--0-2-5-|
D----------------0-----|
P.M.             .


12.Sacred Lie
Drop C

Intro:I didn't put the other part down because I believe that it's another effect he 
like in Hell and Just Stop, not guitar, repeat this twice.
D----------------------------------------------------------|
A----------------------------------------------------------|
F----------------------------------------------------------|
C---------------------------------------------6-------6-6--|
G-6-5---5--5-5--5-5--6-5-6-8--6-5---5--5-5--5-x---0-5-x-x--|
C-0-0---0--0-0--0-0--0-0-0-0--0-0---0--0-0--0-6---0-0-6-6--|

D----------------------------------------------------------|
A----------------------------------------------------------|
F----------------------------------------------------------|
C----------------------------------------------------------|
G-6-5---5--5-5--5-5--6-5-6-8--6-5---5--5-5--0-3-5--5-0-3-5-|
C-0-0---0--0-0--0-0--0-0-0-0--0-0---0--0-0--0-3-5--0-0-3-5-|

Verse
D------------------------------------------------------------|
A------------------------------------------------------------|
F------------------------------------------------------------|
C------------------------------------------------------------|
G-5--5-6-5-3-5--3-3--3-3--5-6-5--5-6-5-3-5--3-3-0-6-6-0-3-5--|
C-0--0-0-0-0-0--0-0--0-0--0-0-0--0-0-0-0-0-------------------|
P.M. . . . . .  . .  . .  . . .  . . . . .

D------------------------------------------------------------|
A------------------------------------------------------------|
F------------------------------------------------------------|
C-------------------------------------------1-----------1--0-|
G-5--5-6-5-3-5--3-3--3-3--5-6-5--5-6-5-3-5--1--1-1-1-1--1--0-|
C-0--0-0-0-0-0--0-0--0-0--0-0-0--0-0-0-0-0--1--1-1-1-1--1--0-|
P.M. . . . . .  . .  . .  . . .  . . . . .     . . . .

D------------------------------------------------------------|
A------------------------------------------------------------|
F------------------------------------------------------------|
C------------------------------------------------------------|
G-5--5h6p5-3-5--3-3--3-3--5h6-5--5h6p5-3-5--3-3-0-6-6-0-3-5--|
C-0--0-0-0-0-0--0-0--0-0--0-0-0--0-0-0-0-0-------------------|

D------------------------------------------------------------|
A------------------------------------------------------------|
F------------------------------------------------------------|
C-------------------------------------------1-----------1--0-|
G-5--5h6p5-3-5--3-3--3-3--5h6-5--5h6p5-3-5--1--1-1-1-1--1--0-|
C-0--0-0-0-0-0--0-0--0-0--0-0-0--0-0-0-0-0--1--1-1-1-1--1--0-|
P.M.                                           . . . .

Chorus
D-5-5--------------------5-5---------------------5-5-----------------------|
A-X-X--------------------X-X---------------------X-X-----------------------|
F-7-7--9-9--1010-10--9---7-7--9-9--1010-10--12---7-7--9-9--1010-10--9------|
C-7-7--7-7--8-8--x---x---7-7--7-7--8-8--x---x----7-7--7-7--8-8--10--9------|
G-5-5--7-7--8-8--8---7---5-5--7-7--8-8--8---10---5-5--7-7--8-8--8---7------|
C-0-0--7-7--8-8----------0-0--7-7--8-8-----------0-0--7-7--8-8-------------|

D-----------------------------------|
A-----------------------------------|
F-5---5---5---5----3---3---3---3----|
C-5-5-5-5-5-5-5-5--3-3-3-3-3-3-3-3--|
G-3-3-3-3-3-3-3-3--1-1-1-1-1-1-1-1--|
C---5---5---5---5----3---3---3---3--|

Breakdown:Do this top one once, I believe the bottom two about four times.
D----------------------------------------------------------|
A----------------------------------------------------------|
F----------------------------------------------------------|
C---------------------------------------------6-------6-6--|
G-6-5---5--5-5--5-5--6-5-6-8--6-5---5--5-5--5-x---0-5-x-x--|
C-0-0---0--0-0--0-0--0-0-0-0--0-0---0--0-0--0-6---0-0-6-6--|

D-----------------------------------------------------------|
A-----------------------------------------------------------|
F-----------------------------------------------------------|
C--------------------6------5---------------6-----5-0-3-5---|
G-5-6-5--5---5-6-5-3----3-5---5-6-5-3-5-6-5---3-5-----------|
C-0-0-0------0-0-0-0----0-0---0-0---0-0-0-0---0-0-----------|
P.M.. .      . . . .    . .   . .   . . . .   . .

D-----------------------------------------------------------|
A-----------------------------------------------------------|
F-----------------------------------------------------------|
C--------------------6------5---------------6-----5---------|
G-5-6-5--5---5-6-5-3----3-5---5-6-5-3-5-6-5---3h5-----------|
C-0-0-0------0-0-0-0----0-0---0-0---0-0-0-0-----------------|
P.M.. .      . . . .    . .   . .   . . . .

Outro
D--------------------------------------------------------|
A--------------------------------------------------------|
F--------------------------------------------------------|
C--------------------------------------------------------|
G-6-5---5--5-5--5-5--6-5-6-8--6-5---5--5-5--5-5--6-5-6-8-|
C-0-0---0--0-0--0-0--0-0-0-0--0-0---0--0-0--0-0--0-0-0-0-|

D--------------------------------------------------------|
A--------------------------------------------------------|
F--------------------------------------------------------|
C--------------------------------------------------------|
G-6-5---5--5-5--5-5--6-5-6-8--6-5---5--5-5---------------|
C-0-0---0--0-0--0-0--0-0-0-0--0-0---0--0-0---------------|


13.Pain Redifined
Drop Db

Intro:Use delay effect on this one, repeat twice.
D----------------------------------------|
A----------------------------------------|
F----------------------------------------|
C----------------------------------------|
G------8--------8--------6--------6------|
C--555-------55------555-------55--------|
P.M...       ..      ...       ..

D---------------------------------------------|
A---------------------------------------------|
F---------------------------------------------|
C---------------------------------------------|
G------8-----6----------------6------9--------|
C--555---555---55-6-55-9-5555-6-5555-9--------|
P.M...   ...   ..   ..   ....   ....

Verse
D-------------------------------------------------------------------|
A-------------------------------------------------------------------|
F-------------------------------------------------------------------|
C-------------------------------------------------------------------|
G--55-5-55-5-5555--55-5-55-5-5555--11-1-11-1-1111--33-3-33-3-3333---|
C--55-5-55-5-5555--55-5-55-5-5555--11-1-11-1-1111--33-3-33-3-3333---|
P.M.. . .. . ....  .. . .. . ....  .. . .. . ....  .. . .. . ....

Pre-chorus
D-----------------------------------------------------------------|
A-----------------------------------------------------------------|
F-----------------------------------------------------------------|
C-----------------------------------------------------------------|
G--565-55-5-5-565--5/8-5-55-5-5-565--5/10-5-55-55-565--3-3-3-3-8--|
C--565-55-5-5-565--5/8-5-55-5-5-565--5/10-5-55-55-565--3-3-3-3-8--|

Chorus
D----------------------------------------------------------|
A----------------------------------------------------------|
F-----------8-8/7---------------7-7/10-10-----------8-8/7--|
C-----------6-6/5---------------5-5/8--8------------6-6/5--|
G--5-3-/8-1--------4-5---5-3-/8------------5-3-/8-1--------|
C--5-3-/8-1--------4-5---5-3-/8------------5-3-/8-1--------|

D-------------------------------|
A-------------------------------|
F-------------------------------|
C--5----5----5----7-7-7-7/10----|
G--3-55-3-55-3-55-5-5-5-5/8-----|
C----55---55---55---------------|

Interlude:Repeat top eight times, and the second three.
D---------------------|
A---------------------|
F--------5----5-5-3---|
C------5----5---------|
G---------------------|
C---5-----5-----------|

D--------------------|
A--------------------|
F------5----5-5-3----|
C----5----5----------|
G--------------------|
C--5----3------------|

D---------------------|
A------1----1------3--|
F---------------------|
C----3----3-----5-----|
G--1----1-----3-------|
C---------------------|

D----------------------------------------------|
A----------------------------------------------|
F----------------------------------------------|
C----------------------------------------------|
G--1010101010-/8--5-3-6-3---5-3-6-3--5-5-3-6---|
C--1010101010-/8--5-3-6-3---5-3-6-3--5-5-3-6---|
P.M. . . . .

D---------------------|
A---------------------|
F---------------------|
C---------------------|
G--5-33-6-5-----------|
C--5-33-6-5--44444----|
P.M. .. . .  .....

Outro
D-----------------------------------------------------------------|
A-----------------------------------------------------------------|
F-----------------------------------------------------------------|
C-----------------------------------------------------------------|
G--565-55-5-5-565--5/8-5-55-5-5-565--5/10-5-55-55-565--3-3-3-3-8--|
C--565-55-5-5-565--5/8-5-55-5-5-565--5/10-5-55-55-565--3-3-3-3-8--|

14.Avarice
Drop C

Intro:Play four times, bottom play four aswell.
D-------------------------------------------------|
A-------------------------------------------------|
F-------------------------------------------------|
C-------------------------------------------------|
G-5p22222223p222222223p222222225p222223p223p223p2-
C-------------------------------------------------

D-----------------------------------------------------------|
A-----------------------------------------------------------|
F-----------------------------------------------------------|
C-12p99999-10p999999-10p9999999-12p999999-10p99-10p99-10p99-|
G-12p99999-10p999999-10p9999999-12p999999-10p99-10p99-10p99-|
C-12p99999-10p999999-10p9999999-12p999999-10p99-10p99-10p99-|

Verse:Pla the top only twice.
D------------------------------------|
A------------------------------------|
F------------------------------------|
C------------------------------------|
G-9-9-9--999--999-9-9-10p9-10p9-10p9-|
C-9-9-9--999--999-9-9-10p9-10p9-10p9-|
P.M....  ...  ... . . .. . .. . .. .

D---------------------------|
A---------------------------|
F---------------------------|
C-12-9-9--999--999--999-999-|
G-12-9-9--999--999--999-999-|
C-12-9-9--999--999--999-999-|


Chorus
D---------------------------------------|
A---------------------------------------|
F---------------------------------------|
C-7--6--3--4-6--7--6--3--4--6-0-0-0-0-0-|
G-7--6--3--4-4--7--6--3--4--6-0-0-0-0-0-|
C-7--6--3--4-4--7--6--3--4--6-0-0-0-0-0-|
P.M.                          .........

Solo
D--------------------------------------------------------------------------|
A----------13-14-13----------13-14-13----------13-14-13----------13-14-13--|
F-14-13-14----------14-13-14----------14-13-14----------14-13-14-----------|
C--------------------------------------------------------------------------|
G--------------------------------------------------------------------------|
C--------------------------------------------------------------------------|

D--/14--12-----------------------------------------------|
A----------14-13-12b---11~12~----------------------------|
F----------------------------11~-9-----------------------|
C----------------------------------9b--8--9-9b--8--------|
G---------------------------------------------------9~~--|
C--------------------------------------------------------|

D-------------------------------------12-----12-14~~--|
A--------10-------12-------10------12----14-----------|
F--10-11----10-11----10-11----10-11-------------------|
C-----------------------------------------------------|
G-----------------------------------------------------|
C-----------------------------------------------------|

So, sense I'm so cool, I'll throw this in for you.


15.Hell
Drop Db

Intro
E--------------------------------------------------------------------------|
B--------------------------------------------------------------------------|
G--------------------------------------------------------------------------|
D--5\8/7-----------7-7---------5\8/7----5\8/7------------7-7-----5\8/7-----|
A--3\6/5----0-0-0--5-5----0-0--3\6/5----3\6/5----0-0-0---5-5--0--3\6/5-----|
D-----------0-0-0---------0-0--------------------0-0-0--------0------------|
P.M.        . . .         . .                    . . .        .

E--------------------------------------------------------------------------|
B--------------------------------------------------------------------------|
G--------------------------------------------------------------------------|
D--7\10/9------------9-9-----8----10-----10----10-----12----12----12-------|
A--5\8-/7----0-0-0---7-7-0---7--0-8---0--8---0-8----0-10--0-10--0-10-------|
D------------0-0-0-------0------0-----0------0------0-----0-----0----------|
P.M.         . . .       .      .     .      .      .     .     .

E--------------------------------------------------------------------------|
B--------------------------------------------------------------------------|
G--------------------------------------------------------------------------|
D--5\8/7-----------7-7---------5\8/7----5\8/7------------7-7-----5\8/7-----|
A--3\6/5----0-0-0--5-5----0-0--3\6/5----3\6/5----0-0-0---5-5--0--3\6/5-----|
D-----------0-0-0---------0-0--------------------0-0-0--------0------------|
P.M.        . . .         . .                    . . .        .
E--------------------------------------------------------------------------|
B--------------------------------------------------------------------------|
G--------------------------------------------------------------------------|
D--7\10/9------------9-9-----8----10-----10----10-----12----12----12-------|
A--5\8-/7----0-0-0---7-7-0---7--0-8---0--8---0-8----0-10--0-10--0-10-------|
D------------0-0-0-------0------0-----0------0------0-----0-----0----------|
P.M.         . . .       .      .     .      .      .     .     .

E-------------------|
B-------------------|
G-------------------|
D--0---------(0)----|
A--0---------(0)----|
D--0---------(0)----|

Verse
E------------------------------------|
B------------------------------------|
G------------------------------------|
D------------------------------------|
A--0--0--0-00-0000--0--0--0-00-0000--|
D--0--0--0-00-0000--0--0--0-00-0000--|
P.M.  .  . .. ....  .  .  . .. ....

E------------------------------------|
B------------------------------------|
G------------------------------------|
D------------------------------------|
A--0--0--0-00-0000--0--0--0-00-0000--|
D--0--0--0-00-0000--0--0--0-00-0000--|
P.M.  .  . .. ....  .  .  . .. ....

E------------------------------------|
B------------------------------------|
G------------------------------------|
D------------------------------------|
A--0--0--0-00-0000--0--0--0-00-0000--|
D--0--0--0-00-0000--0--0--0-00-0000--|
P.M.  .  . .. ....  .  .  . .. ....

E-------------------------------------------|
B-------------------------------------------|
G-------------------------------------------|
D-------------------------------------------|
A--0--0--0-00-0000--0--0--0-00--------------|
D--0--0--0-00-0000--0--0--0-00-0-7-8-0-3-5--|
P.M.  .  . .. ....  .  .  . ..

E------------------------------------|
B------------------------------------|
G------------------------------------|
D------------------------------------|
A------------------------------------|
D--0--0--0-00-0000--0--0--0-00-0000--|

E------------------------------------|
B------------------------------------|
G------------------------------------|
D------------------------------------|
A------------------------------------|
D--0--0--0-00-0000--0--0--0-00-0000--|

E------------------------------------|
B------------------------------------|
G------------------------------------|
D------------------------------------|
A------------------------------------|
D--0--0--0-00-0000--0--0--0-00-0000--|


E-------------------------------------------|
B-------------------------------------------|
G-------------------------------------------|
D-------------------------------------------|
A-------------------------------------------|
D--0--0--0-00-0000--0--0--0-00-0-8-7-0-3-5--|

Chorus:One of the parts I redid, hope you like it.
E---------------------------------------------------------------------------|
B------------------3-3-3-3-3-3-3-3------------------------------------------|
G-1010101010101010-2-2-2-2-2-2-2-2--1010101010101010------------------------|
D-8-8-8-8-8-8-8-8--0-0-0-0-0-0-0-0--8-8-8-8-8-8-8-8--333-333-3-3------------|
A-8-8-8-8-8-8-8-8--0-0-0-0-0-0-0-0--8-8-8-8-8-8-8-8--333-333-3-3------------|
D-8-8-8-8-8-8-8-8--0-0-0-0-0-0-0-0--8-8-8-8-8-8-8-8--333-333-3-3------------|

E---------------------------------------------------------------------------|
B------------------3-3-3-3-3-3-3-3------------------------------------------|
G-1010101010101010-2-2-2-2-2-2-2-2------------------------------------------|
D-8-8-8-8-8-8-8-8--0-0-0-0-0-0-0-0--5-5-5-5-5-5-5-5-5-5-5-5-5-5-5-5-5-5-5-5-|
A-8-8-8-8-8-8-8-8--0-0-0-0-0-0-0-0--3-3-3-3-3-3-3-3-3-3-3-3-3-3-3-3-3-3-3-3-|
D-8-8-8-8-8-8-8-8--0-0-0-0-0-0-0-0--3-3-3-3-3-3-3-3-3-3-3-3-3-3-3-3-3-3-3-3-|

Pre-verse:Also half of the intro
E--------------------------------------------------------------------------|
B--------------------------------------------------------------------------|
G--------------------------------------------------------------------------|
D--5\8/7-----------7-7---------5\8/7----5\8/7------------7-7-----5\8/7-----|
A--3\6/5----0-0-0--5-5----0-0--3\6/5----3\6/5----0-0-0---5-5--0--3\6/5-----|
D-----------0-0-0---------0-0--------------------0-0-0--------0------------|
P.M.        . . .         . .                    . . .        .
E--------------------------------------------------------------------------|
B--------------------------------------------------------------------------|
G--------------------------------------------------------------------------|
D--7\10/9------------9-9-----8----10-----10----10-----12----12----12-------|
A--5\8-/7----0-0-0---7-7-0---7--0-8---0--8---0-8----0-10--0-10--0-10-------|
D------------0-0-0-------0------0-----0------0------0-----0-----0----------|
P.M.         . . .       .      .     .      .      .     .     .

Verse
E------------------------------------|
B------------------------------------|
G------------------------------------|
D------------------------------------|
A--0--0--0-00-0000--0--0--0-00-0000--|
D--0--0--0-00-0000--0--0--0-00-0000--|
P.M.  .  . .. ....  .  .  . .. ....

E-------------------------------------------|
B-------------------------------------------|
G-------------------------------------------|
D-------------------------------------------|
A--0--0--0-00-0000--0--0--0-00--------------|
D--0--0--0-00-0000--0--0--0-00-0-8-7-0-3-5--|
P.M.  .  . .. ....  .  .  . ..

E------------------------------------|
B------------------------------------|
G------------------------------------|
D------------------------------------|
A------------------------------------|
D--0--0--0-00-0000--0--0--0-00-0000--|


E-------------------------------------------|
B-------------------------------------------|
G-------------------------------------------|
D-------------------------------------------|
A-------------------------------------------|
D--0--0--0-00-0000--0--0--0-00-8-7h8-7-3-5--|

Chorus:One of the parts I redid, hope you like it.
E---------------------------------------------------------------------------|
B------------------3-3-3-3-3-3-3-3------------------------------------------|
G-1010101010101010-2-2-2-2-2-2-2-2--1010101010101010------------------------|
D-8-8-8-8-8-8-8-8--0-0-0-0-0-0-0-0--8-8-8-8-8-8-8-8--333-333-3-3------------|
A-8-8-8-8-8-8-8-8--0-0-0-0-0-0-0-0--8-8-8-8-8-8-8-8--333-333-3-3------------|
D-8-8-8-8-8-8-8-8--0-0-0-0-0-0-0-0--8-8-8-8-8-8-8-8--333-333-3-3------------|

E---------------------------------------------------------------------------|
B------------------3-3-3-3-3-3-3-3------------------------------------------|
G-1010101010101010-2-2-2-2-2-2-2-2------------------------------------------|
D-8-8-8-8-8-8-8-8--0-0-0-0-0-0-0-0--5-5-5-5-5-5-5-5-5-5-5-5-5-5-5-5-5-5-5-5-|
A-8-8-8-8-8-8-8-8--0-0-0-0-0-0-0-0--3-3-3-3-3-3-3-3-3-3-3-3-3-3-3-3-3-3-3-3-|
D-8-8-8-8-8-8-8-8--0-0-0-0-0-0-0-0--3-3-3-3-3-3-3-3-3-3-3-3-3-3-3-3-3-3-3-3-|

Bridge:Other part I had redid, enjoy aswell, repeat three times.
E--------10b--------------10b---------------10b--------------10----------|
B--------13b------8-------13b-------11------13b------8-------13b------11-|
G-----------------7-----------------10---------------7----------------10-|
D------------------------------------------------------------------------|
A--0-0-0---0--00-0---0-0-0---0--00-0---0-0-0--0--00-0---0-0-0---0--00-0--|
D--0-0-0---0--00-0---0-0-0---0--00-0---0-0-0--0--00-0---0-0-0---0--00-0--|
P.M. . .   .  .. .   . . .   .  .. .   . . .  .  .. .   . . .   .  .. .

Chorus
E---------------------------------------------------------------------------|
B------------------3-3-3-3-3-3-3-3------------------------------------------|
G-1010101010101010-2-2-2-2-2-2-2-2--1010101010101010------------------------|
D-8-8-8-8-8-8-8-8--0-0-0-0-0-0-0-0--8-8-8-8-8-8-8-8--333-333-3-3------------|
A-8-8-8-8-8-8-8-8--0-0-0-0-0-0-0-0--8-8-8-8-8-8-8-8--333-333-3-3------------|
D-8-8-8-8-8-8-8-8--0-0-0-0-0-0-0-0--8-8-8-8-8-8-8-8--333-333-3-3------------|

E---------------------------------------------------------------------------|
B------------------3-3-3-3-3-3-3-3------------------------------------------|
G-1010101010101010-2-2-2-2-2-2-2-2------------------------------------------|
D-8-8-8-8-8-8-8-8--0-0-0-0-0-0-0-0--5-5-5-5-5-5-5-5-5-5-5-5-5-5-5-5-5-5-5-5-|
A-8-8-8-8-8-8-8-8--0-0-0-0-0-0-0-0--3-3-3-3-3-3-3-3-3-3-3-3-3-3-3-3-3-3-3-3-|
D-8-8-8-8-8-8-8-8--0-0-0-0-0-0-0-0--3-3-3-3-3-3-3-3-3-3-3-3-3-3-3-3-3-3-3-3-|

E---------------------------------------------------------------------------|
B---------------------------------------------------------------------------|
G--1010101010101010-----------------1010101010101010------------------------|
D--8-8-8-8-8-8-8-8------------------8-8-8-8-8-8-8-8-------------------------|
A--8-8-8-8-8-8-8-8-0--0000-0-0000-0-8-8-8-8-8-8-8-8-0--0000-0-0000-0--------|
D--8-8-8-8-8-8-8-8-0--0000-0-0000-0-8-8-8-8-8-8-8-8-0--0000-0-0000-0--------|
P.M.               .  .... . .... .                 .  .... . .... .

E---------------------------------------------------------------------------|
B---------------------------------------------------------------------------|
G--1010101010101010-----------------1010101010101010------------------------|
D--8-8-8-8-8-8-8-8------------------8-8-8-8-8-8-8-8-------------------------|
A--8-8-8-8-8-8-8-8-0--0000-0-0000-0-8-8-8-8-8-8-8-8-0--0000-0-0000-0--------|
D--8-8-8-8-8-8-8-8-0--0000-0-0000-0-8-8-8-8-8-8-8-8-0--0000-0-0000-0--------|
P.M.               .  .... . .... .                 .  .... . .... .


Outro
E--------------------------------------------------------------------------|
B--------------------------------------------------------------------------|
G--------------------------------------------------------------------------|
D--5\8/7-----------7-7---------5\8/7----5\8/7------------7-7-----5\8/7-----|
A--3\6/5----0-0-0--5-5----0-0--3\6/5----3\6/5----0-0-0---5-5--0--3\6/5-----|
D-----------0-0-0---------0-0--------------------0-0-0--------0------------|
P.M.        . . .         . .                    . . .        .
E--------------------------------------------------------------------------|
B--------------------------------------------------------------------------|
G--------------------------------------------------------------------------|
D--7\10/9------------9-9-----8-----------10----10-----12----12----12-------|
A--5\8-/7----0-0-0---7-7-0---7--------0--8---0-8----0-10--0-10--0-10-------|
D------------0-0-0-------0------------0------0------0-----0-----0----------|
P.M.         . . .       .            .      .      .     .     .

E--------------------------------------------------------------------------|
B--------------------------------------------------------------------------|
G--------------------------------------------------------------------------|
D--5\8/7-----------7-7---------5\8/7----5\8/7------------7-7-----5\8/7-----|
A--3\6/5----0-0-0--5-5----0-0--3\6/5----3\6/5----0-0-0---5-5--0--3\6/5-----|
D-----------0-0-0---------0-0--------------------0-0-0--------0------------|
P.M.        . . .         . .                    . . .        .
E--------------------------------------------------------------------------|
B--------------------------------------------------------------------------|
G--------------------------------------------------------------------------|
D--7\10/9------------9-9-----8-----------10----10-----12----12----12-------|
A--5\8-/7----0-0-0---7-7-0---7----8---0--8---0-8----0-10--0-10--0-10-------|
D------------0-0-0-------0------------0------0------0-----0-----0----------|
P.M.         . . .       .             .     .      .     .     .

E---------------|
B---------------|
G---------------|
D--0-----(0)----|
A--0-----(0)----|
D--0-----(0)----|

Yes, I know I'm so cool, I'll just throw this one in too.

16.Monster
Drop Db

Intro
E--------------------------------------|
B--------------------------------------|
G--------8xx5-x7-7-------8xx5----------|
D--0--0xx8xx5-x7-7-0--0xx8xx5-xx5p3-0--|
A--0--0xx6xx3-x5-5-0--0xx6xx3-xx5p3-0--|
D--0--0xx----------0--0xx-----xx5p3-0--|

E---------------------------------|
B---------------------------------|
G-----8xx5-x7-7-------8xx5--------|
D--0xx8xx5-x7-7-0--0xx8xx5----5*--|
A--0xx6xx3-x5-5-0--0xx6xx3--5*----|
D--0xx----------0--0xx------------|

E-----------------------------------|
B-----------------------------------|
G-----8xx5-x7-7-------8xx5----------|
D--0xx8xx5-x7-7-0--0xx8xx5-xx5p3-0--|
A--0xx6xx3-x5-5-0--0xx6xx3-xx5p3-0--|
D--0xx----------0--0xx-----xx5p3-0--|

E-------------------------------|
B-------------------------------|
G-----8xx5-x7-7-------8xx5------|
D--0xx8xx5-x7-7-0--0xx8xx5------|
A--0xx6xx3-x5-5-0--0xx6xx3------|
D--0xx----------0--0xx------000-|
P.M.                        ...

Verse
E------------------------------------------------|
B------------------------------------------------|
G--------5--------7--------5---------------------|
D--7-5-7----7-5-7----7-5-7----7-5-7--------------|
A-----------------------------------5----3--6-3--|
D------------------------------------------------|


E------------------------------------------------|
B------------------------------------------------|
G--------5--------7--------5---------------------|
D--7-5-7----7-5-7----7-5-7----7-5-7-----------3--|
A-----------------------------------5----3--6----|
D------------------------------------------------|


E------------------------------------------------|
B------------------------------------------------|
G--------5--------7--------5---------------------|
D--7-5-7----7-5-7----7-5-7----7-5-7--------------|
A-----------------------------------5----3--6-3--|
D------------------------------------------------|


E------------------------------------------------|
B------------------------------------------------|
G--------5--------7--------5---------------------|
D--7-5-7----7-5-7----7-5-7----7-5-7-----------3--|
A-----------------------------------5----3--6----|
D------------------------------------------------|


Pre-Chorus
E----------------------------------|
B----------------------------------|
G----------------------------------|
D-000-xx111-xx000-xx333------------|
A-000-xx111-xx000-xx333---1--3--5--|
D-000-xx111-xx000-xx333---1xx3xx5--|


Chorus
E--------------------------------------|
B--------------------------------------|
G--------8xx5-x7-7-------8xx5----------|
D--0--0xx8xx5-x7-7-0--0xx8xx5-xx5p3-0--|
A--0--0xx6xx3-x5-5-0--0xx6xx3-xx5p3-0--|
D--0--0xx----------0--0xx-----xx5p3-0--|


E---------------------------------|
B---------------------------------|
G-----8xx5-x7-7-------8xx5--------|
D--0xx8xx5-x7-7-0--0xx8xx5----5*--|
A--0xx6xx3-x5-5-0--0xx6xx3--5*----|
D--0xx----------0--0xx------------|


E-----------------------------------|
B-----------------------------------|
G-----8xx5-x7-7-------8xx5----------|
D--0xx8xx5-x7-7-0--0xx8xx5-xx5p3-0--|
A--0xx6xx3-x5-5-0--0xx6xx3-xx5p3-0--|
D--0xx----------0--0xx-----xx5p3-0--|


E-------------------------------|
B-------------------------------|
G-----8xx5-x7-7-------8xx5------|
D--0xx8xx5-x7-7-0--0xx8xx5------|
A--0xx6xx3-x5-5-0--0xx6xx3------|
D--0xx----------0--0xx------000-|
P.M.                        ...

Interlude
E------------------------------|
B------------------------------|
G------------------------------|
D------------------------------|
A-----5-6p5-6p5-6p5-6p5--------|
D--00--0---0---0---0---0--3-5--|
P.M..  .   .   .   .   .

E-------------------------------|
B-------------------------------|
G-------------------------------|
D-------------------------------|
A-----5-6p5-6p5-6p5-6h8------8--|
D--00--0---0---0---0---0--10----|
P.M.       .   .   .   .

E------------------------------|
B------------------------------|
G------------------------------|
D------------------------------|
A-----5-6p5-6p5-6p5-6p5--------|
D--00--0---0---0---0---0--3-5--|
P.M..      .   .   .   .

E---------------------------|
B---------------------------|
G---------------------------|
D---------------------------|
A-----5-6p5-6p5---333-55-1--|
D--00--0---0---5--333-55-1--|
P.M..      .   .   .   .

E-------------------------|
B-------------------------|
G----8\7-8\7-8\7-8\7------|
D--0-8\7-8\7-8\7-8\7--3-5-|
A--0-6\5-6\5-6\5-6\5--3-5-|
D--0------------------3-5-|
PM .

E-----------------------------|
B-----------------------------|
G----8\7-8\7-8\7-8/10-----10--|
D--0-8\7-8\7-8\7-8/10--10x10--|
A--0-6\5-6\5-6\5-6/8---10x8---|
D--0-------------------10x----|
P.M.

E-------------------------|
B-------------------------|
G----8\7-8\7-8\7-8\7------|
D--0-8\7-8\7-8\7-8\7--3-5-|
A--0-6\5-6\5-6\5-6\5--3-5-|
D--0------------------3-5-|
P.M.

E------------------------|
B------------------------|
G----8\7-8\7-------------|
D--0-8\7-8\7-5-333-55-1--|
A--0-6\5-6\5-5-333-55-1--|
D--0---------5-333-55-1--|
P.M.

E-------------------------|
B-------------------------|
G----8\7-8\7-8\7-8\7------|
D--0-8\7-8\7-8\7-8\7--3-5-|
A--0-6\5-6\5-6\5-6\5--3-5-|
D--0------------------3-5-|
P.M.

E-----------------------------|
B-----------------------------|
G----8\7-8\7-8\7-8/10-----10--|
D--0-8\7-8\7-8\7-8/10--10x10--|
A--0-6\5-6\5-6\5-6/8---10x8---|
D--0-------------------10x----|
P.M.

E-------------------------|
B-------------------------|
G----8\7-8\7-8\7-8\7------|
D--0-8\7-8\7-8\7-8\7--3-5-|
A--0-6\5-6\5-6\5-6\5--3-5-|
D--0------------------3-5-|
P.M.

E------------------------|
B------------------------|
G----8\7-8\7-------------|
D--0-8\7-8\7-5-333-55-1--|
A--0-6\5-6\5-5-333-55-1--|
D--0---------5-333-55-1--|
P.M.

Solo
E---------------------------------------------------|
B---------------------------------------------------|
G--10-12-10----14-10----12-10----15----14----12-----|
D-----------12-------12-------12----12----12----12--|
A---------------------------------------------------|
D---------------------------------------------------|


E-------------------------------------------------|
B-------------------------------------------------|
G--10-14----12----10----12----10-9----------------|
D--------12----12----12----12------12-10b12--8-5--|
A-------------------------------------------------|
D-------------------------------------------------|


E---------------------------------------13------13-13b15-13--|
B-----------------------------------/15---13b15--------------|
G------------------------------------------------------------|
D--8-10b12----12-12--10-8-10-12-8~---------------------------|
A------------------------------------------------------------|
D------------------------------------------------------------|


E---------------------------------------|
B---------------------------------------|
G--0-15-14-0-7-10-0-5-7-0-7-10-0-5-7-0--|
D---------------------------------------|
A---------------------------------------|
D---------------------------------------|


E--------------------------------------------|
B---------------------------15-13---15---13--|
G--7-0-10-0-15-14-0-17-15-0-------0----0-----|
D--------------------------------------------|
A--------------------------------------------|
D--------------------------------------------|


E------------------------------------13------13---10-15--|
B--11----------------------------/15---13b15---13--------|
G-------12--12-12-15-17-10-------------------------------|
D--------------------------15----------------------------|
A--------------------------------------------------------|
D--------------------------------------------------------|


E--14-----------------------------------------------|
B----10-12-13----------------------------------15~~-|
G-------------13-10-12-13----------------14---------|
D-------------------------12-13-10-12-13------------|
A---------------------------------------------------|
D---------------------------------------------------|


Solo:Guitar 2
E------------------------------------|
B------------------------------------|
G------------------------------------|
D--55555500000000007777778888888888--|
A--55555500000000007777778888888888--|
D--55555500000000007777778888888888--|


E-------------------------------------|
B-------------------------------------|
G-------------------------------------|
D--5555550000000000777777888-3-3-3-3--|
A--5555550000000000777777888-3-3-3-3--|
D--5555550000000000777777888-3-3-3-3--|


E------------------------------------|
B------------------------------------|
G------------------------------------|
D--55555500000000007777778888888888--|
A--55555500000000007777778888888888--|
D--55555500000000007777778888888888--|

E----------------------------------|
B----------------------------------|
G----------------------------------|
D--111111111111111555555555555555--|
A--111111111111111555555555555555--|
D--111111111111111555555555555555--|
   ^theses are 1's


Final Chorus
E---------------------------------------|
B---------------------------------------|
G---------------------------------------|
D--0--0xx1xx1-x3-x3p0--0xx1xx1-xx5p3-0--|
A--0--0xx1xx1-x3-x3p0--0xx1xx1-xx5p3-0--|
D--0--0xx1xx1-x3-x3p0--0xx1xx1-xx5p3-0--|


E-------------------------------------|
B-------------------------------------|
G-------------------------------------|
D--0--0xx1xx1-x3-x3p0--0xx1xx1--------|
A--0--0xx1xx1-x3-x3p0--0xx1xx1--------|
D--0--0xx1xx1-x3-x3p0--0xx1xx1--0000--|
P.M.                            ....

E---------------------------------------|
B---------------------------------------|
G---------------------------------------|
D--0--0xx1xx1-x3-x3p0--0xx1xx1-xx5p3-0--|
A--0--0xx1xx1-x3-x3p0--0xx1xx1-xx5p3-0--|
D--0--0xx1xx1-x3-x3p0--0xx1xx1-xx5p3-0--|


E-------------------------------------|
B-------------------------------------|
G-------------------------------------|
D--0--0xx1xx1-x3-x3p0--0xx1xx1--------|
A--0--0xx1xx1-x3-x3p0--0xx1xx1--------|
D--0--0xx1xx1-x3-x3p0--0xx1xx1--0000--|
P.M.                            ....


Outro
E---------------------------------|
B---------------------------------|
G---------------------------------|
D--3p0-3p0-xx1p0-1p0--------------|
A--3p0-3p0-xx1p0-1p0--------------|
D--3p0-3p0-xx1p0-1p0-0-0-0-0-0-0--|
P.M.                 . . . . . .

E---------------------------|
B---------------------------|
G---------------------5xx8--|
D--3p0-3p0-xx1p0-1p0xx5xx8--|
A--3p0-3p0-xx1p0-1p0xx3xx6--|
D--3p0-3p0-xx1p0-1p0xx------|

E---------------------------------|
B---------------------------------|
G---------------------------------|
D--3p0-3p0-xx1p0-1p0--------------|
A--3p0-3p0-xx1p0-1p0--------------|
D--3p0-3p0-xx1p0-1p0-0-0-0-0-0-0--|
P.M.                 . . . . . .

---------------------------|
---------------------------|
---------------------5xx8--|
--3p0-3p0-xx1p0-1p0xx5xx8--|
--3p0-3p0-xx1p0-1p0xx3xx6--|
--3p0-3p0-xx1p0-1p0xx------|

Continue and fade out


Suggestios, corrections, e mail me or leave a comment. I'd like to acknoledge 
for help on stuff. Tabbed by irishmatt1992.
comments
print report bad tab
5 comments total. Showing first comments.
0 reply
10kf.iskickass wrote on July 17 2006, 12:26 pm

they just dont sound like the songs themselves. but, my biggest prob with it was that ttf is definately in drop Db, not c. a great effort, must have taken forever, but just plain not accurate.

0 reply
joeadzhiyev(: wrote on July 30 2006, 07:07 pm

yeah dude this is so much better then the shit i posted up earlyer even though i couldnt put up the real credits. if i could log on to my old account then i would delete the first one that i had put up and then yours would be the main one. you totally showed me up there dude. but its all good. your still hella tight.

0 reply
dark_falco3000 wrote on October 13 2006, 10:49 am

OK...
Ten thousand fists: stolen from Operator (CA)
Just Stop: stolen from subbliminal
guarded: seems to be his own work
Deify: His own version... which sucks anyway
Stricken: stolen from an unregistered user
I'm Alive: Once again seems to be his own work
Sons of Plunder: Stolen from subbliminal
Overburdened: Stolem from Andrew Zara
Decadence: Haven't found a tab for this song but it's identical to the Decadence tab in the other ten thousand fists album
Forgiven: His own version... which seems to be half stolen from Andrew Zara's tab
Land of Confusion: Stolen from SamTMFN
Sacred Lie: Stolen from Subbliminal
Pain Redefined: Stolen from tab_man84
Avarice: His own version, which is stolen from other versions except for the solo
Hell: Stolen from ChrisW-Ness2003
Monster: Stolen from Operator (CA)
Dehumanized wasn't included despite the fact that he said that all the tracks were included

I want to post or [tab]
guest
You may want to rate the tab now too:
select rating
Please do not post tabs as comments. Select "correction" instead!