Oops, an error
Loading. Please wait.

Ten Thousand Fists Tab

ver3
31,455 views 12 this week
6 commentsread comments
1 2 3 4 5
accurate
x 11
Autoscroll
+/-
esc
set tempo
stop
Contributor
Hey! There's an official Ultimate Guitar app which is ideal
for learning songs when you're away from computer. Get the app
WARNING: You are trying to view
                                    content from Ultimate-Guitar.com
                                    in an unauthorized application,
                                    which is prohibited.

                                    Please use an official Ultimate
                                    Guitar Tabs application for iPhone,
                                    iPad or Android to access legitimate
                                    chords, guitar, bass, and drum tabs
                                    from Ultimate-Guitar.com database.

                                    Type "ultimate guitar tabs" in Apple
                                    App Store's or Android Market's
                                    search to find the application.
First I just want to thank the people that made the tabs, cause I just copied and pasted.

Second if you are the tabber and you don't want one of your tabs on here tell me and 
replace it with another one.

Disturbed
Ten Thousand Fists

1.  Ten Thousand Fists
2.  Just Stop
3.  Guarded
4.  Deify
5.  Stricken
6.  I'm Alive
7.  Son Of A Plunder
8.  Overburdened
9.  Decadance
10. Forgiven
11. Land Of Confusion
12. Sacred Life
13. Pain Redefined
14. Avarice

1. Ten Thousand Fists
Tabbed By Andrew Zara

Tuning- Drop Db or Drop C#(Same Thing)

The other two versions are in Drop C.They are both correct for that tuning,but the way
Dan plays it is in Drop Db.ENJOY!

Intro
|---------------------------------------------------------|
|---------------------------------------------------------|
|---------------------------------------------------------|
|-3-2-0-2--3-2-0-2-0-2-3-2-0-2--3-2-0-2--3-2-0-2--3-2-0-2-|
|---------------------------------------------------------|
|---------------------------------------------------------|
P.M......  ...................  .......  .......  .......

Heavy Intro
|---------------------------------------------------------|
|---------------------------------------------------------|
|---------------------------------------------------------|
|---------------------------------------------------------|
|-3-2-0-2--3-2-0-2-0-2-3-2-0-2--3-2-0-2--3-2-0-2--3-2-0-2-|
|-3-2-0-2--3-2-0-2-0-2-3-2-0-2--3-2-0-2--3-2-0-2--3-2-0-2-|

Fill(He does this during the heavy intro,listen to the song for when he does)
|-----|
|-----|
|-----|
|-----|
|-----|
|-/14-|

Verse
|---------------------------|
|---------------------------|
|---------------------------|
|---------------------------|
|-2-2-2-2-2-2-2-5---3---3-5-|
|-2-2-2-2-2-2-2-5---3---3-5-|
P.M.          .

Play intro part for the other part of the verse

Pre-Chorus
|----------------------------------------------------------|
|----------------------------------------------------------|
|---------4-----6-----7-----------4-----6-----7---------7*-|
|-------2-2-4-4-4-5-5-5-7-7-5-4-2-2-4-4-4-5-5-5-7----7*----|
|-x-x-x-2-2-4-4-4-5-5-5-7-7-5-4-2-2-4-4-4-5-5-5-7-7*-------|
|-x-x-x-2---4-4---5-5---7-7-5-4-2---4-4---5-5---7----------|

|---------------------------------------|
|---------------------------------------|
|---4-----6-----7---------------2-2-2-2-|
|-2-2-4-4-4-5-5-5-7-7-5-4-2-2-x-0-0-0-0-|
|-2-2-4-4-4-5-5-5-7-7-5-4-2-2-x-0-0-0-0-|
|-2---4-4---5-5---7-7-5-4-2-2-x-0-0-0-0-|

Chorus
|---------------------------|
|---------------------------|
|---------------------------|
|-------------------5--7--3-|
|-10-10-10-10-10-10-5--7--3-|
|-10-10-10-10-10-10-5--7--3-|

Play Heavy Intro

Play Verse

Fill(Played before Pre-Chorus)
|-------|
|-------|
|-------|
|-------|
|-00--0-|
|-00--0-|
P.M.  .

Play Pre-Chorus

Play Chorus

Second Chorus Ending
|----|
|----|
|----|
|-0~-|
|-0~-|
|-0~-|

Bridge w/delay
|--------------------------------|
|--------------------------------|
|--------------------------------|
|--------------------------5-----|
|-0-0-0------0-0-0---0-2-3---3-2-|
|-0-0-0------0-0-0---------------|
P.M....      .....

Bridge 2
|------------------------------|
|------------------------------|
|------------------------------|
|-2-2---2-2-2-2-2---2-2-0--5-7-|
|-2-2---2-2-2-2-2---2-2-0--5-7-|
|-2-2---2-2-2-2-2---2-2-0--5-7-|

Play Pre-Chorus

Play Chorus

Play Intro

Ending
|------------|
|------------|
|------------|
|-5--7--3--0-|
|-5--7--3--0-|
|-5--7--3--0-|

It should about 95% correct.


2. Just Stop
Tabbed by 10kf.iskickass

Drop Db tuning

Intro (2x)

   s s  s s s s s  s  s s s s s s s  s s s s s s s s s s s s s
Eb|-------------------------------------------------------------|
Bb|-------------------------------------------------------------|
Gb|-------------------------------------------------------------|
Db|-------------------------------------------------------------|
Ab|-----------3h5-----------5h6------------3h5-6p5p0-9p8p0------|
Db|0-0--0-5h7------0--0-5h7-----0-0--0-5h7-----------------3h5--|

   s s  s s s s s  s  s s s s s s s  s s s s s s s s s s s s s
Eb|------------------------------------------------------------|
Bb|------------------------------------------------------------|
Gb|------------------------------------------------------------|
Db|------------------------------------------------------------|
Ab|-----------3h5-----------5h6------------3h5-6p5-------------|
Db|0-0--0-5h7------0--0-5h7-----0-0--0-5h7---------0h3h5-0h3h5-|

Verse (1x)

   s s  s s s s s  s  s s s s s s s  s s s s s e  e  s s
Eb|-------------------------------------------------------|
Bb|-------------------------------------------------------|
Gb|-------------------------------------------------------|
Db|--------------------------------------------3--3--3h5--|
Ab|--------------------------------------------3--3--3h5--|
Db|0-0--0-0-0-0-0--0--0-0-0-0-0-0-0--0-0-0-0-0-3--3--3h5--|
   . .  . . . . .  .  . . . . . . .  . . . . .

   s s  s s s s s  s  s s s s s s s  s s s s s e  e  s s s
Eb|---------------------------------------------------------|
Bb|---------------------------------------------------------|
Gb|---------------------------------------------------------|
Db|--------------------------------------------5--5--3h5p3--|
Ab|--------------------------------------------5--5--3h5p3--|
Db|0-0--0-0-0-0-0--0--0-0-0-0-0-0-0--0-0-0-0-0-5--5--3h5p3--|
   . .  . . . . .  .  . . . . . . .  . . . . .

   s s  s s s s s  s  s s s s s s s  s s s s s e  e  s s
Eb|-------------------------------------------------------|
Bb|-------------------------------------------------------|
Gb|-------------------------------------------------------|
Db|--------------------------------------------3--3--3h5--|
Ab|--------------------------------------------3--3--3h5--|
Db|0-0--0-0-0-0-0--0--0-0-0-0-0-0-0--0-0-0-0-0-3--3--3h5--|

   s s  s s s s s  s  s s s s s s s  s s s s s e  e  s
Eb|----------------------------------------------------|
Bb|----------------------------------------------------|
Gb|----------------------------------------------------|
Db|--------------------------------------------8--7--3-|
Ab|--------------------------------------------8--7--3-|
Db|0-0--0-0-0-0-0--0--0-0-0-0-0-0-0--0-0-0-0-0-8--7--3-|

Chorus (1x)

   e  e  ssss  ss e  e  ssss  ss e   e   s s s s   s s s   e   e   s s s s   s s s
Eb|---------------------------------------------------------------------------------|
Bb|---------------------------------------------------------------------------------|
Gb|---------------------------------------------------------------------------------|
Db|8--8--8888--88-0--0--0000--00-10--10--10101010--101010--10--10--10101010--101010-|
Ab|8--8--8888--88-0--0--0000--00-10--10--10101010--101010--10--10--10101010--101010-|
Db|8--8--8888--88-0--0--0000--00-10--10--10101010--101010--10--10--10101010--101010-|
                                 ^ these are tens

   e  e  ssss  ss e  e  ssss  ss e   e   s s s s   s s q
Eb|---------------------------------------------------------|
Bb|---------------------------------------------------------|
Gb|---------------------------------------------------------|
Db|8--8--8888--88-0--0--0000--00-10--10--10101010--101010~~~|
Ab|8--8--8888--88-0--0--0000--00-10--10--10101010--101010~~~|
Db|8--8--8888--88-0--0--0000--00-10--10--10101010--101010~~~|

Intro (1x)

Fill (1x)

Eb|---------------------------|
Bb|---------------------------|
Gb|---------------------------|
Db|---------------------------|
Ab|---------------------------|
Db|0-0--0-0-0-0-0--0--0-0-0-0-|
   . .  . . . . .  .  . . . .

Verse (1x)

Chorus (1x) then:

   e  e  ssss  ss e  e  ssss  ss e   e   s s s s   s s s   e   e   s s s s   s s s
Eb|---------------------------------------------------------------------------------|
Bb|---------------------------------------------------------------------------------|
Gb|---------------------------------------------------------------------------------|
Db|8--8--8888--88-0--0--0000--00-10--10--10101010--101010--10--10--10101010--101010-|
Ab|8--8--8888--88-0--0--0000--00-10--10--10101010--101010--10--10--10101010--101010-|
Db|8--8--8888--88-0--0--0000--00-10--10--10101010--101010--10--10--10101010--101010-|

   e  e  ssss  ss e  e  ssss  ss e  e  ssss  ssw
Eb|------------------------------------------------|
Bb|------------------------------------------------|
Gb|------------------------------------------------|
Db|8--8--8888--88-7--7--7777--77-5--5--5555--555~~~|
Ab|8--8--8888--88-7--7--7777--77-5--5--5555--555~~~|
Db|8--8--8888--88-7--7--7777--77-5--5--5555--555~~~|

Breakdown

   e   e   e   s. s. s s  s. s ssssssss
Eb|------------------------------------|
Bb|------------------------------------|
Gb|------------------------------------|
Db|0---3---0---6--0--1-0--6--0-3xxx5035|
Ab|0---3---0---6--0--1-0--6--0-3xxx5035|
Db|0---3---0---6--0--1-0--6--0-3xxx5035|

   e   e   e   s. s. s s  s. s ssssssss
Eb|------------------------------------|
Bb|------------------------------------|
Gb|------------------------------------|
Db|0---3---0---6--0--1-0--6--0-3xxx5xxx|
Ab|0---3---0---6--0--1-0--6--0-3xxx5xxx|
Db|0---3---0---6--0--1-0--6--0-3xxx5xxx|

   e   e   e   s. s. s s  s. s ssssssss
Eb|------------------------------------|
Bb|------------------------------------|
Gb|------------------------------------|
Db|0---3---0---6--0--1-0--6--0-3xxx5035|
Ab|0---3---0---6--0--1-0--6--0-3xxx5035|
Db|0---3---0---6--0--1-0--6--0-3xxx5035|

  e   e   e   s. s. s s  s. s ssssssss
Eb|------------------------------------|
Bb|------------------------------------|
Gb|------------------------------------|
Db|0---3---0---6--0--1-0--6--0-3xxx5xxx|
Ab|0---3---0---6--0--1-0--6--0-3xxx5xxx|
Db|0---3---0---6--0--1-0--6--0-3xxx5xxx|

   e   e   e   s. s. s s  s. s ssssssss
Eb|------------------------------------|
Bb|------------------------------------|
Gb|------------------------------------|
Db|0---3---0---6--0--1-0--6--0-3xxx5035|
Ab|0---3---0---6--0--1-0--6--0-3xxx5035|
Db|0---3---0---6--0--1-0--6--0-3xxx5035|

   e   e   e   s. s. s s  s. s ssssssss
Eb|------------------------------------|
Bb|------------------------------------|
Gb|------------------------------------|
Db|0---3---0---6--0--1-0--6--0-3xxx5035|
Ab|0---3---0---6--0--1-0--6--0-3xxx5035|
Db|0---3---0---6--0--1-0--6--0-3xxx5035|


Eb|------------------------------|
Bb|------------------------------|
Gb|------------------------------|
Db|8~~~~~~0~~~~~~10~~~~~~10~~~~~~|
Ab|8~~~~~~0~~~~~~10~~~~~~10~~~~~~|
Db|8~~~~~~0~~~~~~10~~~~~~10~~~~~~|

Chorus (1x)

   e  e  ssss  ss e  e  ssss  ss e  e  ssss  ssw
Eb|------------------------------------------------|
Bb|------------------------------------------------|
Gb|------------------------------------------------|
Db|8--8--8888--88-7--7--7777--77-5--5--5555--555~~~|
Ab|8--8--8888--88-7--7--7777--77-5--5--5555--555~~~|
Db|8--8--8888--88-7--7--7777--77-5--5--5555--555~~~|

Intro (1x)

Outro (1x)

   s s  s s s s s  s  s s s s s s s  s s s s s s s s s s s s s
Eb|-------------------------------------------------------------|
Bb|-------------------------------------------------------------|
Gb|-------------------------------------------------------------|
Db|-------------------------------------------------------------|
Ab|-----------3h5-----------5h6------------3h5-6p5p0-9p8p0------|
Db|0-0--0-5h7------0--0-5h7-----0-0--0-5h7-----------------3h5--|

   s s  s s s s s  s  s s s s s s s  s s s s s s s s s s s s s s s s s s s s s s s s s s s s s s
Eb|----------------------------------------------------------------------------------------------|
Bb|----------------------------------------------------------------------------------------------|
Gb|----------------------------------------------------------------------------------------------|
Db|--------------------------------------------------------------------------------------------0-|
Ab|-----------3h5-----------5h6------------3h5-6p5-------------6p5-------------6p5-------------0-|
Db|0-0--0-5h7------0--0-5h7-----0-0--0-5h7---------0h3h5-0h3h5-----0h3h5-0h3h5-----0h3h5-0h3h5-0-|

Rock on!

3. Guarded
Tabbed By Andrew Zara

Gtr I (C# G# C# F# A# D#) - 'Untitled'

   Intro
    Q=137
    N.C.
   4/4
    Gtr I
           PM----|     PM|              PM----|   PM|
    Q  S S S S S S S S S S S S   Q  S S S S S S E S S E
||-----------------------------|------------------------|
||o----------------------------|------------------------|
||-----------------------------|------------------------|
||-----------------------------|------------------------|
||o----3-5---------3-5-----3-5-|----3-5---------1-----6-|
||--0------0-0-0-0-----0-0-----|-0------0-0-0-0---0-0---|


         PM----|     PM|              PM----------------|
  Q  S S S S S S S S S S S S   Q  S S S S S S S S S S S S  3x
|----------------------------|-----------------------------||
|----------------------------|----------------------------o||
|----------------------------|-----------------------------||
|----------------------------|-----------------------------||
|----3-5---------3-5-----3-5-|----3-5---------------------o||
|-0------0-0-0-0-----0-0-----|-0------0-0-0-0-6-6-6-6-6-6--||


   Pre-Verse
    N.C.                        A5
    E E E E E E E E   E E E E E  E  E  E
||------------------|--------------------|
||o-----------------|-----------11-11-11-|
||------7-----7-----|-7-----7---10-10-10-|
||----7-----7-----7-|-----7------8--8--8-|
||o-----------------|------------8--8--8-|
||--0-----3-----0---|---3-----0--8--8--8-|


  N.C.                        A5
  E E E E E E E E   E E E E E  E  E  E
|-----------------|---------------------||
|-----------------|-----------11-11-11-o||
|-----7-----7-----|-7-----7---10-10-10--||
|---7-----7-----7-|-----7------8--8--8--||
|-----------------|------------8--8--8-o||
|-0-----3-----0---|---3-----0--8--8--8--||


   Verse
    N.C.                        Asus2
    E E E E E E E E   E E E E E  E  E  E
||------------------|--------------------|
||o-----------------|--------------------|
||----7-----7-----7-|-----7--------------|
||------7-----7-----|-7-----7---10-10-10-|
||o-----------------|------------8--8--8-|
||--0-----3-----0---|---3-----0--8--8--8-|


  N.C.                        Asus2
  E E E E E E E E   E E E E E  E  E  E
|-----------------|---------------------||
|-----------------|--------------------o||
|---7-----7-----7-|-----7---------------||
|-----7-----7-----|-7-----7---10-10-10--||
|-----------------|------------8--8--8-o||
|-0-----3-----0---|---3-----0--8--8--8--||


 Pre-Chorus
  E5G5F#5 F#E5G5F#5     E5    E5    E5    E5  E5G5F#5 F#E5G5F#5     E5    E5
                                                               2/4
  E E E E E E E E   S S E S S E S S E S S E   E E E E E E E E   S S E S S E
|-----------------|-------------------------|-----------------|-------------|
|-----------------|-------------------------|-----------------|-------------|
|-----------------|-------------------------|-----------------|-------------|
|-3-6-5---5-3-6-5-|-x-x-3-x-x-3-x-x-3-x-x-3-|-3-6-5---5-3-6-5-|-x-x-3-x-x-3-|
|-3-6-5---5-3-6-5-|-x-x-3-x-x-3-x-x-3-x-x-3-|-3-6-5---5-3-6-5-|-x-x-3-x-x-3-|
|-3-6-5---5-3-6-5-|-x-x-3-x-x-3-x-x-3-x-x-3-|-3-6-5---5-3-6-5-|-x-x-3-x-x-3-|


   Chorus
    C#5  N.C.D5        N.C.Esus2  C#5  N.C.D5        N.C.E5  N.C.
   4/4
    H    E E Q    +Q   E E H      H    E E Q    +Q   E E E E  E   E
||-------3-2----|------3-2------|------3-2----|------3-2---------------||
||o-------------|---------------|-------------|-----------------------o||
||--------------|---------------|-------------|------------------------||
||--0--------1--|-(1)------5----|-0--------1--|-(1)------3-x-----<5>---||
||o-0--------1--|-(1)------3----|-0--------1--|-(1)------3-x-<5>------o||
||--0--------1--|-(1)------3----|-0--------1--|-(1)------3-x-----------||


   Verse
    N.C.
           PM----|     PM|              PM----|   PM|
    Q  S S S S S S S S S S S S   Q  S S S S S S E S S E
||-----------------------------|------------------------|
||o----------------------------|------------------------|
||-----------------------------|------------------------|
||-----------------------------|------------------------|
||o----3-5---------3-5-----3-5-|----3-5---------1-----6-|
||--0------0-0-0-0-----0-0-----|-0------0-0-0-0---0-0---|


         PM----|     PM|              PM----------------|
  Q  S S S S S S S S S S S S   Q  S S S S S S S S S S S S
|----------------------------|-----------------------------||
|----------------------------|----------------------------o||
|----------------------------|-----------------------------||
|----------------------------|-----------------------------||
|----3-5---------3-5-----3-5-|----3-5---------------------o||
|-0------0-0-0-0-----0-0-----|-0------0-0-0-0-6-6-6-6-6-6--||


 Pre-Verse
  N.C.                        A5         N.C.                         A5
  E E E E E E E E   E E E E E  E  E  E   E E E E E E E E   E E E E Q   q
|-----------------|--------------------|-----------------|-----------------|
|-----------------|-----------11-11-11-|-----------------|------------11---|
|-----7-----7-----|-7-----7---10-10-10-|-----7-----7-----|-7-----7----10---|
|---7-----7-----7-|-----7------8--8--8-|---7-----7-----7-|-----7-------8---|
|-----------------|------------8--8--8-|-----------------|-------------8---|
|-0-----3-----0---|---3-----0--8--8--8-|-0-----3-----0---|---3-----0---8---|


   Verse
    N.C.                        Asus2
    E E E E E E E E   E E E E E  E  E  E
||------------------|--------------------|
||o-----------------|--------------------|
||----7-----7-----7-|-----7--------------|
||------7-----7-----|-7-----7---10-10-10-|
||o-----------------|------------8--8--8-|
||--0-----3-----0---|---3-----0--8--8--8-|


  N.C.                        Asus2
  E E E E E E E E   E E E E E  E  E  E
|-----------------|---------------------||
|-----------------|--------------------o||
|---7-----7-----7-|-----7---------------||
|-----7-----7-----|-7-----7---10-10-10--||
|-----------------|------------8--8--8-o||
|-0-----3-----0---|---3-----0--8--8--8--||


 Pre-Chorus
  E5G5F#5 F#E5G5F#5     E5    E5    E5    E5  E5G5F#5 F#E5G5F#5     E5    E5
                                                               2/4
  E E E E E E E E   S S E S S E S S E S S E   E E E E E E E E   S S E S S E
|-----------------|-------------------------|-----------------|-------------|
|-----------------|-------------------------|-----------------|-------------|
|-----------------|-------------------------|-----------------|-------------|
|-3-6-5---5-3-6-5-|-x-x-3-x-x-3-x-x-3-x-x-3-|-3-6-5---5-3-6-5-|-x-x-3-x-x-3-|
|-3-6-5---5-3-6-5-|-x-x-3-x-x-3-x-x-3-x-x-3-|-3-6-5---5-3-6-5-|-x-x-3-x-x-3-|
|-3-6-5---5-3-6-5-|-x-x-3-x-x-3-x-x-3-x-x-3-|-3-6-5---5-3-6-5-|-x-x-3-x-x-3-|


   Chorus
    C#5  N.C.D5        N.C.E5     C#5  N.C.D5        N.C.E5  N.C.
   4/4
    H    E E Q    +Q   E E H      H    E E Q    +Q   E E E E  E   E
||-------3-2----|------3-2------|------3-2----|------3-2---------------||
||o-------------|---------------|-------------|-----------------------o||
||--------------|---------------|-------------|------------------------||
||--0--------1--|-(1)------3----|-0--------1--|-(1)------3-x-----<5>---||
||o-0--------1--|-(1)------3----|-0--------1--|-(1)------3-x-<5>------o||
||--0--------1--|-(1)------3----|-0--------1--|-(1)------3-x-----------||


  C#5        C#5     N.C.
  W          H.       Q
|----------|--------------|
|----------|--------------|
|----------|--------------|
|-0--------|-0------------|
|-0--------|-0------------|
|-0--------|-0-------15\--|


   Bridge
    C#5                          A5A5G#5 C#5                          B5 B5 G#5
         PM--------------------|              PM------------------------------|
                                 |-3-|                                 |-3----|
    Q.   S S E E E E   E S S E E Q Q Q   Q.   S S E E E E   E S S E E  Q  Q Q
||-------------------|-----------------|------------------|-------------------|
||o------------------|-----------------|------------------|-------------------|
||-------------------|-----------------|------------------|-------------------|
||-------------------|-----------8-8-7-|------------------|-------------------|
||o-0----0-0-0-0---0-|---0-0-0-0-8-8-7-|-0----0-0-0-0---0-|---0-0-0-0-10-10-7-|
||--0----0-0-0-0---0-|---0-0-0-0-8-8-7-|-0----0-0-0-0---0-|---0-0-0-0-10-10-7-|


  C#5                          A5A5G#5
       PM--------------------|
                               |-3-|
  Q.   S S E E E E   E S S E E Q Q Q
|------------------|-----------------|
|------------------|-----------------|
|------------------|-----------------|
|------------------|-----------------|
|-0----0-0-0-0---0-|---0-0-0-0-8-8-7-|
|-0----0-0-0-0---0-|---0-0-0-0-8-8-7-|


  E5                D#5     A5B5 A5B5 A5B5
                               |----3----|
  E E E E E E E E   E E E E a  Q a  Q a  Q  3x
|-----------------|-------------------------||
|-----------------|------------------------o||
|-----------------|-------------------------||
|-3-3-3-3-3-3-3-3-|-2-2-2-2-8s10-8s10-8s10--||
|-3-3-3-3-3-3-3-3-|-2-2-2-2-8s10-8S10-8S10-o||
|-3-3-3-3-3-3-3-3-|-2-2-2-2-8s10-8s10-8s10--||


 Guitar Break
  N.C.
         PM----|     PM|              PM----------------|
  Q  S S S S S S S S S S S S   Q  S S S S S S S S S S S S
|----------------------------|----------------------------|
|----------------------------|----------------------------|
|----------------------------|----------------------------|
|----------------------------|----------------------------|
|----------------------------|----------------------------|
|-0--3-5-0-0-0-0-3-5-0-0-3-5-|-0--3-5-0-0-0-0-6-6-6-6-6-6-|


 Breakdown
         PM----|     PM|              PM----|     PM|
  Q  S S S S S S S S S S S S   Q  S S S S S S S S S S S S
|----------------------------|----------------------------|
|----------------------------|----------------------------|
|----------------------------|----------------------------|
|----------------------------|----------------------------|
|----------------------------|----------------------------|
|-0--3-5-0-0-0-0-3-5-0-0-3-5-|-0--3-5-0-0-0-0-3-5-0-0-3-5-|


         PM----|     PM|              PM----------------|
  Q  S S S S S S S S S S S S   Q  S S S S S S S S S S S S
|----------------------------|----------------------------|
|----------------------------|----------------------------|
|----------------------------|----------------------------|
|----------------------------|----------------------------|
|----------------------------|----------------------------|
|-0--3-5-0-0-0-0-3-5-0-0-3-5-|-0--3-5-0-0-0-0-6-6-6-6-6-6-|


 Outro
  C#5  N.C.                    A5A5G#5 C#5  N.C.                    A5A5G#5
                               |-3-|                                |-3-|
  Q.   S S E E E E   E S S E E Q Q Q   Q.   S S E E E E   E S S E E Q Q Q
|------------------|-----------------|------------------|------------------|
|------------------|-----------------|------------------|------------------|
|------------------|-----------------|------------------|------------------|
|-0----------------|-----------8-8-7-|-0----------------|-----------8-8-7--|
|-0----------------|-----------8-8-7-|-0----------------|-----------8-8-7--|
|-0----0-0-0-0---0-|---0-0-0-0-8-8-7-|-0----0-0-0-0---0-|---0-0-0-0-8-8-7--|


  C#5  N.C.                    A5A5G#5 C#5  N.C.                    A5A5N.C.
                               |-3-|                                |-3-|
  Q.   S S E E E E   E S S E E Q Q Q   Q.   S S E E E E   E S S E E Q Q Q
|------------------|-----------------|------------------|------------------*|
|------------------|-----------------|------------------|------------------*|
|------------------|-----------------|------------------|-----------3-3-3--*|
|-0----------------|-----------8-8-7-|-0----------------|-----------3-3-2--*|
|-0----------------|-----------8-8-7-|-0----------------|-----------1-1-1--*|
|-0----0-0-0-0---0-|---0-0-0-0-8-8-7-|-0----0-0-0-0---0-|---0-0-0-0--------*|


Duration Legend
---------------
W - whole; H - half; Q - quarter; E - 8th; S - 16th; T - 32nd; X - 64th; a - acciaccatura
+ - note tied to previous; . - note dotted; .. - note double dotted
Uncapitalized letters represent notes that are staccato (1/2 duration)
Irregular groupings are notated above the duration line
Duration letters will always appear directly above the note/fret number it represents the
duration for.  Duration letters with no fret number below them represent rests.  Multi-
bar rests are notated in the form Wxn, where n is the number of bars to rest for.  Low
melody durations appear below the staff

Tablature Legend
----------------
 h   - hammer-on
 p   - pull-off
 b   - bend
 pb  - pre-bend
 r   - bend release (if no number after the r, then release immediately)
 /\  - slide into or out of (from/to "nowhere")
 s   - legato slide
 S   - shift slide
  - natural harmonic
[n]  - artificial harmonic
n(n) - tapped harmonic
 ~   - vibrato
 tr  - trill
 T   - tap
 TP  - trem. picking
 PM  - palm muting
\n/  - tremolo bar dip; n = amount to dip
 \n  - tremolo bar down
 n/  - tremolo bar up
/n\  - tremolo bar inverted dip
 =   - hold bend; also acts as connecting device for hammers/pulls
 <>  - volume swell (louder/softer)
 x   - on rhythm slash represents muted slash
 o   - on rhythm slash represents single note slash

Misc Legend
-----------
 |  - bar
||  - double bar
||o - repeat start
o|| - repeat end
*|  - double bar (ending)
 :  - bar (freetime)
 $  - Segno
 &  - Coda
Tempo markers -  = BPM(8/16=s8/s16), where s8 = swing 8ths, s16 = swing 16ths

4. Deify
Tabbed By Operator (CA)

Tuning: Drop C (CGCFAD)

Here's George W. Bush song!

**Update (June 27th 2006)** I updated the intro end and the interlude.


Intro
|------------------------------------------------------------------------|
|------------------------------------------------------------------------|
|--55-55-55-55-----------------------------------------------------------|
|--55-55-55-55--5555--33-33-33-33--1-5-33-33-33-33-3333-11-11-00-00-555--|
|--33-33-33-33--5555--33-33-33-33--1-5-33-33-33-33-3333-11-11-00-00-555--|
|---------------5555--33-33-33-33--1-5-33-33-33-33-3333-11-11-00-00-555--|

Pre-Verse
|---------------------------------------|
|---------------------------------------|
|---------------------------------------|
|---------------------------------------|
|--10-10-8-10-11-10-8-10-10-10-11-10-8--|<
|--10-10-8-10-11-10-8-10-10-10-11-10-8--|< Play these notes very fast

Verse
|---------------------------|
|---------------------------|
|---------------------------| 4x
|---------------------------|
|--3333334444---------------|
|------------5555000088886--|
PM .......................

then:
|---------------------------|
|---------------------------|
|--5555556666---------------| 4x
|--55555566665555000088886--|
|--33333344445555000088886--|
|------------5555000088886--|

Pre-Chorus
|----------------|
|----------------|
|----------------| 4x
|--6--8--5-6-85--|
|--6--8--5-6-85--|
|--6--8--5-6-85--|

Chorus
|------------------------------------------------------------------------|
|------------------------------------------------------------------------|
|--55-55-55-55-----------------------------------------------------------|
|--55-55-55-55--5555--33-33-33-33--1-5-33-33-33-33-3333-11-11-00-00-555--|
|--33-33-33-33--5555--33-33-33-33--1-5-33-33-33-33-3333-11-11-00-00-555--|
|---------------5555--33-33-33-33--1-5-33-33-33-33-3333-11-11-00-00-555--|

Pre-Verse

Verse

Pre-Chorus

Chorus

Interlude
|-----------------------------------------|------|
|-----------------------------------------|------|
|-----------------------------------------|------|
|-----------------------------------------|------|
|----------11p10----13p10----11----11/10--|------|
|--10101010-----1010-----1010--1010-------|--12--|
                                2nd time^

then:
|--------------------------------------|
|--------------------------------------|
|--------------------------------------|
|--------------------------------------|
|----------16p0----16--------13----13--|
|--13131313----1313--11111111--1111----|
   ^ ^ ^ ^   ^ ^   ^ ^ ^ ^   ^ ^
    this is 13       this is 11

5. Stricken
Tabbed By Freaking Out

Tuning - CGCFAD

D||-------------------------------|------------------------------|
A||-------------------------------|------------------------------|
F||-------------------------------|------------------------------|
C||----10/7-----------------------|---10/7-----------------------|
G||--0-8/-5--8/7--2/3--3-5--3-6-0-|---8/-5--8/7--2/3--3-5--3-3-0-|
C||--0-------8/7--2/3--3-5--3-6-0-|---------8/7--2/3--3-5--3-3-0-|

------------------------------|-----------------------------------|
------------------------------|-----------------------------------|
------------------------------|-----------------9-9-9-9-10-10-9---|
---10/7---------------------3-|---3-3-3-5-5-3-x-7-7-7-7-7--7--7---|
---8/-5--8/7--2/3--3-5--3-6-3-|---3-3-3-3-3-3-x-7-7-7-7-7--7--7-0-|
---------8/7--2/3--3-5--3-6-3-|---3-3-3-3-3-3-x-7-7-7-7-7--7--7-0-|

------------------------------|------------------------------|
------------------------------|------------------------------|
------------------------------|------------------------------|
---10/7-----------------------|---10/7-----------------------|
---8/-5--8/7--2/3--3-5--3-6-0-|---8/-5--8/7--2/3--3-5--3-3-0-|
---------8/7--2/3--3-5--3-6-0-|---------8/7--2/3--3-5--3-3-0-|

------------------------------|-----------------------------------|
------------------------------|-----------------------------------|
------------------------------|-----------------9-9-9-9-10-10-9---|
---10/7---------------------3-|---3-3-3-5-5-3-x-7-7-7-7-7--7--7---|
---8/-5--8/7--2/3--3-5--3-6-3-|---3-3-3-3-3-3-x-7-7-7-7-7--7--7-0-|
---------8/7--2/3--3-5--3-6-3-|---3-3-3-3-3-3-x-7-7-7-7-7--7--7-0-|

-----------------------------|------------------------------|
-----------------------------|------------------------------|
-----------------------------|------------------------------|
-----------------------------|------------------------------|
---0-0--0-0--0-0--0-0--3-6-0-|---0-0--0-0--0--0-3-6-0-3-3-0-|
---0-0--0-0--0-0--0-0--3-6-0-|---0-0--0-0--0--0-3-6-0-3-3-0-|

-----------------------------|-----------------------------------|
-----------------------------|-----------------------------------|
-----------------------------|-----------------9-9-9-9-10-10-9---|
---------------------------3-|---3-3-3-5-5-3-x-7-7-7-7-7--7--7---|
---0-0--0-0--0-0--0-0--3-6-3-|---3-3-3-3-3-3-x-7-7-7-7-7--7--7-0-|
---0-0--0-0--0-0--0-0--3-6-3-|---3-3-3-3-3-3-x-7-7-7-7-7--7--7-0-|

-----------------------------|------------------------------|
-----------------------------|------------------------------|
-----------------------------|------------------------------|
-----------------------------|------------------------------|
---0-0--0-0--0-0--0-0--3-6-0-|---0-0--0-0--0--0-3-6-0-3-3-0-|
---0-0--0-0--0-0--0-0--3-6-0-|---0-0--0-0--0--0-3-6-0-3-3-0-|

-----------------------------|----------------------------------|
-----------------------------|----------------------------------|
-----------------------------|-----------------9-9-9-9-10-10-9--|
---------------------------3-|---3-3-3-5-5-3-x-7-7-7-7-7--7--7--|
---0-0--0-0--0-0--0-0--3-6-3-|---3-3-3-3-3-3-x-7-7-7-7-7--7--7--|
---0-0--0-0--0-0--0-0--3-6-3-|---3-3-3-3-3-3-x-7-7-7-7-7--7--7--|

-----------------------------|--------------------------------|
-----------------------------|--------------------------------|
-----------------------------|--------------------------------|
--0---0-10--3---3-3-3-2-2-1--|--0---0-------------------------|
--0---0-8---1----------------|--0---0-5--8---8-8-8-8-10-10-10-|
--0---0----------------------|--0---0-5--8---8-8-8-8-10-10-10-|

-----------------------------|----------------------------|
-----------------------------|----------------------------|
-----------------------------|----------------------------|
--0---0-10--3---3-3-3-2-2----|----------------------------|
--0---0-8---1----------------|--3---3---3--5-5-5--x-x-x-x-|
--0---0-------------------8/-|--3---3---3--5-5-5--x-x-x-x-|

-----------------------------|--------------------------------|
-----------------------------|--------------------------------|
-----------------------------|--------------------------------|
--0---0-10--3---3-3-3-2-2-1--|--0---0-------------------------|
--0---0-8---1----------------|--0---0-5--8---8-8-8-8-10-10-10-|
--0---0----------------------|--0---0-5--8---8-8-8-8-10-10-10-|

----------------------------|----------------------------|
----------------------------|----------------------------|
----------------------------|----------------------------|
----0--10--3---3-3-3-2-2----|----------------------------|
----0--8---1----------------|--3---3---3--5-5-5--1-1-1-1-|
----0--------------------8/-|--3---3---3--5-5-5--1-1-1-1-|

------------------------------|----------------------------|
------------------------------|----------------------------|
------------------------------|----------------------------|
------------------------------|----------------------------|
----8/5-----------------------|---8/5----------------------|
--0------8/7--2/3--3-5--3-6-0-|--------8/7--2/3--3-5-3b--0-|

-----------------------------|-----------------------------------|
-----------------------------|-----------------------------------|
-----------------------------|-----------------9-9-9-9-10-10-9---|
---------------------------3-|---3-3-3-5-5-3-x-7-7-7-7-7--7--7---|
---8/5---------------------3-|---3-3-3-3-3-3-x-7-7-7-7-7--7--7-0-|
--------8/7--2/3--3-5--3-6-3-|---3-3-3-3-3-3-x-7-7-7-7-7--7--7-0-|

-----------------------------|------------------------------|
-----------------------------|------------------------------|
-----------------------------|------------------------------|
-----------------------------|------------------------------|
---0-0--0-0--0-0--0-0--3-6-0-|---0-0--0-0--0--0-3-6-0-3-3-0-|
---0-0--0-0--0-0--0-0--3-6-0-|---0-0--0-0--0--0-3-6-0-3-3-0-|

-----------------------------|-----------------------------------|
-----------------------------|-----------------------------------|
-----------------------------|-----------------9-9-9-9-10-10-9---|
---------------------------3-|---3-3-3-5-5-3-x-7-7-7-7-7--7--7---|
---0-0--0-0--0-0--0-0--3-6-3-|---3-3-3-3-3-3-x-7-7-7-7-7--7--7---|
---0-0--0-0--0-0--0-0--3-6-3-|---3-3-3-3-3-3-x-7-7-7-7-7--7--7-0-|

-----------------------------|------------------------------|
-----------------------------|------------------------------|
-----------------------------|------------------------------|
-----------------------------|------------------------------|
-----------------------------|------------------------------|
---0-0--0-0--0-0--0-0--3-6-0-|---0-0--0-0--0--0-3-6-0-3-3-0-|

-----------------------------|----------------------------------|
-----------------------------|----------------------------------|
-----------------------------|-----------------9-9-9-9-10-10-9--|
---------------------------3-|---3-3-3-5-5-3-x-7-7-7-7-7--7--7--|
---------------------------3-|---3-3-3-3-3-3-x-7-7-7-7-7--7--7--|
---0-0--0-0--0-0--0-0--3-6-3-|---3-3-3-3-3-3-x-7-7-7-7-7--7--7--|

-----------------------------|--------------------------------|
-----------------------------|--------------------------------|
-----------------------------|--------------------------------|
--0---0-10--3---3-3-3-2-2-1--|--0---0-------------------------|
--0---0-8---1----------------|--0---0-5--8---8-8-8-8-10-10-10-|
--0---0----------------------|--0---0-5--8---8-8-8-8-10-10-10-|

-----------------------------|----------------------------|
-----------------------------|----------------------------|
-----------------------------|----------------------------|
--0---0-10--3---3-3-3-2-2----|----------------------------|
--0---0-8---1----------------|--3---3---3--5-5-5--x-x-x-x-|
--0---0-------------------8/-|--3---3---3--5-5-5--x-x-x-x-|

-----------------------------|--------------------------------|
-----------------------------|--------------------------------|
-----------------------------|--------------------------------|
--0---0-10--3---3-3-3-2-2-1--|--0---0-------------------------|
--0---0-8---1----------------|--0---0-5--8---8-8-8-8-10-10-10-|
--0---0----------------------|--0---0-5--8---8-8-8-8-10-10-10-|

----------------------------|----------------------------|
----------------------------|----------------------------|
----------------------------|----------------------------|
----0--10--3---3-3-3-2-2----|----------------------------|
----0--8---1----------------|--3---3---3--5-5-5--x-x-x-x-|
----0--------------------8/-|--3---3---3--5-5-5--x-x-x-x-|

--------x-x-------x-x-----x-x-|--------x-x-------x-x-----x-x-|
--------x-x-------x-x-----x-x-|--------x-x-------x-x-----x-x-|
--------x-x-------x-x-----x-x-|--------x-x-------x-x-----x-x-|
------------------------------|------------------------------|
--0---0-----0---0-----0-0-----|--0---0-----0---0-----0-0-----|
--0---0-----0---0-----0-0-----|--0---0-----0---0-----0-0-----|

--------x-x-------x-x-----x-x-|--------x-x-------x-x-----x-x-|
--------x-x-------x-x-----x-x-|--------x-x-------x-x-----x-x-|
--------x-x-------x-x-----x-x-|--------x-x-------x-x-----x-x-|
------------------------------|------------------------------|
--0---0-----0---0-----0-0-----|--0---0-----0---0-----0-0-----|
--0---0-----0---0-----0-0-----|--0---0-----0---0-----0-0-----|

------------------|-------------------------|--------x-x-------x-x-----x---|
------------------|-------------------------|--------x-x-------x-x-----x-x-|
------------------|-------------------------|--------x-x-------x-x-----x-x-|
------------------|-------------------------|------------------------------|
8------7----------|--8----8---10---8--7--8--|--0---0-----0---0-----0-0-----|
8------8----------|--8----8---8----8--8--8--|--0---0-----0---0-----0-0-----|

--------x-x-------x-x-----x-x-|--------------------|-----------------------|
--------x-x-------x-x-----x-x-|--------------------|-----------------------|
--------x-x-------x-x-----x-x-|--------------------|-----------------------|
------------------------------|--------------------|-----------------------|
--0---0-----0---0-----0-0-----|--8------7----------|--10------7----8----7--|
--0---0-----0---0-----0-0-----|--8------8----------|--8-------8----8----8--|

--------x-x-------x-x-----x-x-|--------x-x-------x-x-----x-x-|
--------x-x-------x-x-----x-x-|--------x-x-------x-x-----x-x-|
--------x-x-------x-x-----x-x-|--------x-x-------x-x-----x-x-|
------------------------------|------------------------------|
--0---0-----0---0-----0-0-----|--0---0-----0---0-----0-0-----|
--0---0-----0---0-----0-0-----|--0---0-----0---0-----0-0-----|

--------------------|-------------------------|--------------------------|
--------------------|-------------------------|--------------------------|
--------------------|-------------------------|--------------------------|
--------------------|-------------------------|--------------------------|
--8------7----------|--8----8---10---8--7--8--|--7--7--7--7--7--7--7--7--|
--8------8----------|--8----8---8----8--8--8--|--7--7--7--7--7--7--7--7--|

--------------------------|-----------------------------|
--------------------------|-----------------------------|
--------------------------|-----------------------------|
-----------------------5--|-----------------------------|
--5--5--5--3--3--2--2--3--|-----------------------------|
--5--5--5--3--3--2--2-----|---0-0--0-0--0-0--0-0--0-0-0-|

------------------------------|------------------------------|
------------------------------|------------------------------|
------------------------------|---------------------------10-|
------------------------------|------------------------------|
------------------------------|---------------------------8--|
---0-0--0-0--0--0-0-0-0-0-0-0-|---0-0--0-0--0-0--0-0--3-6----|

----------------------------------------|-----------------------------|
----------------------------------------|-----------------------------|
---10-10/12-12/14-14--9-9-9-9-10-10-9---|-----------------------------|
----------------------------------------|-----------------------------|
---8--8/-10-10/12-12--7-7-7-7-8--8--7---|-----------------------------|
--------------------------------------0-|---0-0--0-0--0-0--0-0--3-6-0-|

------------------------------|-----------------------------|
------------------------------|-----------------------------|
------------------------------|-----------------------------|
------------------------------|---------------------------3-|
------------------------------|---------------------------3-|
---0-0--0-0--0--0-3-6-0-3-3-0-|---0-0--0-0--0-0--0-0--3-6-3-|

----------------------------------|---------------------------|
----------------------------------|---------------------------|
-----------------9-9-9-9-10-10-9--|---------------------------|
---3-3-3-5-5-3-x-7-7-7-7-7--7--7--|--0---0-0--8---8-8--8-8-8--|
---3-3-3-3-3-3-x-7-7-7-7-7--7--7--|--0---0-0--8---8-8--8-8-8--|
---3-3-3-3-3-3-x-7-7-7-7-7--7--7--|--0---0-0--8---8-8--8-8-8--|

---------------------------|---------------------------|
---------------------------|---------------------------|
---------------------------|---------------------------|
--0---0-0--8---8-8--8-8-8--|--0---0-0--8---8-8--8-8-8--|
--0---0-0--8---8-8--8-8-8--|--0---0-0--8---8-8--8-8-8--|
--0---0-0--8---8-8--8-8-8--|--0---0-0--8---8-8--8-8-8--|

----------------------------|---------------------------|
----------------------------|---------------------------|
----------------------------|---------------------------|
----------------------------|--0---0-0--8---8-8--8-8-8--|
--3---3---3--5-5-5--x-x-x-x-|--0---0-0--8---8-8--8-8-8--|
--3---3---3--5-5-5--x-x-x-x-|--0---0-0--8---8-8--8-8-8--|

-------------------------|---------------------------|---------------------|
-------------------------|---------------------------|---------------------|
-------------------------|---------------------------|---------------------|
0---0-0--8---8-8--8-8-8--|--0---0-0--8---8-8--8-8-8--|---------------------|
0---0-0--8---8-8--8-8-8--|--0---0-0--8---8-8--8-8-8--|--5------5------5----|
0---0-0--8---8-8--8-8-8--|--0---0-0--8---8-8--8-8-8--|--5------5------5----|

---------------------|---------------------|---------------------|
---------------------|---------------------|---------------------|
---------------------|---------------------|---------------------|
---------------------|---------------------|---------------------|
--4------4------4----|--5------5------5----|--4------4------4----|
--5------5------5----|--5------5------5----|--5------5------5----|

--------------------------------|-------------------------------|
--------------------------------|-------------------------------|
--------------------------------|-------------------------------|
--------------------------------|-------------------------------|
--0-3-0--8-7--1-3-0-0-0-0-3-5-0-|---3-0--8-7--1-3-0-0-0-0-0-0-0-|
--0-3-0--8-7--1-3-0-0-0-0-3-5-0-|---3-0--8-7--1-3-0-0-0-0-0-0-0-|

-------------------------------|-------------------------------|
-------------------------------|-------------------------------|
-------------------------------|-------------------------------|
-------------------------------|-------------------------------|
---3-0--8-7--1-3-0-0-0-0-3-5-0-|---3-0--8-7--1-3-0-0-0-0-0-0-0-|
---3-0--8-7--1-3-0-0-0-0-3-5-0-|---3-0--8-7--1-3-0-0-0-0-0-0-0-|

-------------------------------|-------------------------------|
-------------------------------|-------------------------------|
-------------------------------|-------------------------------|
-------------------------------|-------------------------------|
---3-0--8-7--1-3-0-0-0-0-3-5-0-|---3-0--8-7--1-3-0-0-0-0-0-0-0-|
---3-0--8-7--1-3-0-0-0-0-3-5-0-|---3-0--8-7--1-3-0-0-0-0-0-0-0-|

-------------------------------|-------------------------------||
-------------------------------|-------------------------------||
-------------------------------|-------------------------------||
-------------------------------|-------------------------------||
---3-0--8-7--1-3-0-0-0-0-3-5-0-|---3-0--8-7--1-3-0-0-0-0-0-0-0-||
---3-0--8-7--1-3-0-0-0-0-3-5-0-|---3-0--8-7--1-3-0-0-0-0-0-0-0-||


Solo:

------|------|------|------|-------------------------------|
------|------|------|------|--13b-----13~------------13-17-|
------|------|------|------|-------------------12/14-------|
------|------|------|------|-------------------------------|
------|------|------|------|-------------------------------|
------|------|------|------|-------------------------------|

----------------------------------------|
--17b---17-15---------------------------|
--------------14--------10-12-12r-10----|
-------------------9/12--------------12-|
----------------------------------------|
----------------------------------------|

--------------------------------------------|---------------------------12h|
--10~-------------10~----------10~----------|--12~--12r--12r--12r--10~-----|
--10~-------------10~----------10~----------|--12~--12r--12r--12r--10~-----|
------12-10-12-12-----12-10-12-----12-10-12-|------------------------------|
--------------------------------------------|------------------------------|
--------------------------------------------|------------------------------|

--13p12--------------15b--15p13-15/17-----|--20b--20~--17~--18-17--------|
--------13--------13------------------15~-|----------------------18------|
-----------12~-12-------------------------|------------------------17-19b|
------------------------------------------|------------------------------|
------------------------------------------|------------------------------|
------------------------------------------|------------------------------|

------------------------------------------|
------------------------------------------|
----19b19b19b19b19b19b19b19b19b19b19b19r--|
------------------------------------------|
------------------------------------------|
------------------------------------------|

-------------------------------------|
-------------------------13-------10-|
--17h19~----7/10-12-12b-------12r----|
-------------------------------------|
-------------------------------------|
-------------------------------------|

13p10-12p10-------13p10-12p10-------13p10-12p10-------13p10-12p10-----13p10-|
------------13p10-------------13p10-------------13p10-------------13p10-----|
----------------------------------------------------------------------------|
----------------------------------------------------------------------------|
----------------------------------------------------------------------------|
----------------------------------------------------------------------------|

15p10-13p10-------15p10-13p10-------15p10-13p10-------15p10-13p10-----15p10-|
-----------13p10-------------13p10-------------13p10-------------13p10------|
----------------------------------------------------------------------------|
----------------------------------------------------------------------------|
----------------------------------------------------------------------------|
----------------------------------------------------------------------------|

-------------------------------------------|
--10-------10-------10-------10------------|
-----10-12----10-12----10-12----------9r---|
--------------------------------10-12------|
-------------------------------------------|
-------------------------------------------|

------------------------------------------------------------------------------|
------------------------------------------------------------------------------|
17b-14-15-14-12-14-13-12----12-13-12----12-14-15-14-12----12-14-15-14-12------|
-------------------------15----------15----------------15----------------14-15|
------------------------------------------------------------------------------|
------------------------------------------------------------------------------|

------------------|---|---|---|---|---|---|---|---|---|---|---|---|---|---|
------------------|---|---|---|---|---|---|---|---|---|---|---|---|---|---|
------------------|---|---|---|---|---|---|---|---|---|---|---|---|---|---|
12~---------------|---|---|---|---|---|---|---|---|---|---|---|---|---|---|
------------------|---|---|---|---|---|---|---|---|---|---|---|---|---|---|
------------------|---|---|---|---|---|---|---|---|---|---|---|---|---|---|

6. I'm Alive
Tabbed by: Dark Falco3000
e-mail: dark_falco3000@hotmail.com

Tuning: Drop C (C G C F A D)

Fig 1
|------------------------------------|
|------------------------------------|
|------------------------------------|
|-5--5---5-6--5---5-6--5---5-6h8-----|
|-5--5-0-5-6--5-0-5-6--5-0-5-6h8-1-3-|
|-5--5-0-5-6--5-0-5-6--5-0-5-6h8-1-3-|
[P.M.] *        *        *       * *

Fig 2
|--------------------------------------------|
|--------------------------------------------|
|--------------------------------------------|
|-5--5---5-6--5---5-6--5---5-6h8---6h8---6h8-|
|-5--5-0-5-6--5-0-5-6--5-0-5-6h8-0-6h8-0-6h8-|
|-5--5-0-5-6--5-0-5-6--5-0-5-6h8-0-6h8-0-6h8-|
[P.M.] *        *        *       *     *

Fig 3
|-------------------|
|-------------------|
|-------------------|
|-1---4-3-1---4-3-6-|
|-1---4-3-1---4-3-6-|
|-1---4-3-1---4-3-6-|

Fig 4
|------------------------|
|------------------------|
|------------------------|
|------------------------|
|-5--5--3h5-5--6---8-6-8-|
|-5--5--3h5-5--6---8-6-8-|
[PALM MUTE ALL]

Fig 5
|------------------------|
|------------------------|
|------------------------|
|------------------------|
|-5--5--3h5-5--6---8-6-3-|
|-5--5--3h5-5--6---8-6-3-|
[PALM MUTE ALL]

Fig 6
|--------------------------|
|--------------------------|
|--------------------------|
|--------------------------|
|-5--5--3h5-5--6--6--8-6-8-|
|-5--5--3h5-5--6--6--8-6-8-|

Fig 7
|--------------------------|
|--------------------------|
|--------------------------|
|--------------------------|
|-5--5--3h5-5--6--6--8-6-3-|
|-5--5--3h5-5--6--6--8-6-3-|

Fig 8
|--------------------------------|
|--------------------------------|
|--------------------------------|
|-5---8---1---3---5---8---1---10-|
|-5---8---1---3---5---8---1---10-|
|-5---8---1---3---5---8---1---10-|

a)                                                  b)
|---------------------------------------------------|----|
|---------------------------------------------------|----|
|---------------------------------------------------|----|
|-5---8---1---3---5---8---1-------------------------|-12-|
|-5---8---1---3---5---8---1---1010-10-10-1010-10-10-|-12-|
|-5---8---1---3---5---8---1---1010-10-10-1010-10-10-|-12-|
[P.M.]                        * *  *  *  * *  *  *
                              (these are 10's, not 1's and 0's)

Fig 9
|---------------------------|
|---------------------------|
|---------------------------|
|-5--0--1------5--0--1--0-3-|
|-5--0--1--01015--0--1--0-3-|
|-5--0--1--01015--0--1--0-3-|
[P.M.]     ****

Fig 10
|---------------------------------|
|---------------------------------|
|---------------------------------|
|-0--10--0--10-10-0--10--0--10-12-|
|-0--10--0--10-10-0--10--0--10-12-|
|-0--10--0--10-10-0--10--0--10-12-|

|-----------------------------|
|-----------------------------|
|-----------------------------|
|-0--10--0--10-10--3----------|
|-0--10--0--10-10--3---222532-|
|-0--10--0--10-10--3---222532-|
[P.M.]                 ******

7. Son Of A Plunder
Tabbed By: Jay Logan
Email: Subbliminal@DONTSPAM@hotmail.com
           -Just remove the 'DONTSPAM of course.


Legend - I suggest looking over it, there are some descriptions, as well as special cases.

 /  - Slide Right (If only 1 number just slide from anywhere towards it left to right)
 \  - Slide left (If only 1 number just slide from anywhere towards it right to left)
 ^  - Bend (5^7= bend the 5 fret until it sounds like 7, or 5^ = quick bend)
(~) - Vibrato (5(~) = Wiggle the string shown)
(5) - Natural Harmonic (Just put your finger lightly over the actually fret)
<5> - Artificial Harmonic (You pick the string and let your thumb touch as well while
holding the fret shown)
 x  - Mute that string
 .  - Palm Mute (Mute the note shown with picking hand palm, the '.' is under the note)
 h  - Hammer On (ie..3h5 = pic the 3rd fret and then hammer your finger into the 5th without picking)
 p  - Pull Off (opposite of hammer on, 5p3 = pic the 5th while holding the 3rd as well,
then pull your finger of the 5th)
=#= - Ghost note (A note that you don't NEED to play or is played quietly)


Duration Legend
---------------
W - whole
H - half
Q - quarter
E - 8th
S - 16th
T - 32nd
X - 64th
. - note dotted
|-n-|  - n-tuplets
L - Tied Note

Note: I have also done the bass for the song I just need to tidy it up.
Guitar Pro spits out these things messy.


Time: 4/4
Bpm: 100

---Intro---


     S S S  S S S  S S S  S S S  S S  S S     S S S  S S S  S S S  S S S  S S  S S
Eb|----------------------------------------|-----------------------------------------|
Bb|----------------------------------------|-----------------------------------------|
Gb|----------------------------------------|-----------------------------------------|
Db|----------------------------------------|-----------------------------------------|
Ab|----------------------------------------|-----------------------------------------|
Db|--3p0-0--5p0-0--3p0-0--3p0-0--5p0--3h5--|--3p0-0--5p0-0--3p0-0--3p0-0--6p5--3h5---|
     . . .  . . .  . . .  . . .  . .  . .     . . .  . . .  . . .  . . .  . .  . .

     S S S  S S S  S S S  S S S  S S  S S     S S S  S S S  S S S  S S S  S S  S S
Eb|----------------------------------------|-----------------------------------------|
Bb|----------------------------------------|-----------------------------------------|
Gb|----------------------------------------|-----------------------------------------|
Db|----------------------------------------|-----------------------------------------|
Ab|----------------------------------------|-----------------------------------------|
Db|--3p0-0--5p0-0--3p0-0--3p0-0--5p0--3h5--|--3p0-0--5p0-0--3p0-0--3p0-0--6p0--0h1---|
     . . .  . . .  . . .  . . .  . .  . .     . . .  . . .  . . .  . . .  . .  . .

     S S S  S S S  S S S  S S S  S S  S S     S S S  S S S  S S S  S S S  S S  S S
Eb|----------------------------------------|-----------------------------------------|
Bb|----------------------------------------|-----------------------------------------|
Gb|----------------------------------------|-----------------------------------------|
Db|----------------------------------------|-----------------------------------------|
Ab|----------------------------------------|-----------------------------------------|
Db|--3p0-0--5p0-0--3p0-0--3p0-0--5p0--3h5--|--3p0-0--5p0-0--3p0-0--3p0-0--6p5--3h5---|

     S S S  S S S  S S S  S S S  S S  S S     S S S  S S S  S S S  S S S  S S  S S
Eb|----------------------------------------|-----------------------------------------|
Bb|----------------------------------------|-----------------------------------------|
Gb|----------------------------------------|-----------------------------------------|
Db|----------------------------------------|-----------------------------------------|
Ab|----------------------------------------|-----------------------------------------|
Db|--3p0-0--5p0-0--3p0-0--3p0-0--5p0--3h5--|--3p0-0--5p0-0--3p0-0--3p0-0--6p0--0h1---|

---Verse---


     S S S  S S S  S S S  S S S  S S  S S     S S S  S S S  S S S  S S S  S S  S S
Eb|----------------------------------------|-----------------------------------------|
Bb|----------------------------------------|-----------------------------------------|
Gb|----------------------------------------|-----------------------------------------|
Db|----------------------------------------|-----------------------------------------|
Ab|----------------------------------------|-----------------------------------------|
Db|--3p0-0--5p0-0--3p0-0--3p0-0--5p0--3h5--|--3p0-0--5p0-0--3p0-0--3p0-0--6p5--3h5---|
     . . .  . . .  . . .  . . .  . .  . .     . . .  . . .  . . .  . . .  . .  . .

     S S S  S S S  S S S  S S S  S S  S S     S S S  S S S  S S S  S S S  S S  S S
Eb|----------------------------------------|-----------------------------------------|
Bb|----------------------------------------|-----------------------------------------|
Gb|----------------------------------------|-----------------------------------------|
Db|----------------------------------------|-----------------------------------------|
Ab|----------------------------------------|-----------------------------------------|
Db|--3p0-0--5p0-0--3p0-0--3p0-0--5p0--3h5--|--3p0-0--5p0-0--3p0-0--3p0-0--6p0--0h1---|
     . . .  . . .  . . .  . . .  . .  . .     . . .  . . .  . . .  . . .  . .  . .

     S S S  S S S  S S S  S S S  S S  S S     S S S  S S S  S S S  S S S  S S  S S
Eb|----------------------------------------|-----------------------------------------|
Bb|----------------------------------------|-----------------------------------------|
Gb|----------------------------------------|-----------------------------------------|
Db|----------------------------------------|-----------------------------------------|
Ab|----------------------------------------|-----------------------------------------|
Db|--3p0-0--5p0-0--3p0-0--3p0-0--5p0--3h5--|--3p0-0--5p0-0--3p0-0--3p0-0--6p5--3h5---|

     S S S  S S S  S S S  S S S  S S  S S     S S S  S S S  S S S  S S S  S S  S S
Eb|----------------------------------------|-----------------------------------------|
Bb|----------------------------------------|-----------------------------------------|
Gb|----------------------------------------|-----------------------------------------|
Db|----------------------------------------|-----------------------------------------|
Ab|----------------------------------------|-----------------------------------------|
Db|--3p0-0--5p0-0--3p0-0--3p0-0--5p0--3h5--|--3p0-0--5p0-0--3p0-0--3p0-0--6p0--0h1---|


---Pre-Chorus---


     E.  E.  E.  E.  E  E       E.  E.  E.  E  S S S E
Eb|-------------------------|----------------------------|
Bb|-------------------------|----------------------------|
Gb|-------------------------|----------------------------|
Db|--0---6---0---3---0--6---|---0---6---3---5--------3---|
Ab|--0---6---0---3---0--6---|---0---6---3---5--3-6-6-3---|
Db|--0---6---0---3---0--6---|---0---6---3---5--3-6-6-3---|

    S S S E.  E.  E.  E  E      E.  E.  E.  E  S S S E
Eb|-------------------------|----------------------------|
Bb|-------------------------|----------------------------|
Gb|-------------------------|----------------------------|
Db|-------6---0---3---0--6--|---0---6---3---5--------3---|
Ab|-0-0-0-6---0---3---0--6--|---0---6---3---5--3-5-6-3---|
Db|-0-0-0-6---0---3---0--6--|---0---6---3---5--3-5-6-3---|
    . . .

---Chorus---


      S   S   S   S   S   S     S   S   S   S   S   S     S   S   S   S
Eb|----------------------------------------------------------------------|
Bb|----------------------------------------------------------------------|
Gb|----------------------------------------------------------------------|
Db|--12--12--12--12--12--12----14--14--14--14--14--14----15--15--15--15--|
Ab|--12--12--12--12--12--12----12--12--12--12--12--12----12--12--12--12--|
Db|--12--12--12--12--12--12----12--12--12--12--12--12----12--12--12--12--|

     S  S  S  S  S  S     S   S   S   S   S   S      S   S   S   S
Eb|----------------------------------------------------------------------|
Bb|----------------------------------------------------------------------|
Gb|--9--9--9--9--9--9----------------------------------------------------|
Db|--7--7--7--7--7--7-----12--12--12--12--12--12-----10--10--10--10------|
Ab|--7--7--7--7--7--7-----7---7---7---7---7---7------7---7---7---7-------|
Db|--7--7--7--7--7--7-----7---7---7---7---7---7------7---7---7---7-------|

     S   S   S   S   S   S      S  S  S  S  S  S     S   S   S   S
Eb|----------------------------------------------------------------------|
Bb|----------------------------------------------------------------------|
Gb|-----------------------------9--9--9--9--9--9-----10--10--10--10------|
Db|--12--12--12--12--12--12-----8--8--8--8--8--8-----8---8---8---8-------|
Ab|--8---8---8---8---8---8------8--8--8--8--8--8-----8---8---8---8-------|
Db|--8---8---8---8---8---8------8--8--8--8--8--8-----8---8---8---8-------|

      S   S   S   S   S   S     S   S   S   S   S   S     S   S   S   S
Eb|----------------------------------------------------------------------|
Bb|----------------------------------------------------------------------|
Gb|--12--12--12--12--12--12----------------------------------------------|
Db|--10--10--10--10--10--10----14--14--14--14--14--14----10--10--10--10--|
Ab|--10--10--10--10--10--10----10--10--10--10--10--10----10--10--10--10--|
Db|--10--10--10--10--10--10----10--10--10--10--10--10----10--10--10--10--|

      S   S   S   S   S   S     S   S   S   S   S   S     S   S   S   S
Eb|----------------------------------------------------------------------|
Bb|----------------------------------------------------------------------|
Gb|----------------------------------------------------------------------|
Db|--12--12--12--12--12--12----14--14--14--14--14--14----15--15--15--15--|
Ab|--12--12--12--12--12--12----12--12--12--12--12--12----12--12--12--12--|
Db|--12--12--12--12--12--12----12--12--12--12--12--12----12--12--12--12--|

     S  S  S  S  S  S     S   S   S   S   S   S      S   S   S   S
Eb|----------------------------------------------------------------------|
Bb|----------------------------------------------------------------------|
Gb|--9--9--9--9--9--9----------------------------------------------------|
Db|--7--7--7--7--7--7-----12--12--12--12--12--12-----10--10--10--10------|
Ab|--7--7--7--7--7--7-----7---7---7---7---7---7------7---7---7---7-------|
Db|--7--7--7--7--7--7-----7---7---7---7---7---7------7---7---7---7-------|

     E.  E.  E.  E.  E  E       S S S S. S. S S S S. T S E  E
Eb|-------------------------|----------------------------------|
Bb|-------------------------|----------------------------------|
Gb|-------------------------|----------------------------------|
Db|--5---5---5---3---5--3---|---3-5-5-5-----3-5-5-5----0-3--5--|
Ab|--3---3---3---3---3--3---|---3-5-5-5-----3-5-5-5----0-3--5--|
Db|--3---3---3---3---3--3---|---3-5-5-5-----3-5-5-5----0-3--5--|


---Post Chorus---


     S S S  S S S  S S S  S S S  S S  S S
Eb|----------------------------------------|
Bb|----------------------------------------|
Gb|----------------------------------------|
Db|----------------------------------------|
Ab|----------------------------------------|
Db|--3p0-0--5p0-0--3p0-0--3p0-0--5p0--3h5--|
     . . .  . . .  . . .  . . .  . .  . .

---Verse 2---


     E.  E.  E.  E.  E  S  S     E.  E.  E.  E  S  S  S  E
Eb|---------------------------|-----------------------------|
Bb|---------------------------|-----------------------------|
Gb|---------------------------|-----------------------------|
Db|---------------------------|--------------------------1--|
Ab|--0---0---0---0---0--0--0--|--0---0---0---0--0--1--0--1--|
Db|--0---0---0---0---0--0--0--|--0---0---0---0--0--1--0--1--|
     .   .   .   .   .  .  .     .   .   .   .  .  .  .  .

   E.  E.  E.  E.  E  S  S     E.  E.  E.  E  S  S  S  E
Eb|---------------------------|-----------------------------|
Bb|---------------------------|-----------------------------|
Gb|---------------------------|-----------------------------|
Db|---------------------------|--------------------------1--|
Ab|--0---0---0---0---0--0--0--|--0---0---0---0--0--1--0--1--|
Db|--0---0---0---0---0--0--0--|--0---0---0---0--0--1--0--1--|
     .   .   .   .   .  .  .     .   .   .   .  .  .  .  .

     S S S  S S S  S S S  S S S  S S  S S     S S S  S S S  S S S  S S S  S S  S S
Eb|----------------------------------------|-----------------------------------------|
Bb|----------------------------------------|-----------------------------------------|
Gb|----------------------------------------|-----------------------------------------|
Db|----------------------------------------|-----------------------------------------|
Ab|----------------------------------------|-----------------------------------------|
Db|--3p0-0--5p0-0--3p0-0--3p0-0--5p0--3h5--|--3p0-0--5p0-0--3p0-0--3p0-0--6p5--3h5---|

     S S S  S S S  S S S  S S S  S S  S S     S S S  S S S  S S S  S S S  S S  S S
Eb|----------------------------------------|-----------------------------------------|
Bb|----------------------------------------|-----------------------------------------|
Gb|----------------------------------------|-----------------------------------------|
Db|----------------------------------------|-----------------------------------------|
Ab|----------------------------------------|-----------------------------------------|
Db|--3p0-0--5p0-0--3p0-0--3p0-0--5p0--3h5--|--3p0-0--5p0-0--3p0-0--3p0-0--6p0--0h1---|


---Pre-Chorus 2---


     E.  E.  E.  E.  E  E       E.  E.  E.  E  S S S E
Eb|-------------------------|----------------------------|
Bb|-------------------------|----------------------------|
Gb|-------------------------|----------------------------|
Db|--0---6---0---3---0--6---|---0---6---3---5--------3---|
Ab|--0---6---0---3---0--6---|---0---6---3---5--3-6-6-3---|
Db|--0---6---0---3---0--6---|---0---6---3---5--3-6-6-3---|

    S S S E.  E.  E.  E  E      E.  E.  E.  E  S S S E
Eb|-------------------------|----------------------------|
Bb|-------------------------|----------------------------|
Gb|-------------------------|----------------------------|
Db|-------6---0---3---0--6--|---0---6---3---5--------3---|
Ab|-0-0-0-6---0---3---0--6--|---0---6---3---5--3-5-6-3---|
Db|-0-0-0-6---0---3---0--6--|---0---6---3---5--3-5-6-3---|
    . . .

---Chorus 2---


      S   S   S   S   S   S     S   S   S   S   S   S     S   S   S   S
Eb|----------------------------------------------------------------------|
Bb|----------------------------------------------------------------------|
Gb|----------------------------------------------------------------------|
Db|--12--12--12--12--12--12----14--14--14--14--14--14----15--15--15--15--|
Ab|--12--12--12--12--12--12----12--12--12--12--12--12----12--12--12--12--|
Db|--12--12--12--12--12--12----12--12--12--12--12--12----12--12--12--12--|

     S  S  S  S  S  S     S   S   S   S   S   S      S   S   S   S
Eb|----------------------------------------------------------------------|
Bb|----------------------------------------------------------------------|
Gb|--9--9--9--9--9--9----------------------------------------------------|
Db|--7--7--7--7--7--7-----12--12--12--12--12--12-----10--10--10--10------|
Ab|--7--7--7--7--7--7-----7---7---7---7---7---7------7---7---7---7-------|
Db|--7--7--7--7--7--7-----7---7---7---7---7---7------7---7---7---7-------|

     S   S   S   S   S   S      S  S  S  S  S  S     S   S   S   S
Eb|----------------------------------------------------------------------|
Bb|----------------------------------------------------------------------|
Gb|-----------------------------9--9--9--9--9--9-----10--10--10--10------|
Db|--12--12--12--12--12--12-----8--8--8--8--8--8-----8---8---8---8-------|
Ab|--8---8---8---8---8---8------8--8--8--8--8--8-----8---8---8---8-------|
Db|--8---8---8---8---8---8------8--8--8--8--8--8-----8---8---8---8-------|

      S   S   S   S   S   S     S   S   S   S   S   S     S   S   S   S
Eb|----------------------------------------------------------------------|
Bb|----------------------------------------------------------------------|
Gb|--12--12--12--12--12--12----------------------------------------------|
Db|--10--10--10--10--10--10----14--14--14--14--14--14----10--10--10--10--|
Ab|--10--10--10--10--10--10----10--10--10--10--10--10----10--10--10--10--|
Db|--10--10--10--10--10--10----10--10--10--10--10--10----10--10--10--10--|

      S   S   S   S   S   S     S   S   S   S   S   S     S   S   S   S
Eb|----------------------------------------------------------------------|
Bb|----------------------------------------------------------------------|
Gb|----------------------------------------------------------------------|
Db|--12--12--12--12--12--12----14--14--14--14--14--14----15--15--15--15--|
Ab|--12--12--12--12--12--12----12--12--12--12--12--12----12--12--12--12--|
Db|--12--12--12--12--12--12----12--12--12--12--12--12----12--12--12--12--|

     S  S  S  S  S  S     S   S   S   S   S   S      S   S   S   S
Eb|----------------------------------------------------------------------|
Bb|----------------------------------------------------------------------|
Gb|--9--9--9--9--9--9----------------------------------------------------|
Db|--7--7--7--7--7--7-----12--12--12--12--12--12-----10--10--10--10------|
Ab|--7--7--7--7--7--7-----7---7---7---7---7---7------7---7---7---7-------|
Db|--7--7--7--7--7--7-----7---7---7---7---7---7------7---7---7---7-------|

     E.  E.  E.  E.  E  E       S S S S. S. S S S S. T S E  E
Eb|-------------------------|----------------------------------|
Bb|-------------------------|----------------------------------|
Gb|-------------------------|----------------------------------|
Db|--5---5---5---3---5--3---|---3-5-5-5-----3-5-5-5----0-3--5--|
Ab|--3---3---3---3---3--3---|---3-5-5-5-----3-5-5-5----0-3--5--|
Db|--3---3---3---3---3--3---|---3-5-5-5-----3-5-5-5----0-3--5--|


---Interlude Part 1---

=#= - Ghost note (A note that you don't NEED to play or is played quietly)

Note: Lots of feed back on that second chord.


    W       W         W     W     W     W     W     W
Eb|-------|-------|-------|-----|-----|-----|-----|-----|
Bb|-3-----|-L-----|--=6=--|-----|-----|-----|-----|-----|
Gb|-2-----|-L-----|--=7=--|-----|-----|-----|-----|-----|
Db|-0-----|-L-----|---7---|-L---|-L---|-L---|-L---|-L---|
Ab|-0-----|-L-----|---5---|-L---|-L---|-L---|-L---|-L---|
Db|-0-----|-L-----|---0---|-L---|-L---|-L---|-L---|-L---|


---Interlude Part 2---

Note: Lyrics come back in here. There is a hard to hear guitar part panned to the left speaker
for the guitar to have fun with.
As for the high pitch twang sound... well as far as I can tell it not a guitar because it seems
to fall into the 'percussion' (ie. non melody ...happy fun beat-ness thing...)


    E  S S  S  S  S  S S S  S  S  S  S S S   E  S S  S  S  S  S S S S S  S  S S S
Eb|----------------------------------------|---------------------------------------|
Bb|----------------------------------------|---------------------------------------|
Gb|----------------------------------------|---------------------------------------|
Db|---------3---------------3--------------|---------3-------------------3---------|
Ab|----3-5-----5-----5-3-5-----5-----5-3-5-|----3-5-----5-----5-3-5-3-5-----5-3-5--|
Db|-0--------------------------------------|-x-------------------------------------|
    .  . .  .  .     . . .  .  .     . . .      . .  .  .     . . . . .  .  . . .

    E  S S  S  S  S  S S S  S  S  S  S S S   E  S S  S  S  S  S S S S S  S  S S S
Eb|----------------------------------------|---------------------------------------|
Bb|----------------------------------------|---------------------------------------|
Gb|----------------------------------------|---------------------------------------|
Db|---------3---------------3--------------|---------3-------------------3---------|
Ab|----3-5-----5-----5-3-5-----5-----5-3-5-|----3-5-----5-----5-3-5-3-5-----5-3-5--|
Db|-0--------------------------------------|-x-------------------------------------|
    .  . .  .  .     . . .  .  .     . . .      . .  .  .     . . . . .  .  . . .

    E  S S  S  S  S  S S S  S  S  S  S S S   E  S S  S  S  S  S S S S S  S  S S S
Eb|----------------------------------------|---------------------------------------|
Bb|----------------------------------------|---------------------------------------|
Gb|----------------------------------------|---------------------------------------|
Db|---------3---------------3--------------|---------3-------------------3---------|
Ab|----3-5-----5-----5-3-5-----5-----5-3-5-|----3-5-----5-----5-3-5-3-5-----5-3-5--|
Db|-0--------------------------------------|-x-------------------------------------|
    .  . .  .  .     . . .  .  .     . . .      . .  .  .     . . . . .  .  . . .

    E  S S  S  S  S  S S S  S  S  S  S S S   E  S S  S  S  S  S S S S S  S  S S S
Eb|----------------------------------------|---------------------------------------|
Bb|----------------------------------------|---------------------------------------|
Gb|----------------------------------------|---------------------------------------|
Db|---------3---------------3--------------|---------3-------------------3---------|
Ab|----3-5-----5-----5-3-5-----5-----5-3-5-|----3-5-----5-----5-3-5-3-5-----5-3-5--|
Db|----------------------------------------|---------------------------------------|
       . .  .  .     . . .  .  .     . . .      . .  .  .     . . . . .  .  . . .


---Breakdown---


     E  S  S  S S  S  S S  S  S S  S  S S S     E  S  S  S S  S  S S  S  S S  S   S  S  S
Eb|------------------------------------------|--------------------------------------------|
Bb|------------------------------------------|--------------------------------------------|
Gb|------------------------------------------|--------------------------------------------|
Db|------------------------------------------|-----------------------------12/11----------|
Ab|--0--10-12---12-13-0-10-12---12-13-0-8-10-|--0--10-12---12-13-0-10-12---10/9---0-10-12-|
Db|--0--10-12---12-13-0-10-12---12-13-0-8-10-|--0--10-12---12-13-0-10-12----------0-10-12-|

     E   S  S S  S  S S  S  S S  S  S S S  S    E.  E.  E.  E  S S E.
Eb|------------------------------------------|-------------------------|
Bb|------------------------------------------|-------------------------|
Gb|------------------------------------------|-------------------------|
Db|------------------------------------------|----------8---8--8-8-----|
Ab|--0--10-12---12-13-0-10-12---12-13-0-8-10-|--8---8---6---6--6-6-7---|
Db|--0--10-12---12-13-0-10-12---12-13-0-8-10-|--8---8--------------7---|

     E  S  S  S S  S  S S  S  S S  S  S S S     E  S  S  S S  S  S S  S  S S  S   S  S  S
Eb|------------------------------------------|--------------------------------------------|
Bb|------------------------------------------|--------------------------------------------|
Gb|------------------------------------------|--------------------------------------------|
Db|------------------------------------------|-----------------------------12/11----------|
Ab|--0--10-12---12-13-0-10-12---12-13-0-8-10-|--0--10-12---12-13-0-10-12---10/9---0-10-12-|
Db|--0--10-12---12-13-0-10-12---12-13-0-8-10-|--0--10-12---12-13-0-10-12----------0-10-12-|

     E   S  S S  S  S S  S  S S  S  S S S  S    E.  E.  E.  E  S S E.
Eb|------------------------------------------|-------------------------|
Bb|------------------------------------------|-------------------------|
Gb|------------------------------------------|-------------------------|
Db|------------------------------------------|----------8---8--8-8-----|
Ab|--0--10-12---12-13-0-10-12---12-13-0-8-10-|--8---8---6---6--6-6-7---|
Db|--0--10-12---12-13-0-10-12---12-13-0-8-10-|--8---8--------------7---|

---Chorus 3---


      S   S   S   S   S   S     S   S   S   S   S   S     S   S   S   S
Eb|----------------------------------------------------------------------|
Bb|----------------------------------------------------------------------|
Gb|----------------------------------------------------------------------|
Db|--12--12--12--12--12--12----14--14--14--14--14--14----15--15--15--15--|
Ab|--12--12--12--12--12--12----12--12--12--12--12--12----12--12--12--12--|
Db|--12--12--12--12--12--12----12--12--12--12--12--12----12--12--12--12--|

     S  S  S  S  S  S     S   S   S   S   S   S      S   S   S   S
Eb|----------------------------------------------------------------------|
Bb|----------------------------------------------------------------------|
Gb|--9--9--9--9--9--9----------------------------------------------------|
Db|--7--7--7--7--7--7-----12--12--12--12--12--12-----10--10--10--10------|
Ab|--7--7--7--7--7--7-----7---7---7---7---7---7------7---7---7---7-------|
Db|--7--7--7--7--7--7-----7---7---7---7---7---7------7---7---7---7-------|

     S   S   S   S   S   S      S  S  S  S  S  S     S   S   S   S
Eb|----------------------------------------------------------------------|
Bb|----------------------------------------------------------------------|
Gb|-----------------------------9--9--9--9--9--9-----10--10--10--10------|
Db|--12--12--12--12--12--12-----8--8--8--8--8--8-----8---8---8---8-------|
Ab|--8---8---8---8---8---8------8--8--8--8--8--8-----8---8---8---8-------|
Db|--8---8---8---8---8---8------8--8--8--8--8--8-----8---8---8---8-------|

      S   S   S   S   S   S     S   S   S   S   S   S     S   S   S   S
Eb|----------------------------------------------------------------------|
Bb|----------------------------------------------------------------------|
Gb|--12--12--12--12--12--12----------------------------------------------|
Db|--10--10--10--10--10--10----14--14--14--14--14--14----10--10--10--10--|
Ab|--10--10--10--10--10--10----10--10--10--10--10--10----10--10--10--10--|
Db|--10--10--10--10--10--10----10--10--10--10--10--10----10--10--10--10--|

      S   S   S   S   S   S     S   S   S   S   S   S     S   S   S   S
Eb|----------------------------------------------------------------------|
Bb|----------------------------------------------------------------------|
Gb|----------------------------------------------------------------------|
Db|--12--12--12--12--12--12----14--14--14--14--14--14----15--15--15--15--|
Ab|--12--12--12--12--12--12----12--12--12--12--12--12----12--12--12--12--|
Db|--12--12--12--12--12--12----12--12--12--12--12--12----12--12--12--12--|

     S  S  S  S  S  S     S   S   S   S   S   S      S   S   S   S
Eb|----------------------------------------------------------------------|
Bb|----------------------------------------------------------------------|
Gb|--9--9--9--9--9--9----------------------------------------------------|
Db|--7--7--7--7--7--7-----12--12--12--12--12--12-----10--10--10--10------|
Ab|--7--7--7--7--7--7-----7---7---7---7---7---7------7---7---7---7-------|
Db|--7--7--7--7--7--7-----7---7---7---7---7---7------7---7---7---7-------|

     E.  E.  E.  E.  E  E     S S S S. S. S S S S S S S  S  S S
Eb|-------------------------|------------------------------------|
Bb|-------------------------|------------------------------------|
Gb|-------------------------|------------------------------------|
Db|--5---5---5---3---5--3---|-3-5-5-5-----3-5-5------------------|
Ab|--3---3---3---3---3--3---|-3-5-5-5-----3-5-5-5--------3-------|
Db|--3---3---3---3---3--3---|-3-5-5-5-----3-5-5-5-5-5-5-----3-2--|
                                                . . . .     . .

---Chorus 4---


      S   S   S   S   S   S     S   S   S   S   S   S     S   S   S   S
Eb|----------------------------------------------------------------------|
Bb|----------------------------------------------------------------------|
Gb|----------------------------------------------------------------------|
Db|--12--12--12--12--12--12----14--14--14--14--14--14----15--15--15--15--|
Ab|--12--12--12--12--12--12----12--12--12--12--12--12----12--12--12--12--|
Db|--12--12--12--12--12--12----12--12--12--12--12--12----12--12--12--12--|

     S  S  S  S  S  S     S   S   S   S   S   S      S   S   S   S
Eb|----------------------------------------------------------------------|
Bb|----------------------------------------------------------------------|
Gb|--9--9--9--9--9--9----------------------------------------------------|
Db|--7--7--7--7--7--7-----12--12--12--12--12--12-----10--10--10--10------|
Ab|--7--7--7--7--7--7-----7---7---7---7---7---7------7---7---7---7-------|
Db|--7--7--7--7--7--7-----7---7---7---7---7---7------7---7---7---7-------|

     S   S   S   S   S   S      S  S  S  S  S  S     S   S   S   S
Eb|----------------------------------------------------------------------|
Bb|----------------------------------------------------------------------|
Gb|-----------------------------9--9--9--9--9--9-----10--10--10--10------|
Db|--12--12--12--12--12--12-----8--8--8--8--8--8-----8---8---8---8-------|
Ab|--8---8---8---8---8---8------8--8--8--8--8--8-----8---8---8---8-------|
Db|--8---8---8---8---8---8------8--8--8--8--8--8-----8---8---8---8-------|

      S   S   S   S   S   S     S   S   S   S   S   S     S   S   S   S
Eb|----------------------------------------------------------------------|
Bb|----------------------------------------------------------------------|
Gb|--12--12--12--12--12--12----------------------------------------------|
Db|--10--10--10--10--10--10----14--14--14--14--14--14----10--10--10--10--|
Ab|--10--10--10--10--10--10----10--10--10--10--10--10----10--10--10--10--|
Db|--10--10--10--10--10--10----10--10--10--10--10--10----10--10--10--10--|

      S   S   S   S   S   S     S   S   S   S   S   S     S   S   S   S
Eb|----------------------------------------------------------------------|
Bb|----------------------------------------------------------------------|
Gb|----------------------------------------------------------------------|
Db|--12--12--12--12--12--12----14--14--14--14--14--14----15--15--15--15--|
Ab|--12--12--12--12--12--12----12--12--12--12--12--12----12--12--12--12--|
Db|--12--12--12--12--12--12----12--12--12--12--12--12----12--12--12--12--|

     S  S  S  S  S  S     S   S   S   S   S   S      S   S   S   S
Eb|----------------------------------------------------------------------|
Bb|----------------------------------------------------------------------|
Gb|--9--9--9--9--9--9----------------------------------------------------|
Db|--7--7--7--7--7--7-----12--12--12--12--12--12-----10--10--10--10------|
Ab|--7--7--7--7--7--7-----7---7---7---7---7---7------7---7---7---7-------|
Db|--7--7--7--7--7--7-----7---7---7---7---7---7------7---7---7---7-------|

     E.  E.  E.  E.  E  E       S S S S. S. S S S S. T S E  E
Eb|-------------------------|----------------------------------|
Bb|-------------------------|----------------------------------|
Gb|-------------------------|----------------------------------|
Db|--5---5---5---3---5--3---|---3-5-5-5-----3-5-5-5----0-3--5--|
Ab|--3---3---3---3---3--3---|---3-5-5-5-----3-5-5-5----0-3--5--|
Db|--3---3---3---3---3--3---|---3-5-5-5-----3-5-5-5----0-3--5--|

---Outro---


     S S S  S S S  S S S  S S S  S S  S S     S S S  S S S  S S S  S S S  S S  S S
Eb|----------------------------------------|-----------------------------------------|
Bb|----------------------------------------|-----------------------------------------|
Gb|----------------------------------------|-----------------------------------------|
Db|----------------------------------------|-----------------------------------------|
Ab|----------------------------------------|-----------------------------------------|
Db|--3p0-0--5p0-0--3p0-0--3p0-0--5p0--3h5--|--3p0-0--5p0-0--3p0-0--3p0-0--6p5--3h5---|
     . . .  . . .  . . .  . . .  . .  . .     . . .  . . .  . . .  . . .  . .  . .

     S S S  S S S  S S S  S S S  S S  S S     S S S  S S S  S S S  S S S  S S  S S
Eb|----------------------------------------|-----------------------------------------|
Bb|----------------------------------------|-----------------------------------------|
Gb|----------------------------------------|-----------------------------------------|
Db|----------------------------------------|-----------------------------------------|
Ab|----------------------------------------|-----------------------------------------|
Db|--3p0-0--5p0-0--3p0-0--3p0-0--5p0--3h5--|--3p0-0--5p0-0--3p0-0--3p0-0--6p0--0h1---|
     . . .  . . .  . . .  . . .  . .  . .     . . .  . . .  . . .  . . .  . .  . .

     S S S  S S S  S S S  S S S  S S  S S     S S S  S S S  S S S  S S S  S S  S S
Eb|----------------------------------------|-----------------------------------------|
Bb|----------------------------------------|-----------------------------------------|
Gb|----------------------------------------|-----------------------------------------|
Db|----------------------------------------|-----------------------------------------|
Ab|----------------------------------------|-----------------------------------------|
Db|--3p0-0--5p0-0--3p0-0--3p0-0--5p0--3h5--|--3p0-0--5p0-0--3p0-0--3p0-0--6p5--3h5---|

     S S S  S S S  S S S  S S S  S S  S S     S S S  S S S  S S S  S S S  S S  S S
Eb|----------------------------------------|-----------------------------------------|
Bb|----------------------------------------|-----------------------------------------|
Gb|----------------------------------------|-----------------------------------------|
Db|----------------------------------------|-----------------------------------------|
Ab|----------------------------------------|-----------------------------------0-1---|
Db|--3p0-0--5p0-0--3p0-0--3p0-0--5p0--3h5--|--3p0-0--5p0-0--3p0-0--3p0-0--6p0--0-1---|

----------
And there it is. I know I make these long but it is, in my opinion, easier to scroll
down instead of jumping around the tab looking for parts and sometimes there are parts
with small differences and it just makes it easier for me to show them by writing
everything out. Thanks,
-Jay Logan (Subbliminal@DONTSPAM@hotmail.com) Just remove the 'DONTSPAM of course.

8. Overburdened
Tabbed By joeadzhiyev

Tuning- Drop C

|----------------------------------------------|
|----------------------------------------------|
|----------------------------------------------|
|-0~~~~~~-------0-0------0~~~~~----9----6------|
|-0~~~~~~-------0-0------0~~~~~----9----6------|
|-0~~~~~~-------0-0------0~~~~~----9----6--12/-|
P.M.            ...
Intro bass,  you can also do this on guitar
|-10------10--10----10-14------12------10----|
|----12----------12-------12------12------12-|
|-------0--------------------0-------0-------|
|--------------------------------------------|
|--------------------------------------------|

|-9------9--9---------------------------|
|---10--------10---9------9------9------|
|------0---------0---10-----10-----10---|
|-----------------------0------0------0-|
|---------------------------------------|

|--9~~~~~~~~~~~~~~-|
|-10~~~~~~~~~~~~~~-|
|--0~~~~~~~~~~~~~~-|
|------------------|
|------------------|

Verse
|-------------------------------------------------------------|
|---14---12---15---15---17---15-----14---12---10---10---9---9-|
|-0----0----0----0----0----0----0-0----0----0----0----0---0---|
|-------------------------------------------------------------|
|-------------------------------------------------------------|

|-------------------------------------------------------|
|---14---12---15---15---17---15-------------------------|
|-0----0----0----0----0----0----------------------------|
|-------------------------------9-9-9-9-9-9-6-6-6-6-6-6-|
|-------------------------------------------------------|


Verse
|--------------------------------------------------|
|--------------------------------------------------|
|--------------------------------------------------|
|-0--0-0--0--0-0-0--0-3-5--0--0-0--0--0-0-0--5-5-0-|
|-0--0-0--0--0-0-0--0-3-5--0--0-0--0--0-0-0--5-5-0-|
|-0--0-0--0--0-0-0--0-3-5--0--0-0--0--0-0-0--5-5-0-|
P.M. ...  .  .....  .....     ...  .  .....  ...

|------------------------------|
|------------------------------|
|------------------------------|
|-0-0--0--0-0-0--0-3-5--9----6-|
|-0-0--0--0-0-0--0-3-5--9----6-|
|-0-0--0--0-0-0--0-3-5--9----6-|
P.M..  .  .....  .....

Pre-Chorus-with wah pedal
|------------------------------|
|------------------------------|
|------------------------------|
|------------------------------|
|-7-10-7-9-7-5-7--7-10-7-9-7-5-|
|------------------------------|

Chorus
|------------------------------------------|
|------------------------------------------|
|------------------------------------------|
|-0-0-6--0--3-3--0-3-5--0-0-6--0--3--5-5-3-|
|-0-0-6--0--3-3--0-3-5--0-0-6--0--3--5-5-3-|
|-0-0-6--0--3-3--0-3-5--0-0-6--0--3--5-5-3-|
P.M..                   ...

|---------------------------------------------|
|---------------------------------------------|
|---------------------------------------------|
|-0-0-6--0--3-3--0-3-5-6-6-6--8-6-9-9-9-9-9-9-|
|-0-0-6--0--3-3--0-3-5-6-6-6------9-9-9-9-9-9-|
|-0-0-6--0--3-3--0-3-5-6-6-6------9-9-9-9-9-9-|
P.M..                               .....

Fill
|--------------------------|--------|
|------------x2------------|--------|
|--------------------------|--------|
|-0--0-0--0--0-0-0--0-0--0-|-9----6-|
|-0--0-0--0--0-0-0--0-0--0-|-9----6-|
|-0--0-0--0--0-0-0--0-0--0-|-9----6-|
P.M  ...  .  .....  ...

Verse 2
|-------------------------------------------------|
|-------------------------------------------------|
|-------------------------------------------------|
|-0--0-0--0--0-0-0--0-3-5-0--0-0--0--0-0-0--5-5-3-|
|-0--0-0--0--0-0-0--0-3-5-0--0-0--0--0-0-0--5-5-3-|
|-0-----------------------0-----------------------|

|--------------------------------------------------|
|--------------------------------------------------|
|--------------------------------------------------|
|-0--0-0--0--0-0-0--0-3-5--9-9-9-9-9-9-6-6-6-6-6-6-|
|-0--0-0--0--0-0-0--0-3-5--9-9-9-9-9-9-6-6-6-6-6-6-|
|-0------------------------9-9-9-9-9-9-6-6-6-6-6-6-|


Solo
|--------------------------------------------|
|-10^----10-12^-10----------10^--------------|
|-----11-----------9-9-11-9-----11-11-11/7\9-|
|--------------------------------------------|
|--------------------------------------------|
|--------------------------------------------|

|--------------------------------------------------------|
|--------------------------------------------------------|
|-9-9-10p9p7h9-10p9p7h9-10p9p7h9-------------10h12p10----|
|--------------------------------------10h12----------12-|
|--------------------------------10h12-------------------|
|--------------------------------------------------------|

|-----------------------------|
|-----------------------------|
|-----------------------------|
|-------10-12-12-12^-12p10-12-|
|-10h12-----------------------|
|-----------------------------|

|----------------------------------------------|
|----------------------------------------------|
|---19---17---15---17---15---14---15---14---12-|
|-0----0----0----0----0----0----0----0----0----|
|----------------------------------------------|
|----------------------------------------------|

|------------------------------------------------|
|------------------------------------------------|
|------------------------------------------------|
|-14-15-17-14-15-17-14-15-18-14-15-17-14-15-14*^-|
|------------------------------------------------|
|------------------------------------------------|

|------------------------------------------------|
|-13^-13-12-12-------13-15-15^-15-13----13-15-17-|
|--------------12-12-----------------14----------|
|------------------------------------------------|
|------------------------------------------------|
|------------------------------------------------|

|-15p13p12-17p13p12-15p13p12-17p13p12-15p13p12-17p13p12-18^-|
|-----------------------------------------------------------|
|-----------------------------------------------------------|
|-----------------------------------------------------------|
|-----------------------------------------------------------|
|-----------------------------------------------------------|

9.  Decadance
Tabbed By Andrew Zara

Tuning- C G C F A D

Intro- Fade in
|------------------------------------|------------------------------------|
|------------------------------------|------------------------------------|
|------------------------------------|------------------------------------|2x
|------------------------------------|------------------------------------|
|--------------5-------3-------2-----|--------------5-------3-------5-----|
|--3-2-0-2-0-2---2-0-2---2-0-2---2---|--3-2-0-2-0-2---2-0-2---2-0-2---2---|

Intro- Heavy Distortion
|------------------------------------|------------------------------------|
|------------------------------------|------------------------------------|
|------------------------------------|------------------------------------|2x
|--------------5-------3-------2-----|--------------5-------3-------5-----|
|--3-2-0-2-0-2---2-0-2---2-0-2---2---|--3-2-0-2-0-2---2-0-2---2-0-2---2---|
|--3-2-0-2-0-2---2-0-2---2-0-2---2---|--3-2-0-2-0-2---2-0-2---2-0-2---2---|

Verse
|--------------------------------|-------------------------------|
|--------------------------------|-------------------------------|
|--------------------------------|-------------------------------|
|--------------------------------|-------------------------------|
|--------------------------------|-------------------------------|
|--222-0-2-0-2-222-0-2-0-2-3-2-0-|-222-0-2-0-2-222-0-2-0-2-3-2-0-|
pm ... . . . . ... . . . . . . .   ... . . . . ... . . . . . . .
                                                                  2x

|--------------------------------|-------------------------------|
|--------------------------------|-------------------------------|
|--------------------------------|-------------------------------|
|--------------------------------|-------------------------------|
|--------------------------------|-------------5-------3-------5-|
|--222-0-2-0-2-222-0-2-0-2-3-2-0-|-222-0-2-0-2---2-0-2---2-0-2-5-|
pm ... . . . . ... . . . . . . .   ... . . . .   . . .   . . .

Chorus
|---------------------------------------------|
|---------------------------------------------|
|--------------------------------------4-5-4--|
|--2--2--10--10--10--10-10-4-4-4-4-4-4--------|
|--2--2--10--10--10--10-10-4-4-4-4-4-4--------|
|--2--2--10--10--10--10-10-4-4-4-4-4-4--------|

|--------------------------------------------|
|--------------------------------------------|
|-------------------------------------4---7--|
|--2--2--10--10--10--10-10-4--4--4----x---x--|
|--2--2--10--10--10--10-10-4--4--4-44-2-0-5--|
|--2--2--10--10--10--10-10-4--4--4-44---0----|
pm                                 ..   .

|---------------------------------------------|
|---------------------------------------------|
|--------------------------------------4-5-4--|
|--2--2--10--10--10--10-10-4-4-4-4-4-4--------|
|--2--2--10--10--10--10-10-4-4-4-4-4-4--------|
|--2--2--10--10--10--10-10-4-4-4-4-4-4--------|

|-------------------------------------------------------------|
|-------------------------------------------------------------|
|-------------------------------------------------------------|
|--2--2--0--0--0-0-0--10-10-10-10-10-10-10-10-10-10-10-10-10--|
|--2--2--0--0--0-0-0--10-10-10-10-10-10-10-10-10-10-10-10-10--|
|--2--2--0--0--0-0-0--10-10-10-10-10-10-10-10-10-10-10-10-10--|

Post Chorus
|------------------------------------|------------------------------------|
|------------------------------------|------------------------------------|
|------------------------------------|------------------------------------|
|------------------------------------|------------------------------------|
|--------------5-------3-------2-----|--------------5-------3-------5-----|
|--3-2-0-2-0-2---2-0-2---2-0-2---2---|--3-2-0-2-0-2---2-0-2---2-0-2---2---|

|------------------------------------|------------------------------------|
|------------------------------------|------------------------------------|
|------------------------------------|------------------------------------|
|------------------------------------|------------------------------------|
|--------------5-------3-------2-----|--------------5-------3-------5-----|
|--3-2-0-2-0-2---2-0-2---2-0-2---2---|--3-2-0-2-0-2---2-0-2---2-0-2-5-----|

Verse 2x

Chorus

Bridge
|-------------------------------------------------|
|-------------------------------------------------|
|-------------------------------------------------|
|--14\\2-3-2-x-2-3-2-----14\\2-3-2-7-8-7-x-3-3----|
|--14\\2-3-2-x-2-3-2-2-2-14\\2-3-2-7-8-7-x-3-3----|
|--14\\2-3-2-x-2-3-2-2-2-14\\2-3-2-7-8-7-x-3-3----|
pm                   . .
                                                   4x

|-------------------------------------------------|
|-------------------------------------------------|
|-------------------------------------------------|
|--14\\2-3-2-x-2-3-2-----14\\2-3-2-7-8-7-x-10-10--|
|--14\\2-3-2-x-2-3-2-2-2-14\\2-3-2-7-8-7-x-10-10--|
|--14\\2-3-2-x-2-3-2-2-2-14\\2-3-2-7-8-7-x-10-10--|
pm                   . .

Last Chorus
|-----------------------------------------------|
|-----------------------------------------------|
|--------------------------------------4-5-4----|
|--2--2--10--10--10--10-10-4-4-4-4-4-4----------|
|--2--2--10--10--10--10-10-4-4-4-4-4-4----------|
|--2--2--10--10--10--10-10-4-4-4-4-4-4----------|

|-----------------------------------------------|
|-----------------------------------------------|
|-------------------------------------4---------|
|--2--2--10--10--10--10-10-4--4--4----x---------|
|--2--2--10--10--10--10-10-4--4--4-44-2-0-0-0-0-|
|--2--2--10--10--10--10-10-4--4--4-44---0-0-0-0-|
pm                                 ..   . . . .

|-----------------------------------------------|
|-----------------------------------------------|
|--------------------------------------4-5-4----|
|--2--2--10--10--10--10-10-4-4-4-4-4-4----------|
|--2--2--10--10--10--10-10-4-4-4-4-4-4----------|
|--2--2--10--10--10--10-10-4-4-4-4-4-4----------|

|-------------------------------------------------------------|
|-------------------------------------------------------------|
|-------------------------------------------------------------|
|--2--2--0--0--0-0-0--10-10-10-10-10-10-10-10-10-10-10-10-10--|
|--2--2--0--0--0-0-0--10-10-10-10-10-10-10-10-10-10-10-10-10--|
|--2--2--0--0--0-0-0--10-10-10-10-10-10-10-10-10-10-10-10-10--|

|-----------------------------------------|
|-----------------------------------------|
|-----------------------------------------|
|-10-10-10-10-10-10-10-10-10~~~~~~~~~~~~--|
|-10-10-10-10-10-10-10-10-10~~~~~~~~~~~~--|
|-10-10-10-10-10-10-10-10-10~~~~~~~~~~~~--|

Outro
|------------------------------------|------------------------------------|
|------------------------------------|------------------------------------|
|------------------------------------|------------------------------------|
|------------------------------------|------------------------------------|
|--------------5-------3-------2-----|--------------5-------3-------5-----|
|--3-2-0-2-0-2---2-0-2---2-0-2---2---|--3-2-0-2-0-2---2-0-2---2-0-2---2---|

|------------------------------------|------------------------------------|
|------------------------------------|------------------------------------|
|------------------------------------|------------------------------------|
|------------------------------------|------------------------------------|
|--------------5-------3-------2-----|--------------5-------3-------5-----|
|--3-2-0-2-0-2---2-0-2---2-0-2---2---|--3-2-0-2-0-2---2-0-2---2-0-2-5-----|

|------------------------------------|------------------------------------|
|------------------------------------|------------------------------------|
|------------------------------------|------------------------------------|
|------------------------------------|------------------------------------|
|--------------5-------3-------2-----|--------------5-------3-------5-----|
|--3-2-0-2-0-2---2-0-2---2-0-2---2---|--3-2-0-2-0-2---2-0-2---2-0-2---2---|
pm . . . . . .   . . .   . . .   .      . . . . . .   . . .   . . .   .

|------------------------------------|------------------------------------|
|------------------------------------|------------------------------------|
|------------------------------------|------------------------------------|
|------------------------------------|------------------------------------|
|--------------5-------3-------2-----|--------------5-------3-------5-----|
|--3-2-0-2-0-2---2-0-2---2-0-2---2---|--3-2-0-2-0-2---2-0-2---2-0-2-5-----|
pm . . . . . .   . . .   . . .   .


10. Forgiven
Tabbed By irishmatt1992

h=hammer on
p=pull off
b=bend
*=harmonics
~=vibrato
/or\=slide
P.M.=palm mute
X=chug


Forgiven
Drop C

Intro
D---------------------------------------|
A---------------------------------------|
F---------------------------------------|
C-----------------------3-3-3-8-8-8-8-8-|
G-7-5-7-5-7-7-5-7-5-7-7-3-3-3-8-8-8-8-8-|
C-7-5-7-5-7-7-5-7-5-7-7-3-3-3-8-8-8-8-8-|
P.M.. . . . . . . . . . . . . . . . . .

D---------------------------------------|
A---------------------------------------|
F---------------------------------------|
C-----------------------3-3-3-8-8-8-8-8-|
G-7-5-7-5-7-7-5-7-5-7-7-3-3-3-8-8-8-8-8-|
C-7-5-7-5-7-7-5-7-5-7-7-3-3-3-8-8-8-8-8-|
P.M.. . . . . . . . . .

Pre-verse:Guitar 1, play twice.
D----------------------------------------|
A----------------------------------------|
F----------------------------------------|
C-----------------------3-3-3-8-8-8-8-8--|
G-7-5-7-5-7-7-5-7-5-7-7-3-3-3-8-8-8-8-8--|
C-7-5-7-5-7-7-5-7-5-7-7-3-3-3-8-8-8-8-8--|

Guitar 2:Play twice, Sounds like there's a high part through this whole thing.
D----------------------------------------|
A----------------------------------------|
F-9-7-9-7-9-9-7-9-7-9-9-5-5-5-1010101010-|
C-X-X-X-x-X-X-X-X-X-X-X-X-X-X-X-X-X-X-X--|
G-7-5-7-5-7-7-5-7-5-7-7-3-3-3-8-8-8-8-8--|
C----------------------------------------|

Verse:Play twice, Guitar 1 I believe.
D---------------------------------------|
A---------------------------------------|
F---------------------------------------| Play twice . . .then . . .
C-----------------------3-3-3-8-8-8-8-8-|
G-7-5-7-5-7-7-5-7-5-7-7-3-3-3-8-8-8-8-8-|
C-7-5-7-5-7-7-5-7-5-7-7-3-3-3-8-8-8-8-8-|
P.M.. . . . . . . . . . . . . . . . . .

D--------|
A--------|
F--------| . . . then . . .
C----5*--|
G-5*-----|
C--------|

Guitar 1 only.
D---------------------------------------|
A---------------------------------------|
F---------------------------------------| Play twice
C-----------------------3-3-3-8-8-8-8-8-|
G-7-5-7-5-7-7-5-7-5-7-7-3-3-3-8-8-8-8-8-|
C-7-5-7-5-7-7-5-7-5-7-7-3-3-3-8-8-8-8-8-|

Guitar 2 I believe, use a tremelo and reverb effect, hard to figure out.
D--------------------------|
A--------------------------|
F-------5*-------------5*--| Play four times.
C----5*-------------5*-----|
G-5*--------5*---5*--------|
C--------------------------|

Chorus
D-----------------------------------------|
A-----------------------------------------|
F-----------------------------------------|
C-3-x-x-3-0-7---------------5h7p5---------|
G-3-x-x-3-0-7-5h7-7-0-0-5h7-------7p5-----|
C-3-x-x-3-0-7-5h7-7-0-0---------------7p5-|
P.M.                . .

D-----------------------------------|
A-----------------------------------|
F-----------------------------------|
C-3-x-x-3-8-7-----------------------|
G-3-x-x-3-8-7-5h7-7p5-5h7-7p5-5-7-8-|
C-3-x-x-3-8-7-5h7-7p5-5h7-7p5-5-7-8-|

D-----------------------------------------|
A-----------------------------------------|
F-----------------------------------------|
C-3-x-x-3-0-7---------------5h7p5---------|
G-3-x-x-3-0-7-5h7-7-0-0-5h7-------7p5-----|
C-3-x-x-3-0-7-5h7-7-0-0---------------7p5-|
P.M.                . .

D---------------------------|
A---------------------------|
F-7-7-7-7-7-7-7-------------|
c-5-5-5-5-5-5-5-3-2-0-2-3-5-|
G-5-5-5-5-5-5-5-3-2-0-2-3-5-|
C-5-5-5-5-5-5-5-3-2-0-2-3-5-|

Bridge:Hold.
D----------|
A----------|
F----------|
C-7--------|
G-7--------|
C-7--------|

Play four times.
D-----------------------------------------|
A-----------------------------------------|
F-----------------------------------------|
C-7-7-7-7-7-3-3-3-3-3-8-8-8-8-8-2-2-2-2-2-|
G-7-7-7-7-7-3-3-3-3-3-8-8-8-8-8-2-2-2-2-2-|
C-7-7-7-7-7-3-3-3-3-3-8-8-8-8-8-2-2-2-2-2-|
P.M. . . . . . . . . . . . . . . . . . .

D---------------|
A---------------|
F---------------|
C-2-2-2-2-2-2-2-|
G-2-2-2-2-2-2-2-|
C-2-2-2-2-2-2-2-|
P.M.. .

Solo:Use a lotta wah.
D------------------------------------------------------|
A------------------------------------------------------|
F---------------------------7^-7-5-------7^-7-5--------|
C-7-5-7-5-7-7-5-7-5-7-7-5-7--------7-5-7--------5-7-7--|
G------------------------------------------------------|
C------------------------------------------------------|

D-----------------------------------------|
A-----------------------------------------|
F-----------------------------------------|
C-7-5-7-7-5-7-5/3-------2/4-4/6-6/7-9-5h7-|
G-----------------3\5-3-------------------|
C-----------------------------------------|

D----------------------------------------------------------------------|
A----------------------------------------------------------------------|
F-------12--------------------------12^--12-10----12-14-12----12-10----|
C-12-14----14-12--------------12-14------------12----------12-------12-|
G----------------14--14-12-14------------------------------------------|
C----------------------------------------------------------------------|

D-----------------------------13/15-|
A-------------17^-17-15-13-10-------|
F-15-17-15-17-----------------------|
C-----------------------------------|
G-----------------------------------|
C-----------------------------------|

D-17p15p13-19p17p13-17p15p13-19p17p13-17p15p13-19p17p13-17p15p13-12~-|
A--------------------------------------------------------------------|
F--------------------------------------------------------------------|
C--------------------------------------------------------------------|
G--------------------------------------------------------------------|
C--------------------------------------------------------------------|


Last chorus
D-----------------------------------------|
A-----------------------------------------|
F-----------------------------------------|
C-3-x-x-3-0-7---------------5h7p5---------|
G-3-x-x-3-0-7-5h7-7-0-0-5h7-------7p5-----|
C-3-x-x-3-0-7-5h7-7-0-0---------------7p5-|
P.M.                . .

D-----------------------------------|
A-----------------------------------|
F-----------------------------------|
C-3-x-x-3-8-7-----------------------|
G-3-x-x-3-8-7-5h7-7p5-5h7-7p5-5-7-8-|
C-3-x-x-3-8-7-5h7-7p5-5h7-7p5-5-7-8-|

D-----------------------------------------|
A-----------------------------------------|
F-----------------------------------------|
C-3-x-x-3-0-7---------------5h7p5---------|
G-3-x-x-3-0-7-5h7-7-0-0-5h7-------7p5-----|
C-3-x-x-3-0-7-5h7-7-0-0---------------7p5-|
P.M.                . .

D---------------------------|
A---------------------------|
F-7-7-7-7-7-7-7-------------|
c-5-5-5-5-5-5-5-3-2-0-2-3-5-|
G-5-5-5-5-5-5-5-3-2-0-2-3-5-|
C-5-5-5-5-5-5-5-3-2-0-2-3-5-|

D-------------------------------|
A-------------------------------|
F-------------------------------|
C-----------------5h7p5---------|
G-3p2-3p2-3p2-5h7-------7p5-----|
C-3p2-3p2-3p2---------------7p5-|

Outro
D--------------------------------------------------|
A--------------------------------------------------|
F--------------------------------------------------|
C-----------------------3-x-3-x-3-8-x-8-x-8-x-8-10-|
G-7-5-7-5-7-7-5-7-5-7-7-3-x-3-x-3-8-x-8-x-8-x-8-10-|
C-7-5-7-5-7-7-5-7-5-7-7-3-x-3-x-3-8-x-8-x-8-x-8-10-|

Hold it.
D---------------|
A---------------|
F---------------|
C-7-------------|
G-7-------------|
C-7-------------|

Tabbed by irishmatt1992, leave a comment for suggestions or corrections.

11. Land Of Confusion
Tabbed By SamTMFM

Tuning: Drop Db (Drop D tuned down 1/2 step)

Key:
X=Mute
/=Slide Up
\=Slide Down
h=hammer on
p=pull off
b=bend
~=vibrato
()=harmonic

Intro: Two Guitars

Guitar 1: 8X
|------------------------|
|------------------------|
|------------------------|
|-----------7------------|
|-----7------------7-----|
|--7-----7-----7-7----7--|

Guitar 2: (Less loud) 8X
|------------------------------------------------------------------|
|------------------------------------------------------------------|
|-6666666666666666666666666666666655555555555555555555555555555555-|
|-XXXXXXXXXXXXXXXXXXXXXXXXXXXXXXXXXXXXXXXXXXXXXXXXXXXXXXXXXXXXXXXX-|
|-4444444444444444444444444444444433333333333333333333333333333333-|
|------------------------------------------------------------------|

Verse: Two Guitars

Guitar 1: 2X
|------------|--------------------|-------------------|-------------------|
|------------|-8-8-8--8/10-10-10\-|-------------------|-------------------|
|-7/9--9--9\-|-X-X-X--X/X--X--X-\-|-5-5-5--5/7--7--7\-|-7-7-7--7\9--9--9\-|
|-X/X--X--X\-|-5-5-5--5/7--7--7-\-|-X-X-X--X/X--X--X\-|-X-X-X--X/X--X--X\-|
|-5/7--7--7\-|--------------------|-3-3-3--3/5--5--5\-|-5-5-5--5/7--7--7\-|
|------------|--------------------|-------------------|-------------------|

Guitar 2: (Palm Muted) (Play each segment twice) 2X
|------------------|------------------|------------------|------------------|
|------------------|------------------|------------------|------------------|
|------------------|------------------|------------------|------------------|
|------------------|------------------|------------------|------------------|
|------------------|------------------|------------------|------------------|
|-222-22-22-22-222-|-777-77-77-77-777-|-000-00-00-00-000-|-222-22-22-22-222-|

Chorus:

Part 1: 2X
|-------|-------|-------|-------|
|-------|-------|-------|-------|
|-------|-------|-------|-------|
|-0---2-|-5---7-|-0---2-|-5---0-|
|-0---2-|-5---7-|-0---2-|-5---0-|
|-0---2-|-5---7-|-0---2-|-5---0-|

Part 2: 4X
|----------------------|
|----------------------|
|-9---9---9--------4-7-|
|-9---10--10---0---4-7-|
|-7---7---7----0---2-5-|
|--------------0-------|

Play Intro: (Guitar 1: 4X) (Guitar 2: 1X)

Play Verse: (Guitar 1: 1X) (Guitar 2: 1X)

Play Chorus

Play Intro: (Guitar 1: 4X) (Guitar 2: 1X)

Interlude:

|---------------------------------|---------------------------------|
|---------------------------------|---------------------------------|
|---------------------------------|---------------------------------|
|-----6-----6-----6---------------|-----6-----6-----6-------------6-|
|-7-9---7-9---6-7---6-7-9-6-7-6---|-7-9---7-9---6-7---6-7-9-6-7-9---|
|-------------------------------9-|---------------------------------|

|---------------------------------|---------------------------------|
|---------------------------------|---------------------------------|
|---------------------------------|-----------------6-6-6-6---------|
|-----6-----6-----6---------------|-2-2-2-2-1-1-1-1-6-6-6-6-4-4-4-4-|
|-7-9---7-9---6-7---6-7-9-6-7-6---|-2-2-2-2-1-1-1-1-4-4-4-4-4-4-4-4-|
|-------------------------------9-|-2-2-2-2-1-1-1-1---------4-4-4-4-|

|---------------------------------|---------------------------------|
|---------------------------------|---------------------------------|
|---------------------------------|---------------------------------|
|-----6-----6-----6---------------|-----6-----6-----6-------------6-|
|-7-9---7-9---6-7---6-7-9-6-7-6---|-7-9---7-9---6-7---6-7-9-6-7-9---|
|-------------------------------9-|---------------------------------|

|---------------------------------|---------------------------------|---|
|---------------------------------|---------------------------------|---|
|---------------------------------|-----------------6-6-6-6---------|-2-|
|-----6-----6-----6---------------|-2-2-2-2-1-1-1-1-6-6-6-6-4-4-4-4-|-2-|
|-7-9---7-9---6-7---6-7-9-6-7-6---|-2-2-2-2-1-1-1-1-4-4-4-4-4-4-4-4-|-0-|
|-------------------------------9-|-2-2-2-2-1-1-1-1---------4-4-4-4-|---|

Solo:

Part 1:
|---------------------------------------------------|
|---------------------------------------------------|
|-12~~~~~12~~11~~~~~------------------11~~~~~~------|
|-------------------12~~~~~10~~~~~10~~--------12~~~-|
|---------------------------------------------------|
|---------------------------------------------------|

Part 2: after first note play 4X
|-12-|-15--12--14-----------|
|----|-------------12-15-12-|
|----|----------------------|
|----|----------------------|
|----|----------------------|
|----|----------------------|

Part 3:
|-15p14p12--------15p14p12--------15p14p12--------15p14p12---------|
|---------12h15p12--------12h15p12--------12h15p12--------12h15p12-|
|------------------------------------------------------------------|
|------------------------------------------------------------------|
|------------------------------------------------------------------|
|------------------------------------------------------------------|

|-----------------------------------------|
|-15b--13h15p13p12-12h13p12p10-10h12p10p8-|
|-----------------------------------------|
|-----------------------------------------|
|-----------------------------------------|
|-----------------------------------------|

|---------------------------------------------|
|-10b--8h10p8p7-7h8p7p5-5h7p5p3-7\3-3/5-5~~~~-|
|---------------------------------------------|
|---------------------------------------------|
|---------------------------------------------|
|---------------------------------------------|

|-12~~~~~-15~~~~~-(7)-----(5)---|
|-------------------------------|
|-------------------------------|
|-------------------------------|
|-------------------------------|
|-------------------------------|

Play Verse: (Guitar 1: 1X) (Guitar 2: 1X)

Play Chorus

Chorus Part 2 (Altered): 4X

|----------------------|
|----------------------|
|-9---9---XXX-X----4-7-|
|-9---10--XXX-X--0-4-7-|
|-7---7---XXX-X--0-2-5-|
|----------------0-----|

Play Intro: (Guitar 1: 4X) (Guitar 2: 1X)


Enjoy The Tab!!! Any comments, questions, or corrections please E-mail me at SamTMFM@aol.com
Thank you....

12. Sacred Lie
Tabbed By Subbliminal

Tuning is: Drop C (All strings 1 step down, bass string an extra step on top of that)

Tabbed By: Jay Logan
Email: Subbliminal@DONTSPAM@hotmail.com
           -Just remove the 'DONTSPAM of course.


Legend - I suggest looking over it, there are some descriptions, as well as special cases.

 /  - Slide Right (If only 1 number just slide from anywhere towards it left to right)
 \  - Slide left (If only 1 number just slide from anywhere towards it right to left)
 ^  - Bend (5^7= bend the 5 fret until it sounds like 7, or 5^ = quick bend)
(~) - Vibrato (5(~) = Wiggle the string shown)
(5) - Natural Harmonic (Just put your finger lightly over the actually fret)
<5> - Artificial Harmonic (You pick the string and let your thumb touch as well while
holding the fret shown)
 x  - Mute that string
 .  - Palm Mute (Mute the note shown with picking hand palm, the '.' is under the note)
 h  - Hammer On (ie..3h5 = pic the 3rd fret and then hammer your finger into the 5th
without picking)
 p  - Pull Off (opposite of hammer on, 5p3 = pic the 5th while holding the 3rd as well,
then pull your finger of the 5th)


---Intro---
NOTE: Let the Keep repeating the first part as needed.
      What Dan is doing is going up and down the string
      with the pic while playing Artificial Harmonics.
      This gives the alternating pitch on the 5 fret note
      while also grazing up and down on the string with the
      pic to produce the tube like sound in the background
      It is the best idea I could come up with, sounds pretty
      good.


  Repeat      Last time
D|--------|---------------------------------|
A|--------|---------------------------------|
F|--------|---------------------------------|
C|--------|---------------------------------|
G|--3-<5>-|-3-<5>--3-<5>--3-<5>------5-3----|
C|--------|----------------------3-5-----3--|


---Intro Part 2---


D|----------------------------|------------------------------|
A|----------------------------|------------------------------|
F|----------------------------|------------------------------|
C|----------------------------|-----------------6-------6-6--|
G|-6-5---5--5-5--5-5--6-5-6-8-|-6-5---5--5-5--5-x---0-5-x-x--|
C|-0-0---0--0-0--0-0--0-0-0-0-|-0-0---0--0-0--0-6---0-0-6-6--|

D|----------------------------|------------------------------|
A|----------------------------|------------------------------|
F|----------------------------|------------------------------|
C|----------------------------|------------------------------|
G|-6-5---5--5-5--5-5--6-5-6-8-|-6-5---5--5-5--0-3-5--5-0-3-5-|
C|-0-0---0--0-0--0-0--0-0-0-0-|-0-0---0--0-0--0-3-5--0-0-3-5-|

---Verse---

D|------------------------------------------------------------|
A|------------------------------------------------------------|
F|------------------------------------------------------------|
C|------------------------------------------------------------|
G|-5--5-6-5-3-5--3-3--3-3--5-6-5--5-6-5-3-5--3-3-0-6-6-0-3-5--|
C|-0--0-0-0-0-0--0-0--0-0--0-0-0--0-0-0-0-0-------------------|
   .  . . . . .  . .  . .  . . .  . . . . .


D|------------------------------------------------------------|
A|------------------------------------------------------------|
F|------------------------------------------------------------|
C|-------------------------------------------1-----------1--0-|
G|-5--5-6-5-3-5--3-3--3-3--5-6-5--5-6-5-3-5--1--1-1-1-1--1--0-|
C|-0--0-0-0-0-0--0-0--0-0--0-0-0--0-0-0-0-0--1--1-1-1-1--1--0-|
   .  . . . . .  . .  . .  . . .  . . . . .     . . . .

D|------------------------------------------------------------|
A|------------------------------------------------------------|
F|------------------------------------------------------------|
C|------------------------------------------------------------|
G|-5--5h6p5-3-5--3-3--3-3--5h6-5--5h6p5-3-5--3-3-0-6-6-0-3-5--|
C|-0--0-0-0-0-0--0-0--0-0--0-0-0--0-0-0-0-0-------------------|

D|------------------------------------------------------------|
A|------------------------------------------------------------|
F|------------------------------------------------------------|
C|-------------------------------------------1-----------1--0-|
G|-5--5h6p5-3-5--3-3--3-3--5h6-5--5h6p5-3-5--1--1-1-1-1--1--0-|
C|-0--0-0-0-0-0--0-0--0-0--0-0-0--0-0-0-0-0--1--1-1-1-1--1--0-|


---Chorus---
* = Strum as needed


   *        *            *        *             *        *           4 Times  4 Times
D|-5-------------------|-5--------------------|-5-------------------|-------|---------------------|
A|-x-------------------|-x--------------------|-x-------------------|-------|---------------------|
F|-7---9-9--10--10--9--|-7---9-9--10--10--12--|-7---9-9--10--10--9--|-5-----|-3-------------------|
C|-7---7-7--8---x---x--|-7---7-7--8---x---x---|-7---7-7--8---10--9--|-5--5--|-3--3----------------|
G|-5---7-7--8---8---7--|-5---7-7--8---8---10--|-5---7-7--8---8---7--|-3--3--|-1--1----------------|
C|-0---7-7--8----------|-0---7-7--8-----------|-0---7-7--8----------|----5--|----3----------------|

Post Chorus Riff (The intro)


D|----------------------------|------------------------------|
A|----------------------------|------------------------------|
F|----------------------------|------------------------------|
C|----------------------------|-----------------6-------6-6--|
G|-6-5---5--5-5--5-5--6-5-6-8-|-6-5---5--5-5--5-x---0-5-x-x--|
C|-0-0---0--0-0--0-0--0-0-0-0-|-0-0---0--0-0--0-6---0-0-6-6--|

D|----------------------------|------------------------------|
A|----------------------------|------------------------------|
F|----------------------------|------------------------------|
C|----------------------------|------------------------------|
G|-6-5---5--5-5--5-5--6-5-6-8-|-6-5---5--5-5---------5-------|
C|-0-0---0--0-0--0-0--0-0-0-0-|-0-0---0--0-0--0-3-5--0-0-3-5-|
                                              . . .  . . . .


---Verse---

D|------------------------------------------------------------|
A|------------------------------------------------------------|
F|------------------------------------------------------------|
C|------------------------------------------------------------|
G|-5--5-6-5-3-5--3-3--3-3--5-6-5--5-6-5-3-5--3-3-0-6-6-0-3-5--|
C|-0--0-0-0-0-0--0-0--0-0--0-0-0--0-0-0-0-0-------------------|
   .  . . . . .  . .  . .  . . .  . . . . .


D|------------------------------------------------------------|
A|------------------------------------------------------------|
F|------------------------------------------------------------|
C|-------------------------------------------1-----------1--0-|
G|-5--5-6-5-3-5--3-3--3-3--5-6-5--5-6-5-3-5--1--1-1-1-1--1--0-|
C|-0--0-0-0-0-0--0-0--0-0--0-0-0--0-0-0-0-0--1--1-1-1-1--1--0-|
   .  . . . . .  . .  . .  . . .  . . . . .     . . . .

D|------------------------------------------------------------|
A|------------------------------------------------------------|
F|------------------------------------------------------------|
C|------------------------------------------------------------|
G|-5--5h6p5-3-5--3-3--3-3--5h6-5--5h6p5-3-5--3-3-0-6-6-0-3-5--|
C|-0--0-0-0-0-0--0-0--0-0--0-0-0--0-0-0-0-0-------------------|

D|------------------------------------------------------------|
A|------------------------------------------------------------|
F|------------------------------------------------------------|
C|-------------------------------------------1-----------1--0-|
G|-5--5h6p5-3-5--3-3--3-3--5h6-5--5h6p5-3-5--1--1-1-1-1--1--0-|
C|-0--0-0-0-0-0--0-0--0-0--0-0-0--0-0-0-0-0--1--1-1-1-1--1--0-|


---Chorus---
* = Strum as needed


   *        *            *        *             *        *           4 Times  4 Times
D|-5-------------------|-5--------------------|-5-------------------|-------|--------|
A|-x-------------------|-x--------------------|-x-------------------|-------|--------|
F|-7---9-9--10--10--9--|-7---9-9--10--10--12--|-7---9-9--10--10--9--|-5-----|-3------|
C|-7---7-7--8---x---x--|-7---7-7--8---x---x---|-7---7-7--8---10--9--|-5--5--|-3--3---|
G|-5---7-7--8---8---7--|-5---7-7--8---8---10--|-5---7-7--8---8---7--|-3--3--|-1--1---|
C|-0---7-7--8----------|-0---7-7--8-----------|-0---7-7--8----------|----5--|----3---|


---BreakDown---
NOTE: Only mute the E (C in this Tuning) and A (G in this Tuning) strings, always sound
the obiviously un-muted notes. Repeat as needed. Try using up Strokes on the unmuted
notes to get them to sound out much better then a downward as that note will be hit before
the muted string under it.

D|----------------------------|------------------------------|
A|----------------------------|------------------------------|
F|----------------------------|------------------------------|
C|----------------------------|-----------------6-------6-6--|
G|-6-5---5--5-5--5-5--6-5-6-8-|-6-5---5--5-5--5-x---0-5-x-x--|
C|-0-0---0--0-0--0-0--0-0-0-0-|-0-0---0--0-0--0-6---0-0-6-6--|

D|-----------------------------------------------------------|
A|-----------------------------------------------------------|
F|-----------------------------------------------------------|
C|--------------------6------5---------------6-----5-0-3-5---|
G|-5-6-5--5---5-6-5-3----3-5---5-6-5-3-5-6-5---3-5-----------|
C|-0-0-0------0-0-0-0----0-0---0-0---0-0-0-0---0-0-----------|
   . . .      . . . .    . .   . .   . . . .   . .

Last Time Through

D|-----------------------------------------------------------|
A|-----------------------------------------------------------|
F|-----------------------------------------------------------|
C|--------------------6------5---------------6-----5---------|
G|-5-6-5--5---5-6-5-3----3-5---5-6-5-3-5-6-5---3h5-----------|
C|-0-0-0------0-0-0-0----0-0---0-0---0-0-0-0-----------------|
   . . .      . . . .    . .   . .   . . . .

---Chorus---
* = Strum as needed

   *        *            *        *             *        *           4 Times  4 Times
D|-5-------------------|-5--------------------|-5-------------------|-------|--------|
A|-x-------------------|-x--------------------|-x-------------------|-------|--------|
F|-7---9-9--10--10--9--|-7---9-9--10--10--12--|-7---9-9--10--10--9--|-5-----|-3------|
C|-7---7-7--8---x---x--|-7---7-7--8---x---x---|-7---7-7--8---10--9--|-5--5--|-3--3---|
G|-5---7-7--8---8---7--|-5---7-7--8---8---10--|-5---7-7--8---8---7--|-3--3--|-1--1---|
C|-0---7-7--8----------|-0---7-7--8-----------|-0---7-7--8----------|----5--|----3---|

NOTE: MUTE SOME NOTES WHILE STRUMMING THIS TIME.

   *        *            *        *             *        *           4 Times  4 Times
D|-5-------------------|-5--------------------|-5-------------------|-------|--------|
A|-x-------------------|-x--------------------|-x-------------------|-------|--------|
F|-7---9-9--10--10--9--|-7---9-9--10--10--12--|-7---9-9--10--10--9--|-5-----|-3------|
C|-7---7-7--8---10--9--|-7---7-7--8---10--12--|-7---7-7--8---10--9--|-5--5--|-3--3---|
G|-5---7-7--8---8---7--|-5---7-7--8---8---10--|-5---7-7--8---8---7--|-3--3--|-1--1---|
C|-0---7-7--8----------|-0---7-7--8-----------|-0---7-7--8----------|----5--|----3---|


---OUTRO---


D|----------------------------|----------------------------|
A|----------------------------|----------------------------|
F|----------------------------|----------------------------|
C|----------------------------|----------------------------|
G|-6-5---5--5-5--5-5--6-5-6-8-|-6-5---5--5-5--5-5--6-5-6-8-|
C|-0-0---0--0-0--0-0--0-0-0-0-|-0-0---0--0-0--0-0--0-0-0-0-|

D|----------------------------|----------------------------|
A|----------------------------|----------------------------|
F|----------------------------|----------------------------|
C|----------------------------|----------------------------|
G|-6-5---5--5-5--5-5--6-5-6-8-|-6-5---5--5-5---------------|
C|-0-0---0--0-0--0-0--0-0-0-0-|-0-0---0--0-0---------------|


----------
And there it is. I know I make these long but it is, in my opinion, easier to scroll
down instead of jumping around the tab looking for parts

and sometimes there are parts with small differences and it just makes it easier for
me to show them by writing everything out.
Thanks,
-Jay Logan (Subbliminal@DONTSPAM@hotmail.com) Just remove the 'DONTSPAM of course

13. Pain Redefined
Tabbed by tab_man84

TUNING:DROP C (CGCFAD)


 I KNOW DITURBED TUNING IS USUALLY 1/2 STEP DOWN THEN D,BUT THE NEW ALBUM
 IS ALL DROP C THIS SONG IS 100%.

* = PALM MUTE
/ = SLIDE
) = DELAY COUNTS
+ = HARMONICS


  INTRO 1 WITH DISTORTION & DELAY
D----------------------------------------|
A----------------------------------------|
F----------------------------------------|
C----------------------------------------|  X2
G------8-)-)----8-)------6-)-)----6-)----|
C--555-------55------555-------55--------|
   ***       **      ***       **

  INTRO 2 DISTORTION (DELAY OFF)
D---------------------------------------------|
A---------------------------------------------|
F---------------------------------------------|
C---------------------------------------------|  X2
G------8-----6----------------6------9--------|
C--555---555---55-6-55-9-5555-6-5555-9--------|
   ***   ***   **   **   ****   ****

   VERSE
D-------------------------------------------------------------------|
A-------------------------------------------------------------------|
F-------------------------------------------------------------------|
C-------------------------------------------------------------------|
G--55-5-55-5-5555--55-5-55-5-5555--11-1-11-1-1111--33-3-33-3-3333---|
C--55-5-55-5-5555--55-5-55-5-5555--11-1-11-1-1111--33-3-33-3-3333---|
   ** * ** * ****  ** * ** * ****  ** * ** * ****  ** * ** * ****


   PRE-CHORUS
D-----------------------------------------------------------------|
A-----------------------------------------------------------------|
F-----------------------------------------------------------------|
C-----------------------------------------------------------------|
G--565-55-5-5-565--5/8-5-55-5-5-565--5/10-5-55-55-565--3-3-3-3-8--|
C--565-55-5-5-565--5/8-5-55-5-5-565--5/10-5-55-55-565--3-3-3-3-8--|


  CHORUS
D----------------------------------------------------------|
A----------------------------------------------------------|
F-----------8-8/7---------------7-7/10-10-----------8-8/7--|
C-----------6-6/5---------------5-5/8--8------------6-6/5--|
G--5-3-/8-1--------4-5---5-3-/8------------5-3-/8-1--------|
C--5-3-/8-1--------4-5---5-3-/8------------5-3-/8-1--------|

D-------------------------------|
A-------------------------------|
F-------------------------------|
C--5----5----5----7-7-7-7/10----|
G--3-55-3-55-3-55-5-5-5-5/8-----|
C----55---55---55---------------|

   INTERLUDE (CLEAN)
D---------------------|
A---------------------|
F--------5----5-5-3---|
C------5----5---------|  X8
G---------------------|
C---5-----5-----------|


D--------------------|
A--------------------|
F------5----5-5-3----|
C----5----5----------| X3
G--------------------|
C--5----3------------|


D---------------------|
A------1----1------3--|
F---------------------|
C----3----3-----5-----|
G--1----1-----3-------|
C---------------------|


   DISTORTION
D----------------------------------------------|
A----------------------------------------------|
F----------------------------------------------|
C----------------------------------------------|
G--1010101010-/8--5-3-6-3---5-3-6-3--5-5-3-6---|
C--1010101010-/8--5-3-6-3---5-3-6-3--5-5-3-6---|
   **********


D---------------------|
A---------------------|
F---------------------|
C---------------------|
G--5-33-6-5-----------|
C--5-33-6-5--44444----|
   * ** * *  +++++


PLAY CHORUS
THEN END ON PRE-CHORUS


THATS ALL ANY COMMENTS EMAIL GUITAR_HERO_84@HOTMAIL.COM

TABBED BY: TAB_MAN84

14. Avarice
Tabbed By irishmatt1992

Big help from Operator(CA) on the solo, little adjustments I made, here you go, enjoy!


h=hammer on
p=pull off
b=bend
~=vibrato
*=harmonic
/or\=slide
P.M.=palm mute

Avarice
Drop C

Intro:Play four times, bottom play four aswell.
D-------------------------------------------------|
A-------------------------------------------------|
F-------------------------------------------------|
C-------------------------------------------------|
G-5p22222223p222222223p222222225p222223p223p223p2-
C-------------------------------------------------

D-----------------------------------------------------------|
A-----------------------------------------------------------|
F-----------------------------------------------------------|
C-12p99999-10p999999-10p9999999-12p999999-10p99-10p99-10p99-|
G-12p99999-10p999999-10p9999999-12p999999-10p99-10p99-10p99-|
C-12p99999-10p999999-10p9999999-12p999999-10p99-10p99-10p99-|

Verse:Play the top only twice.
D------------------------------------|
A------------------------------------|
F------------------------------------|
C------------------------------------|
G-9-9-9--999--999-9-9-10p9-10p9-10p9-|
C-9-9-9--999--999-9-9-10p9-10p9-10p9-|
P.M....  ...  ... . . .. . .. . .. .

D---------------------------|
A---------------------------|
F---------------------------|
C-12-9-9--999--999--999-999-|
G-12-9-9--999--999--999-999-|
C-12-9-9--999--999--999-999-|


Chorus
D---------------------------------------|
A---------------------------------------|
F---------------------------------------|
C-7--6--3--4-6--7--6--3--4--6-0-0-0-0-0-|
G-7--6--3--4-4--7--6--3--4--6-0-0-0-0-0-|
C-7--6--3--4-4--7--6--3--4--6-0-0-0-0-0-|
P.M.                          .........

Solo
D--------------------------------------------------------------------------|
A----------13-14-13----------13-14-13----------13-14-13----------13-14-13--|
F-14-13-14----------14-13-14----------14-13-14----------14-13-14-----------|
C--------------------------------------------------------------------------|
G--------------------------------------------------------------------------|
C--------------------------------------------------------------------------|

D--/14--12-----------------------------------------------|
A----------14-13-12b---11~12~----------------------------|
F----------------------------11~-9-----------------------|
C----------------------------------9b--8--9-9b--8--------|
G---------------------------------------------------9~~--|
C--------------------------------------------------------|

D-------------------------------------12-----12-14~~--|
A--------10-------12-------10------12----14-----------|
F--10-11----10-11----10-11----10-11-------------------|
C-----------------------------------------------------|
G-----------------------------------------------------|
C-----------------------------------------------------|


Tabbed by irishmatt1992, leave a comment for corrections or suggestions
comments
print report bad tab
6 comments total. Showing first comments.
+3 reply
10kf.iskickass wrote on March 10 2007, 07:53 am

hey you used my just stop tab, thanks, thats pretty cool

+3 reply
Gibson_SG_uzr55 wrote on March 10 2007, 11:22 am

Awesome tabs, man. Great job!

+3 reply
cigaro5676 wrote on March 10 2007, 07:53 pm

thanks for actually giving people credit for their own work


you better than most ass holes who just claim it for themselves

cheers

I want to post or [tab]
guest
You may want to rate the tab now too:
select rating
Please do not post tabs as comments. Select "correction" instead!