Oops, an error
Loading. Please wait.

Ten Thousand Fists Tab

ver3
ver3
More versions @911Tabs.com
2,937 views 3 this week
no commentswrite comment
1 2 3 4 5
accurate
x 1
add to favorites launch autoscroll
font size
0
reset
Autoscroll
+/-
esc
set tempo
stop
Contributor
Difficulty
Tuning
intermediate
C# G# C# F# A# D#
WARNING: You are trying to view
                                    content from Ultimate-Guitar.com
                                    in an unauthorized application,
                                    which is prohibited.

                                    Please use an official Ultimate
                                    Guitar Tabs application for iPhone,
                                    iPad or Android to access legitimate
                                    chords, guitar, bass, and drum tabs
                                    from Ultimate-Guitar.com database.

                                    Type "ultimate guitar tabs" in Apple
                                    App Store's or Android Market's
                                    search to find the application.
                           Ten Thousand Fists                                

I hope it's not confusing for you all!
                                                                       Disturbed
Dan Donegan

Here's the sitar intro:


       E  E  E   E  E  E  E  E     E   E  E  E  E   E  E  E   
D#||------7-----10-----5-----7--|--L--10-----5---------7-----|
A#||---5-----5------5-----5-----|---------5-----5s--8-----8--|
F#||*---------------------------|----------------------------|
C#||*---------------------------|----------------------------|
G#||----------------------------|----------------------------|
C#||----------------------------|----------------------------|


  E  E  E   E  E  E  E  E     E   E  E  E  E   E  E  E     
-----7-----10-----5-----7--|--L--10-----5---------7------||
--5-----5------5-----5-----|---------5-----5s--8-----8---||
---------------------------|----------------------------*||
---------------------------|----------------------------*||
---------------------------|-----------------------------||
---------------------------|-----------------------------||


  E  E  E   E  E  E  E  E     E   E  E  E  E   E  E  E   
-----7-----10-----5-----7--|--L--10-----5---------7-----|
--5-----5------5-----5-----|---------5-----5s--8-----8--|
---------------------------|----------------------------|
---------------------------|----------------------------|
---------------------------|----------------------------|
---------------------------|----------------------------|


  E  E  E   E  E  E  E  E     E   E  E  E  H                                 
-----7-----10-----5-----7--|--L--10-----5-----------|
--5-----5------5-----5-----|---------5--------------|
---------------------------|------------------------|
---------------------------|------------------------|
---------------------------|------------------------|
---------------------------|------------------------|

  
This is being played behind the sitar intro:
    Q.     E  E  E  E  E     E  E  Q    E  E  Q       Q.     E  E  E  E  E   
D#|----------------0--------|------------------------|---------------0------
A#|-------------------3--2--|--L--3--2----L----------|------------------3--2
F#|*------------------------|----------------2--0----|-----------------------
C#|*------------------------|------------------------|-----------------------
G#|-------------------------|------------------------|-----------------------
C#|---0------2--L-----------|------------------------|--0------2--L----------


  E  E  H.                Q.     E  E  E  E  E     E  E  Q    E  E  Q     
----------------------||---------------0--------|------------------------|
--L--3--0-------------||------------------3--2--|--L--3--2----L----------|
---------------------*||------------------------|----------------2--0----|
---------------------*||------------------------|------------------------|
----------------------||------------------------|------------------------|
----------------------||--0------2--L-----------|------------------------|


  Q.     E  E  E  E  E     E  E  H.                                            
---------------0--------|---------------------|
------------------3--2--|--L--3--0------------|
------------------------|---------------------|
------------------------|---------------------|
------------------------|---------------------|
--0------2--L-----------|---------------------|



Here's the main part starting at the intro:

      S S S S E  S S S S S S S S S S    S S S S E  S S S S E  S S S S  
D#||----------------------------------|--------------------------------|
A#||----------------------------------|--------------------------------|
F#||*---------------------------------|--------------------------------|
C#||*---------------------------------|--------------------------------|
G#||---3-2-0-2----3-2-0-2-0-2-3-2-0-2-|--3-2-0-2----3-2-0-2----3-2-0-2-|
C#||----------------------------------|--------------------------------|


  S S S S E  S S S S S S S S S S    S S S S E  S S S S E  S S S S    
---------------------------------|---------------------------------||
---------------------------------|---------------------------------||
---------------------------------|--------------------------------*||
---------------------------------|--------------------------------*||
--3-2-0-2----3-2-0-2-0-2-3-2-0-2-|--3-2-0-2----3-2-0-2----3-2-0-2--||
---------------------------------|---------------------------------||


  S S S S E  S S S S S S S S S S    S S S S E  S S S S E  S S S S  
---------------------------------|--------------------------------|
---------------------------------|--------------------------------|
---------------------------------|--------------------------------|
---------------------------------|--------------------------------|
--3-2-0-2----3-2-0-2-0-2-3-2-0-2-|--3-2-0-2----3-2-0-2----3-2-0-2-|
---------------------------------|--------------------------------|


  S S S S E  S S S S S S S S S S    S S S S E  S S S S E  Q     
---------------------------------|-----------------------------|
---------------------------------|-----------------------------|
---------------------------------|-----------------------------|
---------------------------------|-----------------------------|
--3-2-0-2----3-2-0-2-0-2-3-2-0-2-|--3-2-0-2----3-2-0-2---------|
---------------------------------|-----------------------------|


  S S S S E  S S S S S S S S S S    S S S S E  S S S E.  S S S S  
---------------------------------|-------------------------------|
---------------------------------|-------------------------------|
---------------------------------|-------------------------------|
---------------------------------|-------------------------------|
---------------------------------|-------------------------------|
--3-2-0-2-L--3-2-0-2-0-2-3-2-0-2-|--3-2-0-2-L--3-2-0-2---3-2-0-2-|


                                                           >      
  S S S S E  S S S S S S S S S S    S S S S E  S S S E.    Q      
---------------------------------|-------------------------------|
---------------------------------|-------------------------------|
---------------------------------|-------------------------------|
---------------------------------|-------------------------------|
---------------------------------|-----------------------/14~----|
--3-2-0-2-L--3-2-0-2-0-2-3-2-0-2-|--3-2-0-2-L--3-2-0-2-----------|


  S S S S E  S S S S S S S S S S    S S S S E  S S S E.  S S S S  
---------------------------------|-------------------------------|
---------------------------------|-------------------------------|
---------------------------------|-------------------------------|
---------------------------------|-------------------------------|
---------------------------------|-------------------------------|
--3-2-0-2-L--3-2-0-2-0-2-3-2-0-2-|--3-2-0-2-L--3-2-0-2---3-2-0-2-|


                                                           >   NH  NH  NH 
  S S S S E  S S S S S S S S S S    S S S S E  S S S E.    S   S   S   S  
---------------------------------|---------------------------------------|
---------------------------------|---------------------------------------|
---------------------------------|---------------------------------------|
---------------------------------|---------------------------------------|
---------------------------------|---------------------------------------|
--3-2-0-2-L--3-2-0-2-0-2-3-2-0-2-|--3-2-0-2-L--3-2-0-2---<>5-<>5-<>5-<>5-|


INTRO
  S S S S E  E  S E.  E  S S      E.  S S E  S S E  S S S S S  
-----------------------------|--------------------------------|
-----------------------------|--------------------------------|
-----------------------------|--------------------------------|
-----------------------------|--------------------------------|
-----------------------------|--------------------------------|
--3-2-0-2-L--2--L-2---2--2-2-|--6g5---5-L-5--5-L-3--3---8-8-8-|


  S S S S E  S S S S S S S S S S    S S S S E  S S S S E  S S S S  
---------------------------------|--------------------------------|
---------------------------------|--------------------------------|
---------------------------------|--------------------------------|
---------------------------------|--------------------------------|
--3-2-0-2----3-2-0-2-0-2-3-2-0-2-|--3-2-0-2----3-2-0-2----3-2-0-2-|
--3-2-0-2----3-2-0-2-0-2-3-2-0-2-|--3-2-0-2----3-2-0-2----3-2-0-2-|


  S S S S E  E  S E.  E  S S      E.  S S E  S S E  S S S S S  
-----------------------------|--------------------------------|
-----------------------------|--------------------------------|
-----------------------------|--------------------------------|
-----------------------------|--------------------------------|
-----------------------------|--------------------------------|
--3-2-0-2-L--2--L-2---2--2-2-|--6g5---5-L-5--5-L-3--3---0-0-0-|


  S S S S E  S S S S S S S S S S    S S S S E  S S S S E  S S S S  
---------------------------------|--------------------------------|
---------------------------------|--------------------------------|
---------------------------------|--------------------------------|
---------------------------------|--------------------------------|
--3-2-0-2----3-2-0-2-0-2-3-2-0-2-|--3-2-0-2----3-2-0-2----x-x---x-|
--3-2-0-2----3-2-0-2-0-2-3-2-0-2-|--3-2-0-2----3-2-0-2----x-x---x-|

CHORUS
  E.  S E  E  E.  S E  E     E.  S E  E  E.  S E    E   
--------------------------|----------------------------|
--------------------------|----------------------------|
--4---9-L--4--6-----------|------7-L-------------------|
--2---9-L--2--4---7-L--7--|--5---7-L---------7-L/--12--|
--2---7-L--2--4---5-L--4--|--5---5-L--5--7---5-L/--10--|
--2--------2--4--------4--|--5--------5--7-------------|


                                                   NH  NH  NH 
  E.  S E  E  E.  S E  E     E.  S E  E  E.  S S   S   S   S  
--------------------------|----------------------------------|
--------------------------|----------------------------------|
--4---9-L--4--6-----------|------7-L---------------------<>5-|
--2---9-L--2--4---7-L--7--|--5---7-L---------7-L-----<>5-----|
--2---7-L--2--4---5-L--4--|--5---5-L--5--7---5-L-<>5---------|
--2--------2--4--------4--|--5--------5--7-------------------|


  E.  S E  E  E.  S E  E     E.  S E  E  E.  S E    E   
--------------------------|----------------------------|
--------------------------|----------------------------|
--4---9-L--4--6-----------|------7-L-------------------|
--2---9-L--2--4---7-L--7--|--5---7-L---------7-L/--12--|
--2---7-L--2--4---5-L--4--|--5---5-L--5--7---5-L/--10--|
--2--------2--4--------4--|--5--------5--7-------------|


                    PM PM       >   >    >  >   >    >   
  E.  S E  E  E  E  S  S  E     E.  S E  E  E.  S E  E   
-----------2--L--------------|--------------------------|
-----------3--L--------------|--------------------------|
--4---9-L--2--L--7--------7--|--------------------------|
--2---9-L--0--L--7--------7--|--5---4-L--5--------------|
--2---7-L--0--L--5--------5--|--3---3-L--3--5---7-L--5--|
--2--------0--L--0--0--0--0--|--------------5---7-L--5--|


  S S S S E  S S S S S S S S S S    S S S S E  S S S E.  S S S S  
---------------------------------|-------------------------------|
---------------------------------|-------------------------------|
---------------------------------|-------------------------------|
---------------------------------|-------------------------------|
---------------------------------|-------------------------------|
--3-2-0-2-L--3-2-0-2-0-2-3-2-0-2-|--3-2-0-2-L--3-2-0-2---3-2-0-2-|


                                                           >   NH  NH  NH 
  S S S S E  S S S S S S S S S S    S S S S E  S S S E.    S   S   S   S  
---------------------------------|---------------------------------------|
---------------------------------|---------------------------------------|
---------------------------------|---------------------------------------|
---------------------------------|---------------------------------------|
---------------------------------|---------------------------------------|
--3-2-0-2-L--3-2-0-2-0-2-3-2-0-2-|--3-2-0-2-L--3-2-0-2---<>5-<>5-<>5-<>5-|

VERSE
  S S S S E  E  S E.  E  S S      E.  S S E  S S E  S S S S S  
-----------------------------|--------------------------------|
-----------------------------|--------------------------------|
-----------------------------|--------------------------------|
-----------------------------|--------------------------------|
-----------------------------|--------------------------------|
--3-2-0-2-L--2--L-2---2--2-2-|--6g5---5-L-5--5-L-3--3---8-8-8-|


  S S S S E  S S S S S S S S S S    S S S S E  S S S S E  S S S S  
---------------------------------|--------------------------------|
---------------------------------|--------------------------------|
---------------------------------|--------------------------------|
---------------------------------|--------------------------------|
--3-2-0-2----3-2-0-2-0-2-3-2-0-2-|--3-2-0-2----3-2-0-2----3-2-0-2-|
--3-2-0-2----3-2-0-2-0-2-3-2-0-2-|--3-2-0-2----3-2-0-2----3-2-0-2-|


  S S S S E  E  S E.  E  S S      E.  S S E  S S E  S S S S S  
-----------------------------|--------------------------------|
-----------------------------|--------------------------------|
-----------------------------|--------------------------------|
-----------------------------|--------------------------------|
-----------------------------|--------------------------------|
--3-2-0-2-L--2--L-2---2--2-2-|--6g5---5-L-5--5-L-3--3---0-0-0-|


  S S S S E  S S S S S S S S S S    S S S S E  S S S S E  S S S S  
---------------------------------|--------------------------------|
---------------------------------|--------------------------------|
---------------------------------|--------------------------------|
---------------------------------|--------------------------------|
--3-2-0-2----3-2-0-2-0-2-3-2-0-2-|--3-2-0-2----3-2-0-2----x-x---x-|
--3-2-0-2----3-2-0-2-0-2-3-2-0-2-|--3-2-0-2----3-2-0-2----x-x---x-|

CHORUS
  E.  S E  E  E.  S E  E     E.  S E  E  E.  S E    E   
--------------------------|----------------------------|
--------------------------|----------------------------|
--4---9-L--4--6-----------|------7-L-------------------|
--2---9-L--2--4---7-L--7--|--5---7-L---------7-L/--12--|
--2---7-L--2--4---5-L--4--|--5---5-L--5--7---5-L/--10--|
--2--------2--4--------4--|--5--------5--7-------------|


                                                   NH  NH  NH 
  E.  S E  E  E.  S E  E     E.  S E  E  E.  S S   S   S   S  
--------------------------|----------------------------------|
--------------------------|----------------------------------|
--4---9-L--4--6-----------|------7-L---------------------<>5-|
--2---9-L--2--4---7-L--7--|--5---7-L---------7-L-----<>5-----|
--2---7-L--2--4---5-L--4--|--5---5-L--5--7---5-L-<>5---------|
--2--------2--4--------4--|--5--------5--7-------------------|


  E.  S E  E  E.  S E  E     E.  S E  E  E.  S E    E   
--------------------------|----------------------------|
--------------------------|----------------------------|
--4---9-L--4--6-----------|------7-L-------------------|
--2---9-L--2--4---7-L--7--|--5---7-L---------7-L/--12--|
--2---7-L--2--4---5-L--4--|--5---5-L--5--7---5-L/--10--|
--2--------2--4--------4--|--5--------5--7-------------|


                    PM PM       >   >    >  >   >    >                       
  E.  S E  E  E  E  S  S  E     E.  S E  E  E.  S E  E     W                 
-----------2--L--------------|--------------------------|-------------------|
-----------3--L--------------|--------------------------|-------------------|
--4---9-L--2--L--7--------7--|--------------------------|-------------------|
--2---9-L--0--L--7--------7--|--5---4-L--5--------------|--2----------------|
--2---7-L--0--L--5--------5--|--3---3-L--3--5---7-L--5--|--2----------------|
--2--------0--L--0--0--0--0--|--------------5---7-L--5--|--2----------------|

Here's the "solo":
  W                   E  Q    E  Q    E  E     E  E  Q    E.   S Q     
-------------------|------------------------|-------------------------|
-------------------|------------------------|-------------------------|
-------------------|------------------------|-------------------------|
--L----------------|--7--6----7-------7--6--|--L--7--9----------------|
--L----------------|-------------7----------|-------------------------|
--L----------------|------------------------|-------------5b---L-5----|


  H          E  Q       E      E  Q.       S S E  S S E   
----------------------------|----------------------------|
----------------------------|----------------------------|
----------------------------|----------------------------|
----------------6br----(6)--|--L-------------0-3--L-0-3--|
----------------------------|--------------1-------------|
--8br--------9--------------|-----3br--------------------|


  E  Q    E  Q    E  E     E  E  Q    E.   S Q       H         E  Q       E    
------------------------|-------------------------|--------------------------
------------------------|-------------------------|--------------------------
------------------------|-------------------------|--------------------------
--7--6----7-------7--6--|--L--7--9----------------|--5b--------5-------------
-------------7----------|-------------------------|---------------7br----(7)-
------------------------|-------------5b---L-5----|--------------------------

                               Breakdown actually starts here:
  E  Q.       S  S E  S S E       S S E  E  S S S S E  Q     
-----------------------------||-----------------------------|
-----------------------------||-----------------------------|
-----------------------------||*----4-4-----4-4---4-4-------|
-----------------------------||*----2-2-----2-2---2-2-------|
--L----------------5--L---5--||-----2-2-----2-2---2-2-------|
-----3br------5h-7------7----||-----2-2-----2-2---2-2-------|


Guitar 2 to harmonize it:

 E  Q    E  Q    E  E     E  E  Q    E.   S Q     
|------------------------|-------------------------|
|------------------------|-------------------------|
|------------------------|-------------------------|
|--3--2----3-------3--2--|--L--3--5----------------|
|-------------2----------|-------------------------|
|------------------------|-------------5b---L-5----|


  H          E  Q      E      E  Q.       S S E  S S E   
---------------------------|----------------------------|
---------------------------|----------------------------|
---------------------------|----------------------------|
---------------------------|------------------0--L---0--|
----------------7b----(7)--|--L-------------1------1----|
--8br--------9-------------|-----3br------3-------------|


  E  Q    E  Q    E  E     E  E  Q    E.   S Q       H         E  Q     E   
------------------------|-------------------------|------------------------|
------------------------|-------------------------|------------------------|
------------------------|-------------------------|------------------------|
--3--2----3-------3--2--|--L--3--5----------------|--2b--------2-----------|
-------------2----------|-------------------------|---------------2b----2--|
------------------------|-------------5b---L-5----|------------------------|


  E  Q.       S  S E  S S E                                                 
-----------------------------||
-----------------------------||
-----------------------------||
-----------------------------||
--L--5br-----------5--L---5--||
--------------5h-7------7----||



Guitar 3 behind them:
 >     >    >                                  >     >    >            
  S S S S E  E  H           W                   S S S S E  E  H         
-------------------------|-------------------|-------------------------|
-------------------------|-------------------|-------------------------|
-------------------------|-------------------|-------------------------|
--2-----2----2-----------|-------------------|--2-----2----2-----------|
--2-----2----2-----------|-------------------|--2-----2----2-----------|
--2-----2----2-----------|-------------------|--2-----2----2-----------|


                              >     >    >                                
  H        S S S S S S S S    S S S S E  E  H           W                 
-----------1-1-1-1-1-1-1-1-|-------------------------|-------------------|
-----------3-3-3-3-3-3-3-3-|-------------------------|-------------------|
-----------2-2-2-2-2-2-2-2-|-------------------------|-------------------|
-----------0-0-0-0-0-0-0-0-|--2-----2----2-----------|-------------------|
---------------------------|--2-----2----2-----------|-------------------|
---------------------------|--2-----2----2-----------|-------------------|


  >     >    >                                                                
  S S S S E  E  H           H        S S S S S S S S                          
-------------------------|-----------1-1-1-1-1-1-1-1-||-----|----|----|-----
-------------------------|-----------3-3-3-3-3-3-3-3-||-----|----|----|-----
-------------------------|-----------2-2-2-2-2-2-2-2-||*----|----|----|----*
--2-----2----2-----------|-----------0-0-0-0-0-0-0-0-||*----|----|----|----*
--2-----2----2-----------|---------------------------||-----|----|----|-----
--2-----2----2-----------|---------------------------||-----|----|----|-----

  




Back to guitar 1:

    E  E  S S E  S S S S S S E     S S E  E  S S S S E  Q     
------------------------------|----------------------------|
---------------3-3-3-3-3-3----|----------------------------|
-----4----4-4--2-2-2-2-2-2----|----4-4-----4-4---4-4-------|
-----2----2-2--0-0-0-0-0-0-3--|----2-2-----2-2---2-2-------|
-----2----2-2--0-0-0-0-0-0-3--|----2-2-----2-2---2-2-------|
-----2----2-2--0-0-0-0-0-0-3--|----2-2-----2-2---2-2-------|


  E  E  S S E  S S S S S S E       E  E  S S E  S S S S S S E   
-------------------------------||------------------------------|
---------------3-3-3-3-3-3-----||---------------3-3-3-3-3-3----|
-----4----4-4--2-2-2-2-2-2----*||-----4----4-4--2-2-2-2-2-2----|
-----2----2-2--0-0-0-0-0-0-3--*||-----2----2-2--0-0-0-0-0-0-3--|
-----2----2-2--0-0-0-0-0-0-3---||-----2----2-2--0-0-0-0-0-0-3--|
-----2----2-2--0-0-0-0-0-0-3---||-----2----2-2--0-0-0-0-0-0-3--|

Chorus
  E.  S E  E  E.  S E  E     E.  S E  E  E.  S E    E   
--------------------------|----------------------------|
--------------------------|----------------------------|
--4---9-L--4--6-----------|------7-L-------------------|
--2---9-L--2--4---7-L--7--|--5---7-L---------7-L/--12--|
--2---7-L--2--4---5-L--4--|--5---5-L--5--7---5-L/--10--|
--2--------2--4--------4--|--5--------5--7-------------|


                                                   NH  NH  NH 
  E.  S E  E  E.  S E  E     E.  S E  E  E.  S S   S   S   S  
--------------------------|----------------------------------|
--------------------------|----------------------------------|
--4---9-L--4--6-----------|------7-L---------------------<>5-|
--2---9-L--2--4---7-L--7--|--5---7-L---------7-L-----<>5-----|
--2---7-L--2--4---5-L--4--|--5---5-L--5--7---5-L-<>5---------|
--2--------2--4--------4--|--5--------5--7-------------------|


  E.  S E  E  E.  S E  E     E.  S E  E  E.  S E    E   
--------------------------|----------------------------|
--------------------------|----------------------------|
--4---9-L--4--6-----------|------7-L-------------------|
--2---9-L--2--4---7-L--7--|--5---7-L---------7-L/--12--|
--2---7-L--2--4---5-L--4--|--5---5-L--5--7---5-L/--10--|
--2--------2--4--------4--|--5--------5--7-------------|


                    PM PM       >   >    >  >   >    >   
  E.  S E  E  E  E  S  S  E     E.  S E  E  E.  S E  E   
-----------2--L--------------|--------------------------|
-----------3--L--------------|--------------------------|
--4---9-L--2--L--7--------7--|--------------------------|
--2---9-L--0--L--7--------7--|--5---4-L--5--------------|
--2---7-L--0--L--5--------5--|--3---3-L--3--5---7-L--5--|
--2--------0--L--0--0--0--0--|--------------5---7-L--5--|


Outro                                                >   >    >   
  S S S S E  S S S S S S S S S S    S S S S E  S S E.  S E  E   
---------------------------------|-----------------------------|
---------------------------------|-----------------------------|
---------------------------------|-----------------------------|
---------------------------------|-----------------------L-----|
---------------------------------|--3-2-0-2-L--3-2-5---7-L--5--|
--3-2-0-2-L--3-2-0-2-0-2-3-2-0-2-|--3-2-0-2-L--3-2-5---7----5--|


                                                   >   >    >   
  S S S S E  S S S S S S S S S S    S S S S E  S S E.  S E  E   
---------------------------------|-----------------------------|
---------------------------------|-----------------------------|
---------------------------------|-----------------------------|
---------------------------------|-----------------------L-----|
---------------------------------|--3-2-0-2-L--3-2-5---7-L--5--|
--3-2-0-2-L--3-2-0-2-0-2-3-2-0-2-|--3-2-0-2-L--3-2-5---7----5--|


                                                   >   >    >   
  S S S S E  S S S S S S S S S S    S S S S E  S S E.  S E  E   
---------------------------------|-----------------------------|
---------------------------------|-----------------------------|
---------------------------------|-----------------------------|
---------------------------------|-----------------------L-----|
---------------------------------|--3-2-0-2-L--3-2-5---7-L--5--|
--3-2-0-2-L--3-2-0-2-0-2-3-2-0-2-|--3-2-0-2-L--3-2-5---7----5--|


                                                   >   >    >   
  S S S S E  S S S S S S S S S S    S S S S E  S S E.  S E  E   
---------------------------------|-----------------------------|
---------------------------------|-----------------------------|
---------------------------------|-----------------------------|
---------------------------------|-----------------------L-----|
---------------------------------|--3-2-0-2-L--3-2-5---7-L--5--|
--3-2-0-2-L--3-2-0-2-0-2-3-2-0-2-|--3-2-0-2-L--3-2-5---7----5--|


  E  E  Q    H          
----------------------||
----------------------||
----------------------||
--2-------------------||
--2-------------------||
--2-------------------||




Duration Legend
---------------
W - whole
H - half
Q - quarter
E - 8th
S - 16th
T - 32nd
X - 64th
. - note dotted
|-n-|  - n-tuplets


Tablature Legend
----------------
L - tied note
x - dead note
g - grace note
(n) - ghost note
> - accentuded note
NH - natural harmonic
AH - artificial harmonic
TH - tapped harmonic
SH - semi harmonic
PH - pitch harmonic
h - hammer on
p - pull off
b - bend
br - bendRelease
pb - preBend
pbr - preBendRelease
brb - bendReleaseBend
\n/ - tremolo bar dip
\n - tremolo bar dive
-/n - tremolo bar Release up
/n\ - tremolo bar inverted dip
/n - tremolo bar return
-\n - tremolo bar Release down
S - shift slide
s - legato slide
/ -  slide into from below or out of upwards
\ -  slide into from above or out of downwards
~ - vibrato
W - wide vibrato
tr - trill
TP - tremolo picking
T - tapping
S - slap
P - pop
< - fade in
^ - brush up
v - brush down




comments
We did not receive enough feedback on this tab! Please rate:
print report bad tab
1 2 3 4 5
I want to post or [tab]
guest
You may want to rate the tab now too:
select rating
Please do not post tabs as comments. Select "correction" instead!