Oops, an error
Loading. Please wait.

The Night Tab

ver1
ver1

Intro

Solo

Whole song

Video

More versions @911Tabs.com
37,660 views 224 this week
6 commentsread comments
1 2 3 4 5
accurate
x 5
Autoscroll
+/-
esc
set tempo
stop
Contributor
WARNING: You are trying to view
                                    content from Ultimate-Guitar.com
                                    in an unauthorized application,
                                    which is prohibited.

                                    Please use an official Ultimate
                                    Guitar Tabs application for iPhone,
                                    iPad or Android to access legitimate
                                    chords, guitar, bass, and drum tabs
                                    from Ultimate-Guitar.com database.

                                    Type "ultimate guitar tabs" in Apple
                                    App Store's or Android Market's
                                    search to find the application.
-------------------------------------------------------------------------------
                            "The Night" --- Disturbed
-------------------------------------------------------------------------------


Tabbed by: [travis]



Tuning: C G C F A D (low to high)



*Update 1 (April 21, 2009):
 I didn't write that you had to gradually decrease a bend in the solo
 while you're picking the notes.


This song has a real easy, cool solo. The guitar solo
has a really similar lick like the one in "Stricken." I guess that's
Dan's signature lick.



Key: F Major (F G A Bb C D E) 



Legend:

... = palm mute
h = hammer on
p = pull off
! = tremelo pick
* = pinch harmonic
b = bend
pb = pre bend
() = note not picked / bent note back to normal note
~ = vibrato/ring
" = harmonics
1 = whole step bend
.5 = half step bend
1.5 = whole step and a half
T = tap
x = muffled string
/ = slide up
\ = slide down
__ = hold bend
h/ = pick once
p\ = pick once
h/p\ = pick once



====================================
Intro:

Guitar 1:
D|----------------------------------0-------8-|
A|------------------------------------6--/8---|
F|-------------------------------/7-----------|
C|-----------/8-7~~~-------/8-7---------------|
G|---/6-5--------------6-5--------------------|
C|-0-------0---------0------------------------|

Guitar 2:
D|-----------------------|
A|-----------------------|
F|-----------------------|
C|-0~~~~~~~~~~~~~~~~~~~~-|
G|-0~~~~~~~~~~~~~~~~~~~~-|
C|-0~~~~~~~~~~~~~~~~~~~~-|


======================================
Guitar 1:
D|-----------------------------------------------------|
A|-----------------------------------------------------|
F|-----------------------------------------------------|
C|-8---------8---------8-----7---------7---------7-----|
G|-6---------6---------6-----6---------6---------6-----|
C|---0-0-0-0---0-0-0-0---0-0---0-0-0-0---0-0-0-0---0-0-|
     .......   .......   ...   .......   .......   ...

Guitar 2:
D|-----------------------------------------------------|
A|-----------------------------------------------------|
F|-----------------------------------------------------|
C|-----------------------------------------------------|
G|---0-0-0-0---0-0-0-0---0-0---0-0-0-0---0-0-0-0---0-0-|
C|---0-0-0-0---0-0-0-0---0-0---0-0-0-0---0-0-0-0---0-0-|
     .......   .......   ...   .......   .......   ...


=======================================
Guitar 1:
D|----------------------------------0--------|
A|------------------------------------6--8---|
F|-------------------------------/7--------9-|
C|-----------/8-7~~~-------/8-7--------------|
G|---/6-5--------------6-5-------------------|
C|-0-------0---------0-----------------------|

Guitar 2:
D|----------------------|
A|----------------------|
F|----------------------|
C|-0~~~~----0~~~~-----0-|
G|-0~~~~----0~~~~-----0-|
C|-0~~~~----0~~~~-----0-|

==========================================
Guitar 1:
D|-----------------------------------------------------|
A|-----------------------------------------------------|
F|-----------------------------------------------------|
C|-8---------8---------8-----7---------7---------7-----|
G|-6---------6---------6-----6---------6---------6-----|
C|---0-0-0-0---0-0-0-0---0-0---0-0-0-0---0-0-0-0---0-0-|
     .......   .......   ...   .......   .......   ...

Guitar 2:
D|-----------------------------------------------------|
A|-----------------------------------------------------|
F|-----------------------------------------------------|
C|-----------------------------------------------------|
G|---0-0-0-0---0-0-0-0---0-0---0-0-0-0---0-0-0-0---0-0-|
C|---0-0-0-0---0-0-0-0---0-0---0-0-0-0---0-0-0-0---0-0-|
     .......   .......   ...   .......   .......   ...

============================================
Verse 1:

Guitar 1:
D|----------------------------------0-------8-|
A|------------------------------------6--/8---|
F|-------------------------------/7-----------|
C|-----------/8-7~~~-------/8-7---------------|
G|---/6-5--------------6-5--------------------|
C|-0-------0---------0------------------------|

=============================================
Guitar 1:
D|-----------------------------------------------------|
A|-----------------------------------------------------|
F|-----------------------------------------------------|
C|-8---------8---------8-----7---------7---------7-----|
G|-6---------6---------6-----6---------6---------6-----|
C|---0-0-0-0---0-0-0-0---0-0---0-0-0-0---0-0-0-0---0-0-|
     .......   .......   ...   .......   .......   ...

==============================================
Guitar 1:
D|----------------------------------0--------|
A|------------------------------------6--8---|
F|-------------------------------/7--------9-|
C|-----------/8-7~~~-------/8-7--------------|
G|---/6-5--------------6-5-------------------|
C|-0-------0---------0-----------------------|



===============================================
Guitar 1:
D|-----------------------------------------------------|
A|-----------------------------------------------------|
F|-----------------------------------------------------|
C|-8---------8---------8-----7---------7---------7-----|
G|-6---------6---------6-----6---------6---------6-----|
C|---0-0-0-0---0-0-0-0---0-0---0-0-0-0---0-0-0-0---0-0-|
     .......   .......   ...   .......   .......   ...

===============================================
"Why? For saving me..."

Guitar 1:
D|-----------------------------------------------------------------------------------------|
A|-----------------------------------------------------------------------------------------|
F|-----------------------------------------------------------------------------------------|
C|-0---------------------------------------------------------------------------------------|
G|-0--0--0--0-0--0--0--0-0--0--0--0-0--0--0--1-1--1--3-3-3-3--0--0-0--0--0--0-0--0--0--0-0-|
C|-0--0--0--0-0--0--0--0-0--0--0--0-0--0--0--1-1--1--3-3-3-3--0--0-0--0--0--0-0--0--0--0-0-|
      ....................................................................................

================================================
Guitar 1:
D|--------------------------------------------------------------------------------------------|
A|--------------------------------------------------------------------------------------------|
F|--------------------------------------------------------------------------------------------|
C|--------------------------------------------------------------------------------------------|
G|-0--0-0--0--0--3-3--3--1-1-1-3--0--0-0--0--0--0-0--0--0--0-0--0--0-0--0--0--1-1--1--3-3-3-3-|
C|-0--0-0--0--0--3-3--3--1-1-1-3--0--0-0--0--0--0-0--0--0--0-0--0--0-0--0--0--1-1--1--3-3-3-3-|
   ..........................................................................................

=================================================
Guitar 1:
D|-------------------------------------------------------------|
A|-------------------------------------------------------------|
F|-------------------------------------------------------------|
C|-------------------------------------------------------------|
G|-0--0-0--0--0--0-0--0--0--0-0--0--0-0--0--0--3-3--3--1-1-1-3-|
C|-0--0-0--0--0--0-0--0--0--0-0--0--0-0--0--0--3-3--3--1-1-1-3-|
   ...........................................................

End of Verse 1.
=================================================
Pre Chorus 1:

Guitar 1:
D|--------------------------------------------------------------|
A|--------------------------------------------------------------|
F|--------------------------------------------------------------|
C|-6~~-5-----6~~~-5-----5-----5---6-5-6-5-------6~~-5~~~--8-8-8-|
G|-6~~-5-----6~~~-5-----5-----5---6-5-6-5-------6~~-5~~~--8-8-8-|
C|-6~~-5-0-0-6~~~-5-0-0-5-0-0-5-0-6-5-6-5-0-0-0-6~~-5~~~--8-8-8-|
         ...        ...   ...   .         .....  

==================================================
Guitar 1:
D|----------------------------------------------------------|
A|----------------------------------------------------------|
F|----------------------------------------------------------|
C|-6~~-5-----6~~~-5-----5-----5---6-5-6-5-------6~~-5~~~--3-|
G|-6~~-5-----6~~~-5-----5-----5---6-5-6-5-------6~~-5~~~--3-|
C|-6~~-5-0-0-6~~~-5-0-0-5-0-0-5-0-6-5-6-5-0-0-0-6~~-5~~~--3-|
         ...        ...   ...   .         .....

End of Pre Chorus 1.
===================================================
Chorus 1:

Guitar 1:
D|-----------------------------------------------------------------------------------------------|
A|-----------------------------------------------------------------------------------------------|
F|-----------------------------------------------------------------------------------------------|
C|-5-5-5-5---5-5-5-5---5---5-5-5---1-1-1-1---1-1-1-1---1---1-1-1---------------------------------|
G|-5-5-5-5---5-5-5-5---5---5-5-5-0-1-1-1-1---1-1-1-1---1---1-1-1-0-------------------------------|
C|-5-5-5-5---5-5-5-5---5---5-5-5-0-1-1-1-1---1-1-1-1---1---1-1-1-0--8-8-8-8--8-8-8-8--8--8-8-8-7-|

===================================================
Guitar 1:
D|---------------------------------------------------------------------------------------------|
A|---------------------------------------------------------------------------------------------|
F|---------------------------------------------------------------------------------------------|
C|-0---------0---------3--3----5-5-5-5---5-5-5-5---5---5-5-5---1-1-1-1---1-1-1-1---1---1-1-1---|
G|-0---------0---------3--3----5-5-5-5---5-5-5-5---5---5-5-5-0-1-1-1-1---1-1-1-1---1---1-1-1-0-|
C|-0-0-0-0-0-0-0-0-0-0-3--3----5-5-5-5---5-5-5-5---5---5-5-5-0-1-1-1-1---1-1-1-1---1---1-1-1-0-|
     .......   .......

===================================================
Guitar 1:
D|-----------------------------------------------------------------|
A|-----------------------------------------------------------------|
F|-----------------------------------------------------------------|
C|----------------------------------10--10--10--10--10--10--10--10-|
G|----------------------------------10--10--10--10--10--10--10--10-|
C|-8-8-8-8---8-8-8-8---8---8-8-8-7--10--10--10--10--10--10--10--10-|

                                    ......
End of Chorus 1.
====================================================
Interlude 1:

Guitar 1:
D|----------------------------------0-------8-|
A|------------------------------------6--/8---|
F|-------------------------------/7-----------|
C|-----------/8-7~~~-------/8-7---------------|
G|---/6-5--------------6-5--------------------|
C|-0-------0---------0------------------------|

=====================================================
Guitar 1:
D|-----------------------------------------------------|
A|-----------------------------------------------------|
F|-----------------------------------------------------|
C|-8---------8---------8-----7---------7---------7-----|
G|-6---------6---------6-----6---------6---------6-----|
C|---0-0-0-0---0-0-0-0---0-0---0-0-0-0---0-0-0-0---0-0-|
     .......   .......   ...   .......   .......   ...

End of Interlude 1.
======================================================
Verse 2:

Guitar 1:
D|----------------------------------0-------8-|
A|------------------------------------6--/8---|
F|-------------------------------/7-----------|
C|-----------/8-7~~~-------/8-7---------------|
G|---/6-5--------------6-5--------------------|
C|-0-------0---------0------------------------|

=======================================================
Guitar 1:
D|-----------------------------------------------------|
A|-----------------------------------------------------|
F|-----------------------------------------------------|
C|-8---------8---------8-----7---------7---------7-----|
G|-6---------6---------6-----6---------6---------6-----|
C|---0-0-0-0---0-0-0-0---0-0---0-0-0-0---0-0-0-0---0-0-|
     .......   .......   ...   .......   .......   ...

=======================================================

Guitar 1:
D|----------------------------------0--------|
A|------------------------------------6--8---|
F|-------------------------------/7--------9-|
C|-----------/8-7~~~-------/8-7--------------|
G|---/6-5--------------6-5-------------------|
C|-0-------0---------0-----------------------|

========================================================
Guitar 1:
D|-----------------------------------------------------|
A|-----------------------------------------------------|
F|-----------------------------------------------------|
C|-8---------8---------8-----7---------7---------7-----|
G|-6---------6---------6-----6---------6---------6-----|
C|---0-0-0-0---0-0-0-0---0-0---0-0-0-0---0-0-0-0---0-0-|
     .......   .......   ...   .......   .......   ...

=========================================================
Guitar 1:
D|-----------------------------------------------------------------------------------------|
A|-----------------------------------------------------------------------------------------|
F|-----------------------------------------------------------------------------------------|
C|-0---------------------------------------------------------------------------------------|
G|-0--0--0--0-0--0--0--0-0--0--0--0-0--0--0--1-1--1--3-3-3-3--0--0-0--0--0--0-0--0--0--0-0-|
C|-0--0--0--0-0--0--0--0-0--0--0--0-0--0--0--1-1--1--3-3-3-3--0--0-0--0--0--0-0--0--0--0-0-|
      ....................................................................................

================================================
Guitar 1:
D|--------------------------------------------------------------------------------------------|
A|--------------------------------------------------------------------------------------------|
F|--------------------------------------------------------------------------------------------|
C|--------------------------------------------------------------------------------------------|
G|-0--0-0--0--0--3-3--3--1-1-1-3--0--0-0--0--0--0-0--0--0--0-0--0--0-0--0--0--1-1--1--3-3-3-3-|
C|-0--0-0--0--0--3-3--3--1-1-1-3--0--0-0--0--0--0-0--0--0--0-0--0--0-0--0--0--1-1--1--3-3-3-3-|
   ..........................................................................................


=================================================
Guitar 1:
D|-----------------------------------------------------------------------|
A|-----------------------------------------------------------------------|
F|-----------------------------------------------------------------------|
C|-12\-----------13\-------12\-------10-------12\------------------------|
G|-12\--0-0-0-0--13\--0-0--12\--0-0--10--0-0--12\--0-0-0-0---0-0-3-3-1-3-|
C|-12\--0-0-0-0--13\--0-0--12\--0-0--10--0-0--12\--0-0-0-0---0-0-3-3-1-3-|
        .......       ...       ...      ...       ......................

End of Verse 2
=================================================
Pre Chorus 2:

Guitar 1:
D|--------------------------------------------------------------|
A|--------------------------------------------------------------|
F|--------------------------------------------------------------|
C|-6~~-5-----6~~~-5-----5-----5---6-5-6-5-------6~~-5~~~--8-8-8-|
G|-6~~-5-----6~~~-5-----5-----5---6-5-6-5-------6~~-5~~~--8-8-8-|
C|-6~~-5-0-0-6~~~-5-0-0-5-0-0-5-0-6-5-6-5-0-0-0-6~~-5~~~--8-8-8-|
         ...        ...   ...   .         .....  

==================================================
Guitar 1:
D|----------------------------------------------------------|
A|----------------------------------------------------------|
F|----------------------------------------------------------|
C|-6~~-5-----6~~~-5-----5-----5---6-5-6-5-------6~~-5~~~--3-|
G|-6~~-5-----6~~~-5-----5-----5---6-5-6-5-------6~~-5~~~--3-|
C|-6~~-5-0-0-6~~~-5-0-0-5-0-0-5-0-6-5-6-5-0-0-0-6~~-5~~~--3-|
         ...        ...   ...   .         .....

End of Pre Chorus 2
===================================================
Chorus 2:

Guitar 1:
D|-----------------------------------------------------------------------------------------------|
A|-----------------------------------------------------------------------------------------------|
F|-----------------------------------------------------------------------------------------------|
C|-5-5-5-5---5-5-5-5---5---5-5-5---1-1-1-1---1-1-1-1---1---1-1-1---------------------------------|
G|-5-5-5-5---5-5-5-5---5---5-5-5-0-1-1-1-1---1-1-1-1---1---1-1-1-0-------------------------------|
C|-5-5-5-5---5-5-5-5---5---5-5-5-0-1-1-1-1---1-1-1-1---1---1-1-1-0--8-8-8-8--8-8-8-8--8--8-8-8-7-|

===================================================
Guitar 1:
D|---------------------------------------------------------------------------------------------|
A|---------------------------------------------------------------------------------------------|
F|---------------------------------------------------------------------------------------------|
C|-0---------0---------3--3----5-5-5-5---5-5-5-5---5---5-5-5---1-1-1-1---1-1-1-1---1---1-1-1---|
G|-0---------0---------3--3----5-5-5-5---5-5-5-5---5---5-5-5-0-1-1-1-1---1-1-1-1---1---1-1-1-0-|
C|-0-0-0-0-0-0-0-0-0-0-3--3----5-5-5-5---5-5-5-5---5---5-5-5-0-1-1-1-1---1-1-1-1---1---1-1-1-0-|
     .......   .......

===================================================
Guitar 1:
D|-----------------------------------------------------------------|
A|-----------------------------------------------------------------|
F|-----------------------------------------------------------------|
C|----------------------------------10--10--10--10--10--10--10--10-|
G|----------------------------------10--10--10--10--10--10--10--10-|
C|-8-8-8-8---8-8-8-8---8---8-8-8-7--10--10--10--10--10--10--10--10-|

                                    ......
End of Chorus 2.
====================================================
Guitar Solo:

Guitar 1:
D|--------------------------------------------------------------------------------|
A|--------------------------------------------------------------------------------|
F|--------------------------------------------------------------------------------|
C|-13-12-0-10-12-0-8-10-0-13-12-0-10-12-8-10-13-12-0-10-12-0-8-10-0-7-0-8-0-7-0-5-|
G|--------------------------------------------------------------------------------|
C|--------------------------------------------------------------------------------|


******Guitar 2 Plays both bars, A and B, in order, over the solo.********
******Guitar 2 doesn't play part C close to the end of the solo. It's the 
      part where the singing comes back in, it gets split into the new riff
    at the end of the solo. *********************************************

Guitar 2:
D|----------------------------------------------------------|
A|----------------------------------------------------------|
F|----------------------------------------------------------|
C|-0--------------------------------------------------------| (A)
G|-0--0--0--0-0--0--0--0-0--0--0--0-0--0--0--0-0--0--0-0--0-|
C|-0--0--0--0-0--0--0--0-0--0--0--0-0--0--0--0-0--0--0-0--0-|
      .....................................................

Guitar 2:                                      (C)
D|---------------------------------------|---------------|
A|---------------------------------------|---------------|
F|---------------------------------------|---------------|
C|-8---------8---------8-----7---------7-|---------7-----| (B)
G|-6---------6---------6-----6---------6-|---------6-----|
C|---0-0-0-0---0-0-0-0---0-0---0-0-0-0---|-0-0-0-0---0-0-|
     .......   .......   ...   .......     .......   ...



======================================================
Guitar 1:
                  1__                    1__                               1__
D|-----------------------------------------------------------------------------------------|
A|-----------------------------------------------------------------------------------------|
F|-----------------------------------------------------------------------------------------|
C|-------15----14*b--(14)-------15----14*b--(14)------------------15----14*b--(14)---------|
G|-13-12----12------------13-12----12------------13-12-0-12-13-12----12------------13-12-0-|
C|-----------------------------------------------------------------------------------------|



=======================================================
Guitar 1:
D|---------------------------------------------------------------------------------|
A|---------------------------------------------------------------------------------|
F|-------10-11p10-------------------------------------17--19----14---17---19---22--|
C|-12-13----------13-12--------------------------------x---x-----x----x----x----x--|
G|----------------------15---17---12---15---17---12---15--17----12---15---17---20--|
C|---------------------------------------------------------------------------------|

Guitar 3:
                                                                                 1_________
D|-------13-14p13-------------------------------------12--13-------------------15b~~~~~~~~~|
A|-15-16----------16-15-13---15--------13---15------------------15---17---18---------------|
F|--------------------------------14-------------14----------------------------------------|
C|-----------------------------------------------------------------------------------------|
G|-----------------------------------------------------------------------------------------|
C|-----------------------------------------------------------------------------------------|


========================================================
Guitar 1:
D|----------------------------------------------------------------------------------|
A|-------------------------14h15p14----------14-15-17h18p17-15p14h15-17h18p17-15p14-|
F|----12-14h15p14-12----12----------15-14-15----------------------------------------|
C|-13----------------13-------------------------------------------------------------|
G|----------------------------------------------------------------------------------|
C|----------------------------------------------------------------------------------|

Guitar 3:
D|-15~~~~~~~~~~~~~~~~~~~~~~~~~~~~~~~~~~~~~~~~~~~~~~~~~~~~~~~~~~~~~~~~~~~~~~~~~~~~~~|
A|---------------------------------------------------------------------------------|
F|---------------------------------------------------------------------------------|
C|---------------------------------------------------------------------------------|
G|---------------------------------------------------------------------------------|
C|---------------------------------------------------------------------------------|


===========================================================
Guitar 1:


     1_____         1___
D|----------------------------------|
A|-20b----(20)p18-20b--(20)~~~(20)\-|
F|----------------------------------|
C|----------------------------------|
G|----------------------------------|
C|----------------------------------|

Guitar 3:
    .5_____        .5___
D|----------------------------------|
A|-17b----(17)p15-17b--(17)~~~(17)\-|
F|----------------------------------|
C|----------------------------------|
G|----------------------------------|
C|----------------------------------|

=============================================================
Guitar 1:  (Notice how this lick is just like the one in "Stricken")
D|-13-15p13--13-17p13-15p13--13-17p13-15p13--13-17p13-15p13--13-17p13-15p13--13-17p13-15p13\-|
A|---------15--------------15--------------15--------------15--------------15----------------|
F|-------------------------------------------------------------------------------------------|
C|-------------------------------------------------------------------------------------------|
G|-------------------------------------------------------------------------------------------|
C|-------------------------------------------------------------------------------------------|


=============================================================
Guitar 1: Gradually decrease the bend on the 20th fret while picking.
                                         1_________________________________________
D|-------------------15!--------------/20b----20--20--20--20--20--20--20--20--20--(20)p17-|
A|-15!---17!---18!---------18!---17!------------------------------------------------------|
F|----------------------------------------------------------------------------------------|
C|----------------------------------------------------------------------------------------|
G|----------------------------------------------------------------------------------------|
C|----------------------------------------------------------------------------------------|


===============================================================
Guitar 1:
     1              1           1          1         1___
D|----------17----17------17---------17--------17-----------------------|
A|-20b------------20b---------20b--------20b-------20b--(20)-18~~~(18)\-|
F|----------------------------------------------------------------------|
C|----------------------------------------------------------------------|
G|----------------------------------------------------------------------|
C|----------------------------------------------------------------------|


==================================================================
Guitar 1:
                                                              T        T        T
D|---------13-17p13-17p13------13-17p13-----------------13h17-22p13h17-22p13h17-22p13--------------|
A|-------15--------------15--15--------15-------------15-----------------------------15------------|
F|-----14------------------14------------14---------14---------------------------------14~~~~(14)\-|
C|---15------------------------------------15-----15-----------------------------------------------|
G|-17----------------------------------------17-17-------------------------------------------------|
C|-------------------------------------------------------------------------------------------------|

===================================================================
Guitar 1:
               1___            1___________        1.5_____                     .5___
D|--------------------------------13-13~~~(13)-----17b~~~~(17)-17-16-15-13-15-15pb--(15)p13--13-15-|
A|------------------------13-13b-----13~~~(13)-x-x-----------------------------------------15------|
F|-----10-12-12b--(12)-10----------------------x-x-------------------------------------------------|
C|-/12---------------------------------------------------------------------------------------------|
G|-------------------------------------------------------------------------------------------------|
C|-------------------------------------------------------------------------------------------------|

===================================================================
Guitar 1:
                               1___              
D|-13~~~~~~~~~(13)\--------------------------------------------------------|
A|-------------------------------------------------------------------------|
F|---------------------10-12-12b--(12)p10----10-------12h14-12~~~~~~~~~~~~-|
C|-----------------/12--------------------12----12-10----------------------|
G|-------------------------------------------------------------------------|
C|-------------------------------------------------------------------------|

Guitar 3:                     1___                
D|-------------------------------------------------------------------------|
A|-------------------------------------------------------------------------|
F|-------------------------------------------------------------------------|
C|-------------------------------------------------------------------------|
G|---------------------8-10-10b--(10)p8----8-------12h14-12~~~~~~~~~~~~~~~~|
C|-----------------/12------------------12---12-10-------------------------|

Guitar 2:
D|---------------------------------|
A|---------------------------------|
F|---------------------------------|
C|-7-------------------------------|
G|-6---------3-0-3-------3-------7-|
C|---0-0-0-0-3-0-3-00-0--3--0-0--7-|
     ...........   ....     ...

====================================================================
Chorus 3: (Outro)
Guitar 1:
D|-------------------------------------------------------------------------------------------------|
A|-------------------------------------------------------------------------------------------------|
F|-------------------------------------------------------------------------------------------------|
C|-5-5-5-5---5-5-5-5---5---5-5-5---1-1-1-1---1-1-1-1---1---1-1-1-----------------------------------|
G|-5-5-5-5---5-5-5-5---5---5-5-5-0-1-1-1-1---1-1-1-1---1---1-1-1-0---------------------------------|
C|-5-5-5-5---5-5-5-5---5---5-5-5-0-1-1-1-1---1-1-1-1---1---1-1-1-0-8-8-8-8---8-8-8-8---8---8-8-8-7-|

====================================================================
Guitar 1: For the harmonics, just glide your finger across the frets lightly while picking. 

     """""""   """""""
D|-------------------------------------------------------------------------------------------|
A|-------------------------------------------------------------------------------------------|
F|-------------------------------------------------------------------------------------------|
C|-0---------0---------3--3--5-5-5-5---5-5-5-5---5---5-5-5---1-1-1-1---1-1-1-1---1---1-1-1---|
G|-0---------0---------3--3--5-5-5-5---5-5-5-5---5---5-5-5-0-1-1-1-1---1-1-1-1---1---1-1-1-0-|
C|-0-2-3-4-5-0-2-3-4-5-3--3--5-5-5-5---5-5-5-5---5---5-5-5-0-1-1-1-1---1-1-1-1---1---1-1-1-0-|

====================================================================
Guitar 1:
D|----------------------------------------------------------------------|
A|----------------------------------------------------------------------|
F|----------------------------------------------------------------------|
C|----------------------------------10--------------10-------------3--3-|
G|----------------------------------10--------------10-------------3--3-|
C|-8-8-8-8---8-8-8-8---8---8-8-8-7--10--10-10-10-10-10-10-10-10-10-3--3-|
                                        ...........    ...........

=====================================================================
Guitar 1:
D|-----------------------------------------------------------------------------------------------|
A|-----------------------------------------------------------------------------------------------|
F|-----------------------------------------------------------------------------------------------|
C|-5-5-5-5---5-5-5-5---5---5-5-5---1-1-1-1---1-1-1-1---1---1-1-1---------------------------------|
G|-5-5-5-5---5-5-5-5---5---5-5-5-0-1-1-1-1---1-1-1-1---1---1-1-1-0-------------------------------|
C|-5-5-5-5---5-5-5-5---5---5-5-5-0-1-1-1-1---1-1-1-1---1---1-1-1-0--8-8-8-8--8-8-8-8--8--8-8-8-7-|

======================================================================
Guitar 1:
     """""""   """""""
D|--------------------------------------------------------------------------------------------|
A|--------------------------------------------------------------------------------------------|
F|--------------------------------------------------------------------------------------------|
C|-0---------0---------3--3---5-5-5-5---5-5-5-5---5---5-5-5---1-1-1-1---1-1-1-1---1---1-1-1---|
G|-0---------0---------3--3---5-5-5-5---5-5-5-5---5---5-5-5-0-1-1-1-1---1-1-1-1---1---1-1-1-x-|
C|-0-2-3-4-5-0-2-3-4-5-3--3---5-5-5-5---5-5-5-5---5---5-5-5-0-1-1-1-1---1-1-1-1---1---1-1-1-x-|

======================================================================

Guitar 1:


D|----------------------------------------------------------|
A|----------------------------------------------------------|
F|----------------------------------------------------------|
C|----------------------------------------10-10-10-10-10-10-|
G|----------------------------------10-10-10-10-10-10-10-10-|
C|-8-8-8-8---8-8-8-8---8---8-8-8-7--10-10-10-10-10-10-10-10-|
                                    .....

======================================================================
Guitar 1:
D|--------------------------------0------8----------------------------------0--------|
A|----------------------------------6--8--------------------------------------6--8---|
F|-----------------------------/7----------------------------------------/7--------9-|
C|----------/8-7~~-------/8-7------------------------/8-7~~~-------/8-7--------------|
G|---/6-5------------6-5----------------------/6-5-------------6-5-------------------|
C|-0------0--------0------------------------0------0---------0-----------------------|

======================================================================
Guitar 1:
D|-----------------------------------0------8---------------------------------0------------|
A|-------------------------------------6--8-------------------------------------6--8-------|
F|--------------------------------/7---------------------------------------/7--------9*~~~~|
C|----------/8-7~~----------/8-7------------------------/8-7~~-------/8-7------------------|
G|---/6-5------------/6-5------------------------/6-5------------6-5-----------------------|
C|-0------0--------0------0--------------------0------0--------0---------------------------|

6 comments total. Showing first comments.
+1 reply
hildesaw wrote on July 28 2009, 03:00 am

This is the best one I've seen so far. Nice job.

+1 reply
blakebrownlow wrote on December 30 2009, 11:18 pm

great job man

+1 reply
bklinger83 wrote on February 2 2010, 09:55 am

Great tab!

I want to post or [tab]
guest
You may want to rate the tab now too:
select rating
Please do not post tabs as comments. Select "correction" instead!