Oops, an error
Loading. Please wait.

The Night Tab

ver3
ver3

Intro

Solo

Whole song

Interactive

Video

More versions @911Tabs.com
12,917 views 12 this week
6 commentsread comments
1 2 3 4 5
excellent!
x 11
Autoscroll
+/-
esc
set tempo
stop
Contributor
Hey! There's an official Ultimate Guitar app which is ideal
for learning songs when you're away from computer. Get the app
WARNING: You are trying to view
                                    content from Ultimate-Guitar.com
                                    in an unauthorized application,
                                    which is prohibited.

                                    Please use an official Ultimate
                                    Guitar Tabs application for iPhone,
                                    iPad or Android to access legitimate
                                    chords, guitar, bass, and drum tabs
                                    from Ultimate-Guitar.com database.

                                    Type "ultimate guitar tabs" in Apple
                                    App Store's or Android Market's
                                    search to find the application.
-------------------------------------------------------------------------------
                             The Night - Disturbed
-------------------------------------------------------------------------------
Tabbed by: Michael Capanna      
Email: SpyderPB6@hotmail.com


As always...please do not copy this work and put it foward as your own. 



This is THE NIGHT.....COMPLETE. Those of you who have seen my tabs (Indestructible
and Criminal) know I take the time to do them right. This tab dervived from about 8
hours of combined research through live videos (5 different ones), actual recording,
and seeing them play it in person live one time.

My goal is a tab that not only sounds good but is played as Dan actually plays it and I
think when you compare whats below to what others put forth you will see that I indeed
have put a significant amount of effort into this. 

Dan has many variations in his palying style this song is no exception. He does differ
in Live and Recorded play ever so slightly, that is pointed out when I notice it.

As always I am soooooo far from perfect it isnt even funny so help a brother out and 
comment on this and let me know what you think isn't right becuase I want it to be right.
As far as I can tell, this is super close.

Feel free to Email me with comments/questions/rants/death threats.

Have fun with this one!!!!!!


Updated 04/03/09
Updated again....8/31/2009 another stupid mistake on my part!






Tuning:CGCFAD

Intro X1

D|-------------------------------------0----------------------------------------|
A|---------------------------------------6------13------------------------------|
F|-----------------------------------7-------12---------------------------------|
C|-0-let ring-------------------------------------------------------------------|
G|-0------6\5---13\12---6\5--13\12----------------------------------------------|
C|-0-let ring-0-------0---------------------------------------------------------|

D|------------------------------------------------------------------------------|
A|------------------------------------------------------------------------------|
F|------------------------------------------------------------------------------|
C|-8------8------8----7------7------7-------------------------------------------|
G|-6------6------6----6------6------6-------------------------------------------|
C|---0000---0000---00---0000---0000---00----------------------------------------|

     All open C notes on above bar are palm muted.

D|-------------------------------------0----------------------------------------|
A|---------------------------------------6--------------------------------------|
F|-----------------------------------7-------12---------------------------------|
C|-0-let ring-----------------------------------14------------------------------|
G|-0------6\75---13\12---6\5--13\12---------------------------------------------|
C|-0-let ring-0-------0---------------------------------------------------------|

D|------------------------------------------------------------------------------|
A|------------------------------------------------------------------------------|
F|------------------------------------------------------------------------------|
C|-8------8------8----7------7------7-------------------------------------------|
G|-6------6------6----6------6------6-------------------------------------------|
C|---0000---0000---00---0000---0000---00----------------------------------------|

     All open C notes on above bar are palm muted.



Verse X1


Notice the change on the next section, no more open C chord.

D|-------------------------------------0----------------------------------------|
A|---------------------------------------6------13------------------------------|
F|-----------------------------------7-------12---------------------------------|
C|------------------------------------------------------------------------------|
G|---6\5---13\12---6\5--13\12---------------------------------------------------|
C|-0-----0-------0--------------------------------------------------------------|

  No Ring on the open C's above.

D|------------------------------------------------------------------------------|
A|------------------------------------------------------------------------------|
F|------------------------------------------------------------------------------|
C|-8------8------8----7------7------7-------------------------------------------|
G|-6------6------6----6------6------6-------------------------------------------|
C|---0000---0000---00---0000---0000---00----------------------------------------|

     All open C notes on above bar are palm muted.

D|-------------------------------------0----------------------------------------|
A|---------------------------------------6--------------------------------------|
F|-----------------------------------7-------12---------------------------------|
C|----------------------------------------------14------------------------------|
G|---6\5---13\12---6\5--13\12---------------------------------------------------|
C|-0-----0-------0--------------------------------------------------------------|

  No Ring on the open C's above.

D|------------------------------------------------------------------------------|
A|------------------------------------------------------------------------------|
F|------------------------------------------------------------------------------|
C|-8------8------8----7------7------7-------------------------------------------|
G|-6------6------6----6------6------6-------------------------------------------|
C|---0000---0000---00---0000---0000---00----------------------------------------|

     All open C notes on above bar are palm muted.

D|------------------------------------------------------------------------------|
A|------------------------------------------------------------------------------|
F|------------------------------------------------------------------------------|
C|------------------------------------------------------------------------------|
G|------------------------------------------------------------------------------|
C|-0-0-0-000-0-000-0-000-0-111-3333-0-000-0-000-0-000-000-0-333-1111------------|

  Slight deviation on the open notes, please take notice.                
  All notes on above bar are palm muted.

D|------------------------------------------------------------------------------|
A|------------------------------------------------------------------------------|
F|------------------------------------------------------------------------------|
C|------------------------------------------------------------------------------|
G|------------------------------------------------------------------------------|
C|-0-000-0-000-0-000-000-0-111-3333-0-000-0-000-0-000-000-0-333-1111------------|
               
  All notes on above bar are palm muted.



Pre-Chorus X1

D|------------------------------------------------------------------------------|
A|------------------------------------------------------------------------------|
F|------------------------------------------------------------------------------|
C|------------------------------------------------------------------------------|
G|-666\5-666\5---5---5-0h5\6/5----6666-55-88------------------------------------|
C|-666\5-666\5-0-5-0-5-0h5\6/5-00-6666-55-88------------------------------------|

All opens above are HEAVY palms mutes, almost muted, but they are there. This is
played very fast and arranged for ease of reading, not timing. Play accordingly.

D|------------------------------------------------------------------------------|
A|------------------------------------------------------------------------------|
F|------------------------------------------------------------------------------|
C|--------------------------------6--5--3---------------------------------------|
G|-666\5-666\5---5---5-0h5\6/5----6--5--3---------------------------------------|
C|-666\5-666\5-0-5-0-5-0h5\6/5-00-6--5--3---------------------------------------|

All opens above are HEAVY palms mutes, almost muted, but they are there. This is
played very fast and arranged for ease of reading, not timing. Play accordingly.


Chorus X1

D|------------------------------------------------------------------------------|
A|------------------------------------------------------------------------------|
F|------------------------------------------------------------------------------|
C|-------------------------------------3333-333-3-3-333---0------0------3-------|
G|-5555-555-5-5-55--1111-111-1-1-11-1--1111-111-1-1-111---0------0------3-------|
C|-5555-555-5-5-55--1111-111-1-1-11-1---------------------0-0000-0-0000-3-------|
  
                                          Palm mutes>>>>   |----| |----|

D|------------------------------------------------------------------------------|
A|------------------------------------------------------------------------------|
F|------------------------------------------------------------------------------|
C|------------------------------------3333-333-3-3-33--5-5-5-5-5-5-5-5----------|
G|-5555-555-5-5-55-1111-111-1-1-11-1--1111-111-1-1-11--3-3-3-3-3-3-3-3----------|
C|-5555-555-5-5-55-1111-111-1-1-11-1--------------------------------------------|

                                       Palm mute here |--------------|


Verse #2 -- X1 

All single notes on the C string in this verse except for where you see the * are palm muted.
There are small changes please take notice.

D|-------------------------------------0----------------------------------------|
A|----------------------------------------6------13-----------------------------|
F|-----------------------------------7-------12---------------------------------|
C|------------------------------------------------------------------------------|
G|---6\5---13\12---6\5--13\12---------------------------------------------------|
C|-0-----0-------0--------------------------------------------------------------|

  No Ring on the open C's above.

D|------------------------------------------------------------------------------|
A|------------------------------------------------------------------------------|
F|------------------------------------------------------------------------------|
C|-8------8------8----7------7------7-------------------------------------------|
G|-6------6------6----6------6------6-------------------------------------------|
C|---0000---0000---00---0000---0000---00----------------------------------------|

D|-------------------------------------0----------------------------------------|
A|---------------------------------------6-------13-----------------------------|
F|-----------------------------------7-------12---------------------------------|
C|------------------------------------------------------------------------------|
G|---6\5---13\12---6\5--13\12---------------------------------------------------|
C|-0-----0-------0--------------------------------------------------------------|

  No Ring on the open C's above.

D|------------------------------------------------------------------------------|
A|------------------------------------------------------------------------------|
F|------------------------------------------------------------------------------|
C|-8------8------8----7------7------7-------------------------------------------|
G|-6------6------6----6------6------6-------------------------------------------|
C|---0000---0000---00---0000---0000---00----------------------------------------|

Notice this section of the verse is the same ^ as the first on the high note (13).
It changes below when played on 14 for the last time


D|-------------------------------------0----------------------------------------|
A|---------------------------------------6--------------------------------------|
F|-----------------------------------7-------12---------------------------------|
C|----------------------------------------------14------------------------------|
G|---6\5---13\12---6\5--13\12---------------------------------------------------|
C|-0-----0-------0--------------------------------------------------------------|

  No Ring on the open C's above.
   

D|------------------------------------------------------------------------------|
A|------------------------------------------------------------------------------|
F|------------------------------------------------------------------------------|
C|-8------8------8----7------7------7-------------------------------------------|
G|-6------6------6----6------6------6-------------------------------------------|
C|---0000---0000---00---0000---0000---00----------------------------------------|


D|------------------------------------------------------------------------------|
A|------------------------------------------------------------------------------|
F|------------------------------------------------------------------------------|
C|------------------------------------------------------------------------------|
G|------------------------------------------------------------------------------|
C|-0-0-0-000-0-000-0-000-0-111-3333-0-000-0-000-0-000-000-0-333-1111------------|

  Slight deviation on the open notes, please take notice.                

D|------------------------------------------------------------------------------|
A|-------------------------------------------------------------------------------|
F|--------------------------------------------------------------------------------|
C|------------------------------------------10///---13///---10///---12///----------|
G|-----------------------------------12-----10///---13///---10///---12///-----------|
C|-0-000-0-000-0-000-000-0-111-3333--12-000-10///00-13///00-10///00-12///-000--003311|

The slides above are difficult to hear in the studio version, but listen hard. Live they
are cake to see, check out vids on you tube. Also the first chord does not have slides in
the studio version, but does when playing live, this is as per studio version. The slides
are VERY FAST. Listen hard, email me if you need help or have questions. All single notes
palm muted.


Pre-Chorus X1

D|------------------------------------------------------------------------------|
A|------------------------------------------------------------------------------|
F|------------------------------------------------------------------------------|
C|------------------------------------------------------------------------------|
G|-666\5-666\5---5---5-0h5\6/5----6666-55-88------------------------------------|
C|-666\5-666\5-0-5-0-5-0h5\6/5-00-6666-55-88------------------------------------|

All opens above are HEAVY palms mutes, almost muted, but they are there. This is
played very fast and arranged for ease of reading, not timing. Play accordingly.

D|------------------------------------------------------------------------------|
A|------------------------------------------------------------------------------|
F|------------------------------------------------------------------------------|
C|--------------------------------6--5--3---------------------------------------|
G|-666\5-666\5---5---5-0h5\6/5----6--5--3---------------------------------------|
C|-666\5-666\5-0-5-0-5-0h5\6/5-00-6--5--3---------------------------------------|

All opens above are HEAVY palms mutes, almost muted, but they are there. This is
played very fast and arranged for ease of reading, not timing. Play accordingly.


Chorus X1

D|------------------------------------------------------------------------------|
A|------------------------------------------------------------------------------|
F|------------------------------------------------------------------------------|
C|-------------------------------------3333-333-3-3-333---0------0------3-------|
G|-5555-555-5-5-55--1111-111-1-1-11-1--1111-111-1-1-111---0------0------3-------|
C|-5555-555-5-5-55--1111-111-1-1-11-1---------------------0-0000-0-0000-3-------|
  
                                          Palm mutes>>>>   |----| |----|

D|------------------------------------------------------------------------------|
A|------------------------------------------------------------------------------|
F|------------------------------------------------------------------------------|
C|------------------------------------3333-333-3-3-33--5-5-5-5-5-5-5-5----------|
G|-5555-555-5-5-55-1111-111-1-1-11-1--1111-111-1-1-11--3-3-3-3-3-3-3-3----------|
C|-5555-555-5-5-55-1111-111-1-1-11-1--------------------------------------------|

                                       Palm mute here |--------------|

               

Solo....easy, no. Fun yes.


D|------------------------------------------------------------------------------|
A|------------------------------------------------------------------------------|
F|------------------------------------------------------------------------------|
C|-13-12-0-10-12-0-8-0-10-0-13-12-0-10-12-8-10-13-12-0-10-12-0-8-0-10-----------|
G|------------------------------------------------------------------------------|
C|------------------------------------------------------------------------------|

  Read the above carefully it is NOT all the same pattern 3 times over.

D|------------------------------------------------------------------------------|
A|------------------------------------------------------------------------------|
F|------------------------15----16(*)---------15----16(*)-----------------------|
C|-0-7--8--5-7------13-12----12---------13-12----12-------13-12/10\12-----------|
G|------------------------------------------------------------------------------|
C|------------------------------------------------------------------------------|

D|------------------------------------------------------------------------------|
A|------------------------------------------------------------------------------|
F|-------15----16(*)-----------------10-11-10-----------------------------------|
C|-13-12----12---------13-12---13-12----------13-12--10--12------10--12---------|
G|-----------------------------------------------------------12----------12-----|
C|------------------------------------------------------------------------------|

D|------------------------------------------------------------------------------|
A|-13--15--9---13--15--18----------------------------14h15p14-------14h15p14----|
F|--------------------------------14h15p14-12----12----------14h15--------------|
C|-10--12--7---10--12--15----12-13-------------13-------------------------------|
G|------------------------------------------------------------------------------|
C|------------------------------------------------------------------------------|

D|--12h13p12----------12h13p12-----------15BEND--12--15-------------------------|
A|-----------15p14h15----------15p14h15-----------------------------------------|
F|------------------------------------------------------------------------------|
C|------------------------------------------------------------------------------|
G|------------------------------------------------------------------------------|
C|------------------------------------------------------------------------------|

D|-13-17p13-15p13----17p13-15p13----17p13-15p13----17p13-15p13----17p13-15p13-15|
A|----------------13-------------13-------------13-------------13---------------|
F|------------------------------------------------------------------------------|
C|------------------------------------------------------------------------------|
G|------------------------------------------------------------------------------|
C|------------------------------------------------------------------------------|

D|------------------------------------------------------------------------------|
A|-15-15-15-15-15-15-15-15-17-17-17-17-17-17-17-17-18-18-18-18-18-18-18-18------|
F|------------------------------------------------------------------------------|
C|------------------------------------------------------------------------------|
G|------------------------------------------------------------------------------|
C|------------------------------------------------------------------------------|

D|------------------------------------------------------------------------------|
A|-20-20-20-20-20-20-20-20-18-18-18-18-17-17-17-17------------------------------|
F|------------------------------------------------------------------------------|
C|------------------------------------------------------------------------------|
G|------------------------------------------------------------------------------|
C|------------------------------------------------------------------------------|

D|--BIGBEND20-20-20-20-20-20-20-20-20p17------17-----17-----17-----17-----17----|
A|----------------------------------------B20----B20----B20----B20----B20----18-|
F|------------------------------------------------------------------------------|
C|------------------------------------------------------------------------------|
G|------------------------------------------------------------------------------|
C|------------------------------------------------------------------------------|

The (20) above starts on a huge bend and slowly releases. The following part with 
the 20's and 17's is a seperate bend each time you hit 20. It takes some getting 
used to so listen hard.

D|-------17h20p17---------------------------------------------------------------|
A|----18----------18-------------18h20p18---------------------------------------|
F|-17----------------17-------17----------17------------------------------------|
C|----------------------19-17----------------17---------------------------------|
G|----------------------------------------------17~~----------------------------|
C|------------------------------------------------------------------------------|

Sweep is close, not dead on by any means, I will continue to work it.


D|---t22p13h17p13-t22p13h17p13-t22p13h17p13-------------------------------------|
A|------------------------------------------h15---------------------------------|
F|---------------------------------------------------10-b12----10------18-ring--|
C|-----------------------------------------------/12--------12-----b17----17----|
G|------------------------------------------------------------------------------|
C|------------------------------------------------------------------------------|

D|--B19--17-19-17----15h17p15----15-17-13~~-------------------------------------|
A|----------------19----------17------------------------------------------------|
F|---------------------------------------------14h15p14----14/17---(12~)--------|
C|------------------------------------------12----------15----------------------|
G|------------------------------------------------------------------------------|
C|------------------------------------------------------------------------------|

This last little lick above was by far the hardest part of the song to get down
please comment on this part. Will continue to work this part. The ending part however
is pretty much dead on IE from this part on ^--------------------------^

The last note (12~) is played on a loop and not live but you can do it if your recording
infact if you are you should play the entire looped outro which is a combination of a few
notes on the same string, email me if your interested in that I'll help you out.



Chorus Modified X1

D|------------------------------------------------------------------------------|
A|------------------------------------------------------------------------------|
F|------------------------------------------------------------------------------|
C|-------------------------------------3333-333-3-3-333---0------0------3-------|
G|-5555-555-5-5-55--1111-111-1-1-11-1--1111-111-1-1-111---0------0------3-------|
C|-5555-555-5-5-55--1111-111-1-1-11-1---------------------0-2345-0-2345-3-------|
  
                 Natural Harmonics here listen hard!>>>>   |----| |----|

D|------------------------------------------------------------------------------|
A|------------------------------------------------------------------------------|
F|------------------------------------------------------------------------------|
C|-------------------------------------3333-333-3-3-333---0------0------3-------|
G|-5555-555-5-5-55--1111-111-1-1-11-1--1111-111-1-1-111---0------0------3-------|
C|-5555-555-5-5-55--1111-111-1-1-11-1---------------------0-0000-0-0000-3-------|
  
                                          Palm mutes>>>>   |----| |----|

D|------------------------------------------------------------------------------|
A|--------------------------------------------------------3------3--------------|
F|--------------------------------------------------------2------2--------------|
C|-------------------------------------3333-333-3-3-333---0------0------3-------|
G|-5555-555-5-5-55--1111-111-1-1-11-1--1111-111-1-1-111---0-++++-0-++++-3-------|
C|-5555-555-5-5-55--1111-111-1-1-11-1---------------------0-2345-0-2345-3-------|

                Natural Harmonics here listen hard!>>>>    |----| |----|

D|------------------------------------------------------------------------------|
A|------------------------------------------------------------------------------|
F|------------------------------------------------------------------------------|
C|------------------------------------3333-333-3-3-33--5-5-5-5-5-5-5-5----------|
G|-5555-555-5-5-55-1111-111-1-1-11-1--1111-111-1-1-11--3-3-3-3-3-3-3-3----------|
C|-5555-555-5-5-55-1111-111-1-1-11-1--------------------------------------------|

                                       Palm mute here |--------------|


Natural harmonics above could not be found in a live version, he must omit them.


Outro X1

D|-------------------------------------0----------------------------------------|
A|---------------------------------------6-------13-----------------------------|
F|-----------------------------------7-------12---------------------------------|
C|------------------------------------------------------------------------------|
G|---6\5---13\12---6\5--13\12---------------------------------------------------|
C|-0-----0-------0--------------------------------------------------------------|


  No Ring on the open C's above.

D|-------------------------------------0----------------------------------------|
A|---------------------------------------6--------------------------------------|
F|-----------------------------------7-------12---------------------------------|
C|----------------------------------------------14------------------------------|
G|---6\5---13\12---6\5--13\12---------------------------------------------------|
C|-0-----0-------0--------------------------------------------------------------|

  No Ring on the open C's above.

D|-------------------------------------0----------------------------------------|
A|---------------------------------------6------13------------------------------|
F|-----------------------------------7-------12---------------------------------|
G|---6\5---13\12---6\5--13\12---------------------------------------------------|
C|-0-----0-------0--------------------------------------------------------------|


  No Ring on the open C's above.
D|-------------------------------------0----------------------------------------|
A|---------------------------------------6--------------------------------------|
F|-----------------------------------7-------12---------------------------------|
C|----------------------------------------------*14-----------------------------|
G|---6\5---13\12---6\5--13\12---------------------------------------------------|
C|-0-----0-------0--------------------------------------------------------------|

  No Ring on the open C's above

 *above* is final pinch harmonic....and whew...thats it, dang. 







| /  slide up
| \  slide down
| h  hammer-on
| p  pull-off
| ~  vibrato
| +  harmonic
| x  Mute note
===============================================================================
comments
print report bad tab
6 comments total. Showing first comments.
+1 reply
Goob63 wrote on July 3 2009, 02:37 am

hey. umm on the intro when he plays live..its the 6/5 13/12. that part is right. but the little scale after that he plays past the 12th fret. so on the d string it would be 12 14 15. instead of that 7 0 6 thing you have there. hopefully this makes sense to you :S

0 reply
idehass wrote on September 12 2009, 10:29 pm

wow, you are like my hero now. i was waiting for someone to make this tab in its entirety

0 reply
x-00004 wrote on January 4 2010, 09:38 pm

fter I saw the music video, I noticed that there's a mistake with the entrance. It goes like this:

d-------------------------------------------------------------------
A---------------------------------------12]--------------------------
F-------------------------------[9-11-12----(9-11-12-9ph)------------
C----------------------------12-------------------------------------
G----6h5---12h11---6h5/12h11----------------------------------------
C--0-----0-------0--------------------------------------------------

I got this from the music video
whether its wrong or not, it sounds the same to me, and is also easier for me to do
the closed brackets are what you do first, and the parentheses are what you do second, if that makes sense to you

I want to post or [tab]
guest
You may want to rate the tab now too:
select rating
Please do not post tabs as comments. Select "correction" instead!