Oops, an error
Loading. Please wait.

The Sickness Bass Tab

ver1
ver1

Album

Interactive

More versions @911Tabs.com
5,144 views 1 this week
5 commentsread comments
1 2 3 4 5
accurate
x 3
add to favorites launch autoscroll
font size
0
reset
Autoscroll
+/-
esc
set tempo
stop
Contributor
WARNING: You are trying to view
                                    content from Ultimate-Guitar.com
                                    in an unauthorized application,
                                    which is prohibited.

                                    Please use an official Ultimate
                                    Guitar Tabs application for iPhone,
                                    iPad or Android to access legitimate
                                    chords, guitar, bass, and drum tabs
                                    from Ultimate-Guitar.com database.

                                    Type "ultimate guitar tabs" in Apple
                                    App Store's or Android Market's
                                    search to find the application.
Band- Disturbed
Album- The Sickness

1.Voices
2.The Game
3.Stupify
4.Down With The Sickness
5.Violence Fetish
6.Fear
7.Numb
8.Want
9.Conflict
10.Shout 2000
11.Droppin' Plates
12.Meaning Of Life

First of all, this album is off the hook. Second of all, you should learn it so hear it is!!!!!

1.Voices/5-string tuned down 1/2 step

Intro-Part A/Fade In

|-----------------------------------------------|
|-----------------------------------------------|
|--------2----------2------------2----------0h2-|....Repeat a few times 
|-----------------------------------------------|
|-0--0-0---0-0--0-0---0-0---0--0---0-0--0-0-----|

Intro-Part B

|-------------------------------------------------|
|-------------------------------------------------|
|-----2----------0h2------------2-----2-2---------|
|-----------------------------------------0-2-3-4-|
|-0-0---0-0--0-0-----0-0---0--0---0-0-------------|

|----------------------------------------------------------------|
|--------------------3---------------3---------------------------|
|----------------------------------------------------------------|
|-7-9-7-9-7-9--7-9-3---7-9-7-9-7-9-3---7-9-7-9-7-9--7-9--3-3-3-3-|
|----------------------------------------------------------------|

Verse

|-------------------------|------------------------|---------------------|
|-------------------------|--------x4------------3-|---------------------|
|-------------------------|------------------------|---------------------|
|-7-9-7-9-7-9--7-9--3-3-3-|-7-9-7-9-7-9--7-9-3-----|-7-9-7-9-7-9--7-9-7/-|
|-------------------------|------------------------|---------------------|

Chorus

|------------------------------------------------------|
|------------------------------------------------------|
|------------------------7h9-7-------------------------|
|-0-0-0-0-0-4-4------5h7-------9-7\-0-0-0-0-0-0-4-4----|
|---------------0--0--------------------------------0--|

|----------------------------------------------------------------------------------|
|----------------------------------------------------------------------------------|
|-------7h9--------------------------------------7h9/12-9--------------------------|
|---7h9-----7h9-----7h9-0-0-0-0-0-0-4-4------7h9----------12\0-0-0-0-0-0-4-4-4-4-4-|
|-0-------------7h8---------------------0--0---------------------------------------|

After the first chorus he plays the intro again.

Bridge

|---------------|-------------------------------------|
|---------------|----------10-------------------------|
|---------------|--------8----8-----------------------|
|---7-10-4-5--7-|---7-10----------7-10-3-3-3--12-12\7-|
|-3-------------|-0-------------0---------------------|

|----------------------------------------------------------------------|
|----------------------------------------------------------------------|
|-------------------------------------------------------8--------------|
|-9-12-9--10-9-12-9-10-9-10h12-9-12-9--9-10-9-12-9-10-9---9-12-9--10-9-|
|----------------------------------------------------------------------|

|----------------------------------------|
|----------------------------------------|
|-------7h9-7-5--------------------------|
|---7h9---------7-0-0-0-0-0-0-4--4-4-4-4-|
|-0--------------------------------------|

2.The Game/Tune down 1/2 step

Intro/Verses 1&2/Pre-Chorus

|-----------------------------------------|
|-----------------------------------------|
|---------8-----5h7-----------------------|
|-0--0--0---0-0-----0-0-0-0-3h5-0-0-0-0-1-|

|-------------------------------------|
|-------------------------------------|
|---------8-----5h7-------------------|
|-0--0--0---0-0-----0-0-0-0-3h5-0-0-6-|

Chorus

|--------------------|-----------|
|-------x8-----------|-----------|
|--------------------|-----------|
|-0-0-0--0--0--0-0-0-|-0--0--0-1-|

Verses 3&4

|-----9---------9---9-|
|---------------------|
|-7-7---7-7-7-7---7---|
|---------------------|

Bridge 

|-----9---------9---|--------------------------------|
|-------------------|--------------------------------|
|-7-7---7-7---7---7-|--------------------------------|
|-----------0-------|-0--1--1--0---0-1-2-3-2-1-2-2-3-|

|------------------------------------------------------|
|----------------5h7-----5h7---------------------------|
|------------5h7-----5h7---------------5h7-----3h5-----|
|-0--1--1-0------------------0--1--1-0-----5h7-----3h5-|

3.Stupify/Drop D tuning: Tune down 1/2 step

Intro/Chorus

|----------------------------------------------------------------------------|
|----------------------------------------------------------------------------|
|-1------------------------1----------------3h6-----1------------------------|
|---0-0-0-0--0-0-0-3-0-0-0---0-0-0-0--0-3-0-----0-3---0-0-0-0--0-0-0-3-0-0-0-|

Verse 1- Play 15 Times

|-----------------------------------------------------------------------------|
|-----------------------------------------------------------------------------|
|-1----------------3-------1--------------------------------------------------|
|---0-0-0-0--0-3-0---3-3-3---0-0-0-0--0-0-0-0-0-0--0--0-0-0-x-x-x-0--0-0-0-9\-|

Verse 2- Play 8 Times

|------------------------------------|
|------------------------------------|
|------------------------------------|
|-0-0-0---0-0--0-9\--0--0-0-0--x-x-x-|

|-------------------|---------------|--------------|
|---------------x4--|---------x3----|--------------|
|-------------------|---------------|--------------|
|-0--0--0---x-x-----|-0--0-0-0--x-x-|-0--0-0-0--9\-|

Interlude

|-------------------5-----------|
|---7-6-7-----7-6-7---7---7-6-7-|
|-5---------5-----------5-------|
|-------------------------------|

Bridge

|-----7-----------------------|
|---7---7---7-6-7---7---------|
|-5-------5-------5-----------|
|---------------------0--0--0-|

|-----------------------------------------------|
|-----------------------------------------------|
|-----------------------------------------------|
|-/12\-0-3--0--3-0-1-1-0--3--0--3--0-12*-12*/9\-|

|----------------------------------------------------|
|-----------x3---------------------------------------|
|-1--------------------------------------------------|
|---0-0-0-0--0-0-0-0-0-0-0-3--0-0-0-0--0-0-0-0-0-0-0-|

Outro

|-----------------------------------------------------|
|-----------------------------------------------------|
|-1---------------------------------------------------|
|---0-0-0-0--0-0-0-0-0-0-0-1-0-0-0-0-1-0-0-0-0-1-0-0--|

|------------------------------|--------------------------|
|------------------------------|----x4--------------------|
|----------------------3h6-----|-1----------------3h6-----|
|-0-0--0-0--0-0--0-3-0-----0-3-|---0-0-0-0--0-3-0-----0-3-|

|------------------------------|-----------|
|---------x7-------------------|-----------|
|------------------------------|-----------|
|-0-0--0-0--0-0--0-3-0-1h3-0-3-|-0-0--0-0--|

4.Down With The Sickness/Drop D tuning:Tune down 1/2 step

Intro

|-----------------------------|---------------|
|--------x7-------------------|---------------|
|-----------------------------|---------------|
|-2-2--2-2--2-2--2-2--2-2-2-2-|-2-2--2-2--2-2-|

|-------------------------------|--------------------------------|
|-------x7----------------------|--------------------------------|
|-------------------------------|--------------------------------|
|-2-5-2-3-2--2-5-2-3-2--2-5-2-3-|-2-5-2-3-2--2-5-3-3-3-3-3-3-3-3-|

Verse

|-------------------------------|-------------------------------|
|-------------------------------|-------------------------------|
|-------------------------------|-------------------------------|
|-2-2-2-2-2--2-2-2-2-2--2-2-2-2-|-2-2-2-2-2--2-2-2-2-2--2-3-3-3-|

|-------------------------------|--------------------------------|
|------------x2-----------------|--------------------------------|
|-------------------------------|--------------------------------|
|-2-5-2-3-2--2-2-2-2-2--2-2-2-2-|-2-5-2-3-2--2-2-2-2-2--2-3-3-3--|

Chorus

|---------------------------|
|-------x8------------------|
|---------------------------|
|-2--2--2h3-2---2--2--2h3-2-|

Breakdown

|------------------------|------------------------|
|------------------------|----------------------4-|
|------------------------|------4-3-----3-4-------|
|-4--4---4--4\2-2---2--2-|-\2-2-----2-4-----4-4---|

|---------------------------|
|---------------------------|
|---x-x-3-4---x-x-3-4---3-4-|
|-4---------4---------4-----|

Outro

|-----------|-------------------------------|-------------------------------|
|-----------|-4-7-4-5-4--4-7-4-5-4--4-7-4-5-|-------------------------------|
|---x-x-3-4-|-------------------------------|-------------------------------|
|-4---------|-------------------------------|-4-7-4-5-4--4-7-4-5-4--4-7-4-5-|

5.Violence Fetish/5-string:Tune down 1/2 step

Intro

|-----------------------------|
|----9-11-12---9-11---12------|
|-----------------------------|
|-0---------------------------|
|------------------------0-2--|

Chorus

|----------------------------|----------------------------------------|
|----------------------------|------------7------------------------7--|
|-------x4-------------------|---------/8-----------------------/8----|
|----------------------------|-0-1-0-0------0-1-0-0-1p0-0-1-0-0-------|
|-3-3--3-3--3-3--3--3-3--0-2-|----------------------------------------|

Verse 

|-----------------------------------------|
|-----------------------------------------|
|-----------------------------------------|
|-0--1--0--0--1-1--0-0--0--0-0--0--0-0--0-|
|-----------------------------------------|

Pre-Chorus

|---------------------------------------------|
|---------------------------------------------|
|-----------------------------------7---------|
|-3-3--2-2h3--3/5--5/7-8-8---7--7-8---8-7-----|
|-----------------------------------------8-7-|

|----------------------------------------|
|----------------------------------------|
|----------------------------------------|
|---------------7h8-6/7-8-8-7---7-8-7--7-|
|-6-6--5--5-5h6--------------------------|

Bridge

|-----|-------------------|-------------------|
|-x4--|--------x7---------|-------------------|
|-----|-----5-------------|-----5-------------|
|-0-0-|-0-0---0-1-0-2-0-3-|-0-0---0-1-0-2-0-2-|
|-----|-------------------|-------------------|

Last Chorus

|-------------------------------------|
|---------------7---------------------|
|------------/8-----------------------|
|-0--1--0--0------0--1--0--0--1-0-0-0-|
|-------------------------------------|

|---------------------------------|
|---------------7-----------------|
|------------/8-------------------|
|-0--1--0--0------0--1--0--0--1-1-|
|---------------------------------|

6.Fear/5-string tuned down 1/2 step

Intro

|---------------------------|-----|---------------------------|-----|
|----x2---------------------|-----|--------x2-----------------|-----|
|---------------------------|-----|---------------------------|-----|
|-2-0-2--3-0-3-2-0-2--3-0-3-|-3-5-|-2-0-2--3-0-3-2-0-2--3-0-3-|-5-3-|
|---------------------------|-----|---------------------------|-----|

Verse

|-------------------|-----------------------|
|-------x3----------|-----------------------|
|-------------------|-----------------------|
|-2-2--3-3-2-2--3-3-|-2-2--3-3-2-2--3-3-3-3-|
|-------------------|-----------------------|

Pre-Chorus

|---------------------------------------------------|
|---------------------------------------------------|
|---------------------------------------------------|
|-3h5-2-2-5h7-2-2-3h5-0-3-5h7-2-2-2-2-2-2-2-2-8-8-8-|
|---------------------------------------------------|

Chorus

|---------------------------|
|---------------------------|
|-7/-----------7/-----------|
|----2-3-5--------2-3-5-5-3-|
|----------1-6--------------|

Breakdown

|-----------------------|------------|
|----x2-----------------|--x3--------|
|-----------------------|------------|
|-2-2--2-2--2-2--2-2--2-|-2-3-2-0--0-|
|-----------------------|------------|

7.Numb/Drop D tuning:Tune down 1/2 step

Intro/Verse

|-------------7----|
|-------------7-x16|
|-------------5----|
|-0h3-3-3-3/5------|

Pre-Chorus

|----------------------|----------------------------------------|
|---x2-1/2-------------|----------------------------------------|
|----------------------|----------------------------------------|
|-5^-(5)-3-0-6-0-0-0-3-|-6-0-0-0-3--0-5^-(5)-3-0-6-0-0-0-3--0-3-|

Chorus

|----------------------------------|
|----------------------------------|
|-2---2-----2---2-3---3-----5---5--|
|---2---2-2---2-----2---2-2---2----|

|-----------------|--------------|
|-----------------|---x2---------|
|-2---2-----2---2-|-3---3--------|
|---2---2-2---2---|---2---2-2\/--|

Bridge

|-----------------------------8-|
|-----------------------------8-|
|-----0h1-0-----------0h1-0-3-6-|
|-0-0-------3-x-1-0-0-----------|

Chorus

|--------------------|---|--------------------|------------|
|------x2------------|---|------x2------------|------------|
|-2---2--2---2-3---3-|---|-2---2--2---2-3---3-|------------|
|---2------2-----2---|-3-|---2------2-----2---|-5^-(5)-3-0-|

Fill 1

|----------|----------|
|----x4----|--x2------|
|----------|----------|
|-3^-(3)-0-|-5^-(5)-0-|

Outro/Chorus

|---------------------------------|---------------------------------|---|
|-3-2-0-3-2-0-3-2-0-3-2-0-3-2-3-2-|-------x4------------------------|---|
|---------------------------------|---------------------------------|---|
|------x4-------------------------|-5-3-0-5-3-0-5-3-0-5-3-0-5-3-5-3-|-0-|

8.Want/5-string tuned down 1/2 step

Intro/Chorus

|-----------------------------------------------------|
|-----------------------------------------------------|
|-----------------------------------------------------|
|-0--0-0-0-0--0-0-0-------0--0-0-0-0--0-0-0-0-0-0-0-0-|
|-------------------3-5-6-----------------------------|

Verse

|-----------------------------------------------------------------|
|-----------------------7-5---7-------------------------3-2---2---|
|-7-7-7-7-7-7-5-7-7-5-7-----7---7-3-3-3-3-3-3-3-3-3-2-3-----3---3-|
|-----------------------------------------------------------------|
|-----------------------------------------------------------------|

|---------------------------|
|-------------------4-------|
|-----------------4---4-2---|
|-2-2-2-2-2-2-0-2---------2-|
|---------------------------|

Bridge

|---------------------------------|---------9---9-----------9-10-----|
|---------------------------------|-------8---8---8-------8------9---|
|-------------------------8-8-8-8-|-----7---------------7----------9-|
|-1-1-1-1-1-1-0-1-1-0-1-1---------|-0-0-------------0-0--------------|
|---------------------------------|----------------------------------|

|---------9---9-------------9---9---9/10---------10-9-8-------------|
|-------8---8---8-------8-8---8---8------------8--------10-9-8------|
|-----7---------------7----------------------7-----------------10-9-|
|-0-0-------------0-0--------------------0-0------------------------|
|-------------------------------------------------------------------|

|---------------------------------------------------------|
|---------------------------------------------------------|
|---------------------------------------------3-3-3-3-3-3-|
|-------------3-2-2-3-2-0-0-0-2-3-------------------------|
|-1-1-1-0-0-0---------------------1-1-1-0-0-0-------------|

|--------------------------------------------|--------|
|-------x4-----------------------------------|--------|
|--------------------------------------------|-x-x-x--|
|-0--0-0-0-0--0-0-0-------0-0--0-0--0-0--0-0-|--------|
|-------------------3-5-6--------------------|--------|

|-------------------------------|---------------------|
|----x4-------------------------|---------------------|
|-------------------------------|---------------------|
|-0-0-0-0-0-0-0-0-0-0-0-0-------|-0-0--0-0--0-0-0-0-0-|
|-------------------------3-5-6-|---------------------|

9.Conflict/Tuned down 1/2 step

Intro

|-----------------------------|
|-----x4----------------------|
|-----------------------------|
|-3-2-0-3-2-0-3-2-0-3-2-0-2-2-|

Pre-Chorus

|--------------------------------------------|----12-11------|
|------5-4----x2-----------------------------|-10-------9----|
|----3-----2---------------------------------|---------------|
|-0----------0-0-0-0-0-0-0-0-0-0-0-0-0-0-0-0-|-------------0-|

|-------------------------------------------------------------|
|-------------------------------------------------------------|
|-----------------------------3h5-5-5-5-5-5-5-5-5-5-5-5-5-5-5-|
|-0-0-0-0-0-0-0-0-0-0-0-0-0-0---------------------------------|

|---------------------------------|
|---------------------------------|
|-5/6-6-6-6-6-6-6-6-6-6-6-6-6-6-6-|
|---------------------------------|

Chorus

|-------------------------------------------|---------------------------------|
|--------------x3-------------------------5-|---------------------------------|
|---------7---------------------------------|---------------------------------|
|-0-0-0-0---0-0-0-0-1-0-0-0-0-2-0-0-0-0-3---|-0-0-0-0-0-0-0-0-1-1-1-1-1-1-1-1-|

|-----------------------------------------|
|-----------x2----------------------------|
|-----------------------------------------|
|-2-2-2-2-2-2-2-2-15-15-15-15-15-15-15-15-|

Bridge

|------|-----------------------|
|------|----x8-----------------|
|------|-----------------------|
|-0~---|-2h3-3-3h4-4-2-0h1-2-0-|

Interlude

|-----------|
|------x8---|
|--------4\-|
|-6-5-2-----|

10.Shout 2000/5-string tuned down 1/2 step

Intro/Chorus

|---------------------------------------------------|
|---------------------------------------------------|
|---------------------------------------------------|
|-7-7-5-7-8-7-5-7-5-7-5-8---3-3-3-3-3-3-0-5-3-3-0-2-|
|---------------------------------------------------|

|---------------------------------------------------|
|---------------------------------------------------|
|---------------------------------------------------|
|-3-3-3-3-3-3-0-3-3-3-3-3---------------------------|
|-------------------------3-3-3--3-3--3-3--3-3--0-2-|

Verses 1,2,& 3

|----------------------------|---------------------------------|
|----------------------------|---------------------------------|
|----------------------------|---------3-----------------------|
|-7-7-5-7-8-7--5-7--5-7--5-8-|---------------------------------|
|----------------------------|-1--1--1----3-3-3-3--3-3-3-3-15/-|

Bridge

|--------------------------------------------------------|
|--------------------------------------------------------|
|--------------------------------------------5---5-7-5---|
|---------------7-7-7-7-7-7-7-7-7-7--7-7-7-7---7-------7-|
|-3-3-3-3-3-3-3------------------------------------------|

|-----------------------------------------------------------------|
|-7---7----7---------7-------------7---7----7---------5---5-7-----|
|---7---10---0-0-5-7-----5---5-7-0---7---10---0-0-0-7---7-----0-0-|
|----------------------7---7--------------------------------------|
|-----------------------------------------------------------------|

Verse 4

|----------------------|--------------------------|
|----------------------|--------------------------|
|------x2--------------|--------------------------|
|----------------------|------------------0-3-5-8-|
|-3-3-3-3--3-3-3-3-15/-|-3-3-3-3--3-3-x-x---------|

Last Chorus

|---------------------------------------------------------------|
|---------------------------------------------------------------|
|---------------------------------------------------------------|
|-7-7-5-7-8-7--3-3-3-3-3-3-0-5-3-3-0-2--3-3-3-3-3-3-0-3-3-3-3-3-|
|---------------------------------------------------------------|

|-------------------------------------------------|
|-------------------------------------------------|
|-------------------------------------------------|
|-------------------------7-7-5-7-8-7-5-7-5-7-5-8-|
|-3-3-3-3-3-3-0-3-3-3-3-3-------------------------|

End Riff

|---------------------------------------------------|
|---------------------------------------------------|
|-------5-5--5-7-7-------------3-----3-----3--------|
|-7-7-7--------------------7-5---7-5---7-5---7-5----|
|------------------3-2-1-0-----------------------1/-|

11.Droppin' Plates/5-string tuned down 1/2 step

Intro/Chorus

|-------------------------------------|
|-------------------x2----------------|
|-------------------------------------|
|-0--0-1-1-1-1-1--1--0--0-1-1-1-1-1-6-|
|-------------------------------------|

Verse 1

|------------------|-------------------------|
|----x3------------|-------------------------|
|-----------5-5-5-5|-----5-------3---3---3---|
|-1-1--0--0--------|-5-5---5-3-3---3---3---3-|
|------------------|-------------------------|

Pre-Chorus

|----------------------------------------------------|
|----------------------------------------------------|
|----------------------------------------------------|
|-1-0-----6--0-3-5-0-3-0-3--1-0-----6--0-3-5-0-3-3-3-|
|-----4-3-----------------------4-3------------------|

Verse 2

|--------------------|-------------------------|
|---x3-------5-5-5-5-|-------------------------|
|--------------------|-----5-------3---3---3---|
|-1-1--0-0-----------|-5-5---5-3-3---3---3---3-|
|--------------------|-------------------------|

|--------------------------------------------|
|--------------------------------------------|
|--------------------------------------------|
|-1-0--0-0--0-0-0--0-0-0--------0-0-0--0-0-0-|
|------------------------1-4-3---------------|

|------------------------------------------------|
|------------------------------------------------|
|----------------------------5-------3---3---3---|
|-1-0--0-0--0-0-0--0-0-0-5-5---5-3-3---3---3---3-|
|------------------------------------------------|

Bridge

|-------------------------------------------------|
|------12-13-12-13-12-13-12-12-12-12--12-12-12-12-|
|-------------------------------------------------|
|-0~----------------------------------------------|
|-------------------------------------------------|

12.Meaning Of Life/Tuned down 1/2 step

|----------------|
|-----x3---------|
|----------------|
|-0-0---0-0---0--|

Intro/Verse

|-----------------------------------------------------------------------|
|-----------------------------------------------------------------------|
|-----------------------------------------------------------------------|
|-1-0-0-0-0-0-0-0-0--0-0-0-0-0-0-0-0-0-0-0-3--5-1-0-0-0-0-0-0-0-0-0-0-0-|

Chorus

|------------|----------------------------|
|------x8----|----------------------------|
|------------|----------------------------|
|-1-0-x-1-3-4|-0-1-0-1-0--0-1-0-1-0-0-1-3-|

Bridge

|--------x12---------------------|
|-----------------------------3--|
|---------------------------1----|
|-0-0--0-0--0-0-0--0-0--0-0------|

Outro/Verse

|-----------------------------------------------|-----------------------------------|
|---x3------------------------------------------|-----------------------------------|
|-----------------------------------------------|-----------------------------------|
|-1-0-0-0-0-0-0-0--0-0-0-0-0-0-0-0-0-0-0--0-0-0-|-1-0-0-0-0-0-0-0-0-0-0-1-0-x-1-3-4-|
comments
We did not receive enough feedback on this tab! Please rate:
print report bad tab
1 2 3 4 5
5 comments total. Showing first comments.
0 reply
Andrew Zara wrote on March 18 2005, 12:00 am

Just to let all you who actually look at this tab,this is all my own tabs.I don't know why I just said that.

0 reply
pHaKe wrote on January 2 2006, 08:46 am

Dude, i have a disturbed The Sickness Tab Book, it has bass tab, this is exactly like that. It's all correct, but it's straight out of the book, 1*

0 reply
gmbassist wrote on September 20 2007, 10:17 pm

dude these tabs are freakin amazing. Fuzz is freakin amazing. He's a lot faster than i thought he wuz. and this is coming from a long time disturbed fan

I want to post or [tab]
guest
You may want to rate the tab now too:
select rating
Please do not post tabs as comments. Select "correction" instead!