Oops, an error
Loading. Please wait.

Two Worlds Tab

ver2
ver2

Whole song

Interactive

More versions @911Tabs.com
590 views 1 this week
no commentswrite comment
1 2 3 4 5
please rate
Autoscroll
+/-
esc
set tempo
stop
Contributor
Difficulty
Tuning
advanced
C# G# C# F# A# D#
WARNING: You are trying to view
                                    content from Ultimate-Guitar.com
                                    in an unauthorized application,
                                    which is prohibited.

                                    Please use an official Ultimate
                                    Guitar Tabs application for iPhone,
                                    iPad or Android to access legitimate
                                    chords, guitar, bass, and drum tabs
                                    from Ultimate-Guitar.com database.

                                    Type "ultimate guitar tabs" in Apple
                                    App Store's or Android Market's
                                    search to find the application.
                              TWO WORLDS                                   

This tab is 100% correct, and better than any of the other ones that were posted. 
I went through the solo several times and it is note-for-note. Although the guitar 
pro version has five stars, it is still incorrect. I went through it, the solo was 
half improvised. So don't worry, you're not missing anything. I posted this as a 
tab so everyone could see it. GL HF
                                                                       Disturbed
Dan Lead Guitar


Intro
       E   E   E  E   E   E   E  E     E   E   E   E  E   E   E   E   
D#||--------------------------------|--------------------------------|
A#||--------------------------------|--------------------------------|
F#||--------------------------------|--------------------------------|
C#||--------------------------------|--------------------------------|
G#||--------------------------------|--------------------------------|
C#||--12--10--12--0--12--10--12--0--|--0--12--10--13--0--12--10--12--|


  E  E   E   E   E   E   E   E      E   E   E  E   E   E   E  E   
--------------------------------|--------------------------------|
--------------------------------|--------------------------------|
--------------------------------|--------------------------------|
--------------------------------|--------------------------------|
--------------------------------|--------------------------------|
--0--0--12--10--12--12--10--13--|--12--10--12--0--12--10--12--0--|


                 D5 D5 D5 E5    E5 D5 B5 B5 B5 G#5 G#5 D5  
  E   E   E   E  E  E  E  E     E  E  E  E  E  E   E   E   
-----------------------------|----------------------------|
-----------------------------|----------------------------|
-----------------------------|----------------------------|
-----------------1--1--1--3--|--3--1--5--5--5--7---7---8--|
-----------------1--1--1--3--|--3--1--3--3--3--7---7---6--|
--0--12--10--13--1--1--1--3--|--3--1-----------7---7------|


   C#5 B5  C#5    C#5 B5  C#5          C#5 B5  D5     C#5 B5  C#5 
              PM             PM    PM             PM              
   E   E   E  E   E   E   E  E     E   E   E   E  E   E   E   E   
--------------------------------|--------------------------------|
--------------------------------|--------------------------------|
--------------------------------|--------------------------------|
--12--10--12-----12--10--12-----|-----12--10--13-----12--10--12--|
--12--10--12-----12--10--12-----|-----12--10--13-----12--10--12--|
--12--10--12--0--12--10--12--0--|--0--12--10--13--0--12--10--12--|


         C#5 B5  C#5 C#5 B5  D5     C#5 B5  C#5    C#5 B5  C#5    
  PM PM                                        PM             PM  
  E  E   E   E   E   E   E   E      E   E   E  E   E   E   E  E   
--------------------------------|--------------------------------|
--------------------------------|--------------------------------|
--------------------------------|--------------------------------|
--------12--10--12--12--10--13--|--12--10--12-----12--10--12-----|
--------12--10--12--12--10--13--|--12--10--12-----12--10--12-----|
--0--0--12--10--12--12--10--13--|--12--10--12--0--12--10--12--0--|


      C#5 B5  D5 D5 D5 D5 E5    E5 D5 B5 B5 B5 G#5 G#5 D5  
  PM                                                       
  E   E   E   E  E  E  E  E     E  E  E  E  E  E   E   E   
-----------------------------|----------------------------|
-----------------------------|----------------------------|
-----------------------------|----------------------------|
-----12--10--13--1--1--1--3--|--3--1--5--5--5--7---7---8--|
-----12--10--13--1--1--1--3--|--3--1--3--3--3--7---7---6--|
--0--12--10--13--1--1--1--3--|--3--1-----------7---7------|

Verse
  C#5    C#5    C#5 C#5 D#5       D#5    D#5 D#5 E5    E5     
  E   E  E   E  E   E   E   E     E   E  E   E   E  E  E  E   
-------------------------------|-----------------------------|
-------------------------------|-----------------------------|
-------------------------------|-----------------------------|
--0------0------0---0---2------|--2------2---2---3-----3-----|
--0------0------0---0---2------|--2------2---2---3-----3-----|
--0------0------0---0---2------|--2------2---2---3-----3-----|


  E5 E5 B5 B5 B5 B5 G#5  B5    A5    A5    A5 A5 A5     
  E  E  E  E  E  E  E    E     E  E  E  E  E  E  E  E   
----------------------------|--------------------------|
----------------------------|--------------------------|
----------------------------|--------------------------|
--3--3--5--5--5--5--7---10--|--8-----8-----8--8--8-----|
--3--3--3--3--3--3--7---10--|--8-----8-----8--8--8-----|
--3--3--------------7---10--|--8-----8-----8--8--8-----|


  A5    A5 A5 G#5    G#5       G#5 G#5 G#5 G#5 G#5 G#5 E5 E5  
  E  E  E  E  E   E  E   E     E   E   E   E   E   E   E  E   
----------------------------|--------------------------------|
----------------------------|--------------------------------|
----------------------------|--------------------------------|
--8-----8--8--7------7------|--7---7---7---7---7---7---3--3--|
--8-----8--8--7------7------|--7---7---7---7---7---7---3--3--|
--8-----8--8--7------7------|--7---7---7---7---7---7---3--3--|


  C#5    C#5    C#5 C#5 D#5       D#5    D#5 D#5 E5    E5     
  E   E  E   E  E   E   E   E     E   E  E   E   E  E  E  E   
-------------------------------|-----------------------------|
-------------------------------|-----------------------------|
-------------------------------|-----------------------------|
--0------0------0---0---2------|--2------2---2---3-----3-----|
--0------0------0---0---2------|--2------2---2---3-----3-----|
--0------0------0---0---2------|--2------2---2---3-----3-----|


  E5 E5 B5 B5 B5 B5 G#5  B5    A5    A5    A5 A5  C#5    
  E  E  E  E  E  E  E    E     E  E  E  E  E  E   E  E   
----------------------------|---------------------------|
----------------------------|---------------------------|
----------------------------|---------------------------|
--3--3--5--5--5--5--7---10--|--8-----8-----8--8--12-----|
--3--3--3--3--3--3--7---10--|--8-----8-----8--8--12-----|
--3--3--------------7---10--|--8-----8-----8--8--12-----|


  A5    A5 A5 G#5    G#5       G#5 G#5 G#5 G#5 G#5 G#5  B5  B5  
  E  E  E  E  E   E  E   E     E   E   E   E   E   E    E   E   
----------------------------|----------------------------------|
----------------------------|----------------------------------|
----------------------------|----------------------------------|
--8-----8--8--7------7------|--7---7---7---7---7---7---10--10--|
--8-----8--8--7------7------|--7---7---7---7---7---7---10--10--|
--8-----8--8--7------7------|--7---7---7---7---7---7---10--10--|


  A5                  A5       F#5         F#5               
  W                   H        H           W                 
-------------------|--------------------|-------------------|
-------------------|--------------------|-------------------|
-------------------|--------------------|-------------------|
--8----------------|--L--------5--------|--L----------------|
--8----------------|--L--------5--------|--L----------------|
--8----------------|--L--------5--------|--L----------------|

Pre-Chorus
  G#5  A5   E5 E5 F#5     C#5  E5 C#5 G#5  A5      E5 E5 F#5  E5   F#5 E5  
  Q    Q    E  E  Q       Q    E  E   Q    Q       E  E  Q    Q    E   E   
-----------------------|------------------------|-------------------------|
-----------------------|------------------------|-------------------------|
-----------------------|------------------------|-------------------------|
--7----8----3--3--5----|--0----3--0---7----8----|--3--3--5----3----5---3--|
--7----8----3--3--5----|--0----3--0---7----8----|--3--3--5----3----5---3--|
--7----8----3--3--5----|--0----3--0---7----8----|--3--3--5----3----5---3--|


  G#5  A5   E5 E5 F#5     C#5 C#5 E5 C#5 G#5  A5    E5 E5 F#5  F#5 B5 B5 B5  
  Q    Q    E  E  Q       E   E   E  E   Q    Q     E  E  Q    E   E  E  E   
-----------------------|---------------------------|------------------------|
-----------------------|---------------------------|------------------------|
-----------------------|---------------------------|------------------------|
--7----8----3--3--5----|--0---0---3--0---7----8----|--3--3--5----5---5--5--5|
--7----8----3--3--5----|--0---0---3--0---7----8----|--3--3--5----5---3--3--3|
--7----8----3--3--5----|--0---0---3--0---7----8----|--3--3--5----5----------|

Chorus
  C#5  C#5    C#5    C#5       C#5    D5 D5 C#5  C#5     
                                      PM PM              
  Q    E   E  E   E  E   E     E   E  E  E  Q    E   E   
----------------------------|---------------------------|
----------------------------|---------------------------|
----------------------------|---------------------------|
--0----0------0------0------|--0------1--1--0----0------|
--0----0------0------0------|--0------1--1--0----0------|
--0----0------0------0------|--0------1--1--0----0------|


  C#5    D5    D5    E5 D5    C#5  C#5    C#5    C#5     
                     PM PM                               
  E   E  E  E  E  E  E  E     Q    E   E  E   E  E   E   
---------------------------|----------------------------|
---------------------------|----------------------------|
---------------------------|----------------------------|
--0------1-----1-----3--1--|--0----0------0------0------|
--0------1-----1-----3--1--|--0----0------0------0------|
--0------1-----1-----3--1--|--0----0------0------0------|


  C#5    D5 D5  C#5 B5  C#5D5    D5    D5  E5 E5  C#5 B5  D5  
         PM PM                                                
  E   E  E  E   E   E   E  E     E  E  E   E  E   E   E   E   
------------------------------|------------------------------|
------------------------------|------------------------------|
------------------------------|------------------------------|
--0------1--1--12--10--12--1--|--1-----1h--3--3--12--10--13--|
--0------1--1--12--10--12--1--|--1-----1---3--3--12--10--13--|
--0------1--1--12--10--12--1--|--1-----1h--3--3--12--10--13--|


  C#5  C#5    C#5    C#5       C#5    D5 D5 C#5  C#5     
                                      PM PM              
  Q    E   E  E   E  E   E     E   E  E  E  Q    E   E   
----------------------------|---------------------------|
----------------------------|---------------------------|
----------------------------|---------------------------|
--0----0------0------0------|--0------1--1--0----0------|
--0----0------0------0------|--0------1--1--0----0------|
--0----0------0------0------|--0------1--1--0----0------|


  C#5    D5    D5    E5 D5    C#5  C#5    C#5    C#5     
                     PM PM                               
  E   E  E  E  E  E  E  E     Q    E   E  E   E  E   E   
---------------------------|----------------------------|
---------------------------|----------------------------|
---------------------------|----------------------------|
--0------1-----1-----3--1--|--0----0------0------0------|
--0------1-----1-----3--1--|--0----0------0------0------|
--0------1-----1-----3--1--|--0----0------0------0------|


  C#5    D5 D5  C#5 B5  C#5D5    D5    D5  E5 E5  C#5 B5  D5  
         PM PM                                                
  E   E  E  E   E   E   E  E     E  E  E   E  E   E   E   E   
------------------------------|------------------------------|
------------------------------|------------------------------|
------------------------------|------------------------------|
--0------1--1--12--10--12--1--|--1-----1h--3--3--12--10--13--|
--0------1--1--12--10--12--1--|--1-----1---3--3--12--10--13--|
--0------1--1--12--10--12--1--|--1-----1h--3--3--12--10--13--|


  C#5                 C#5                 C#5               
  W                   W                   W                 
-------------------|-------------------|-------------------|
-------------------|-------------------|-------------------|
-------------------|-------------------|-------------------|
--0----------------|--L----------------|--L----------------|
--0----------------|--L----------------|--L----------------|
--0----------------|--L----------------|--L----------------|

Verse
  C#5    C#5    C#5 C#5 D#5       D#5    D#5 D#5 E5    E5     
  E   E  E   E  E   E   E   E     E   E  E   E   E  E  E  E   
-------------------------------|-----------------------------|
-------------------------------|-----------------------------|
-------------------------------|-----------------------------|
--0------0------0---0---2------|--2------2---2---3-----3-----|
--0------0------0---0---2------|--2------2---2---3-----3-----|
--0------0------0---0---2------|--2------2---2---3-----3-----|


  E5 E5 B5 B5 B5 B5 G#5  B5    A5    A5    A5 A5 A5     
  E  E  E  E  E  E  E    E     E  E  E  E  E  E  E  E   
----------------------------|--------------------------|
----------------------------|--------------------------|
----------------------------|--------------------------|
--3--3--5--5--5--5--7---10--|--8-----8-----8--8--8-----|
--3--3--3--3--3--3--7---10--|--8-----8-----8--8--8-----|
--3--3--------------7---10--|--8-----8-----8--8--8-----|


  A5    A5 A5 G#5    G#5       G#5 G#5 G#5 G#5 G#5 G#5 E5 E5  
  E  E  E  E  E   E  E   E     E   E   E   E   E   E   E  E   
----------------------------|--------------------------------|
----------------------------|--------------------------------|
----------------------------|--------------------------------|
--8-----8--8--7------7------|--7---7---7---7---7---7---3--3--|
--8-----8--8--7------7------|--7---7---7---7---7---7---3--3--|
--8-----8--8--7------7------|--7---7---7---7---7---7---3--3--|


  C#5    C#5    C#5 C#5 D#5       D#5    D#5 D#5 E5    E5     
  E   E  E   E  E   E   E   E     E   E  E   E   E  E  E  E   
-------------------------------|-----------------------------|
-------------------------------|-----------------------------|
-------------------------------|-----------------------------|
--0------0------0---0---2------|--2------2---2---3-----3-----|
--0------0------0---0---2------|--2------2---2---3-----3-----|
--0------0------0---0---2------|--2------2---2---3-----3-----|


  E5 E5 B5 B5 B5 B5 G#5  B5    A5    A5    A5 A5  C#5    
  E  E  E  E  E  E  E    E     E  E  E  E  E  E   E  E   
----------------------------|---------------------------|
----------------------------|---------------------------|
----------------------------|---------------------------|
--3--3--5--5--5--5--7---10--|--8-----8-----8--8--12-----|
--3--3--3--3--3--3--7---10--|--8-----8-----8--8--12-----|
--3--3--------------7---10--|--8-----8-----8--8--12-----|


  A5    A5 A5 G#5    G#5       G#5 G#5 G#5 G#5 G#5 G#5  B5  B5  
  E  E  E  E  E   E  E   E     E   E   E   E   E   E    E   E   
----------------------------|----------------------------------|
----------------------------|----------------------------------|
----------------------------|----------------------------------|
--8-----8--8--7------7------|--7---7---7---7---7---7---10--10--|
--8-----8--8--7------7------|--7---7---7---7---7---7---10--10--|
--8-----8--8--7------7------|--7---7---7---7---7---7---10--10--|


  A5                  A5       F#5         F#5               
  W                   H        H           W                 
-------------------|--------------------|-------------------|
-------------------|--------------------|-------------------|
-------------------|--------------------|-------------------|
--8----------------|--L--------5--------|--L----------------|
--8----------------|--L--------5--------|--L----------------|
--8----------------|--L--------5--------|--L----------------|

Pre-Chorus
  G#5  A5   E5 E5 F#5     C#5  E5 C#5 G#5  A5      E5 E5 F#5  E5   F#5 E5  
  Q    Q    E  E  Q       Q    E  E   Q    Q       E  E  Q    Q    E   E   
-----------------------|------------------------|-------------------------|
-----------------------|------------------------|-------------------------|
-----------------------|------------------------|-------------------------|
--7----8----3--3--5----|--0----3--0---7----8----|--3--3--5----3----5---3--|
--7----8----3--3--5----|--0----3--0---7----8----|--3--3--5----3----5---3--|
--7----8----3--3--5----|--0----3--0---7----8----|--3--3--5----3----5---3--|


  G#5  A5   E5 E5 F#5     C#5 C#5 E5 C#5 G#5  A5    E5 E5 F#5  F#5 B5 B5 B5  
  Q    Q    E  E  Q       E   E   E  E   Q    Q     E  E  Q    E   E  E  E   
-----------------------|---------------------------|------------------------|
-----------------------|---------------------------|------------------------|
-----------------------|---------------------------|------------------------|
--7----8----3--3--5----|--0---0---3--0---7----8----|--3--3--5----5---5--5--5|
--7----8----3--3--5----|--0---0---3--0---7----8----|--3--3--5----5---3--3--3|
--7----8----3--3--5----|--0---0---3--0---7----8----|--3--3--5----5----------|

Chorus
  C#5  C#5    C#5    C#5       C#5    D5 D5 C#5  C#5     
                                      PM PM              
  Q    E   E  E   E  E   E     E   E  E  E  Q    E   E   
----------------------------|---------------------------|
----------------------------|---------------------------|
----------------------------|---------------------------|
--0----0------0------0------|--0------1--1--0----0------|
--0----0------0------0------|--0------1--1--0----0------|
--0----0------0------0------|--0------1--1--0----0------|


  C#5    D5    D5    E5 D5    C#5  C#5    C#5    C#5     
                     PM PM                               
  E   E  E  E  E  E  E  E     Q    E   E  E   E  E   E   
---------------------------|----------------------------|
---------------------------|----------------------------|
---------------------------|----------------------------|
--0------1-----1-----3--1--|--0----0------0------0------|
--0------1-----1-----3--1--|--0----0------0------0------|
--0------1-----1-----3--1--|--0----0------0------0------|


  C#5    D5 D5  C#5 B5  C#5D5    D5    D5  E5 E5  C#5 B5  D5  
         PM PM                                                
  E   E  E  E   E   E   E  E     E  E  E   E  E   E   E   E   
------------------------------|------------------------------|
------------------------------|------------------------------|
------------------------------|------------------------------|
--0------1--1--12--10--12--1--|--1-----1h--3--3--12--10--13--|
--0------1--1--12--10--12--1--|--1-----1---3--3--12--10--13--|
--0------1--1--12--10--12--1--|--1-----1h--3--3--12--10--13--|


  C#5  C#5    C#5    C#5       C#5    D5 D5 C#5  C#5     
                                      PM PM              
  Q    E   E  E   E  E   E     E   E  E  E  Q    E   E   
----------------------------|---------------------------|
----------------------------|---------------------------|
----------------------------|---------------------------|
--0----0------0------0------|--0------1--1--0----0------|
--0----0------0------0------|--0------1--1--0----0------|
--0----0------0------0------|--0------1--1--0----0------|


  C#5    D5    D5    E5 D5    C#5  C#5    C#5    C#5     
                     PM PM                               
  E   E  E  E  E  E  E  E     Q    E   E  E   E  E   E   
---------------------------|----------------------------|
---------------------------|----------------------------|
---------------------------|----------------------------|
--0------1-----1-----3--1--|--0----0------0------0------|
--0------1-----1-----3--1--|--0----0------0------0------|
--0------1-----1-----3--1--|--0----0------0------0------|


  C#5    D5 D5 C#5  C#5       C#5 E5 E5   E5   C#5 E5     D#5                
         PM PM                                                               
  E   E  E  E  Q    E   E     E   E  Q    Q    E   E      W                  
---------------------------|--------------------------|---------------------|
---------------------------|--------------------------|---------------------|
---------------------------|--------------------------|---------------------|
--0------1--1--0----0------|--0------3----3----0---3--|--(2)----------------|
--0------1--1--0----0------|--0------3----3----0---3--|--(2)----------------|
--0------1--1--0----0------|--0------3----3----0---3--|--(2)----------------|
Solo
 H        H           Q    H        E    E   
|--------------------|------------------------|
|--------------------|------------------------|
|--------------------|------------------------|
|--------------------|------------------------|
|--7-----------------|--7----8--------8br--L--|
|-----------9--------|------------------------|


  Q.     E   E   E  Q       Q.     H        E     Q     H         Q      
-------------------------|---------------------|------------------------|
-------------------------|---------------------|------------------------|
-------------------------|---------------------|------------------------|
-------------------------|---------------------|-------10~--------9~----|
--8------5h--7p--5--3----|--L------2--------0--|--L---------------------|
-------------------------|---------------------|------------------------|


  Q.      H        E  S S S S S S S S S S S S S S S S         
-------------------0--3-0-2-0-5-0-3-0-7-0-5-0-8-0-7-0-|
------------------------------------------------------|
---------10-------------------------------------------|
--L---------------------------------------------------|
------------------------------------------------------|
------------------------------------------------------|

   S S S S  S S  S S  E      S   S  S  S  S S  
--10-0-8-0-12-0-10-0-13br--(13)-10------------|
-----------------------------------12-10------|
-----------------------------------------12-9-|
----------------------------------------------|
----------------------------------------------|
----------------------------------------------|


   S S  S S  S S  S S  S  E    E.  E   
--------------------------------------|
--------------------------------------|
--------------------7h-9-12~---L---9--|
--12-9---------7h-9-------------------|
-------12-5h-7------------------------|
--------------------------------------|


   S  S  S  S  S  S  S  S  S  S  S  S  S  S  S  S  
--------------------------------------------------|
--------------------------------------------------|
--------12-14-------------------12-14-------12-14-|
--12-14-------12-14-------12-14-------12-14-------|
--------------------12-14-------------------------|
--------------------------------------------------|


   S  S  S  S  S  S  S  S  S  S  S  S  S  S  S  S  
--------------------------12-13-12-10-------------|
--------------------------------------12-11-12-11-|
--------------------12-14-------------------------|
--12-14-------12-14-------------------------------|
--------12-14-------------------------------------|
--------------------------------------------------|


   S  S  S  S  S  S  S  S  S  S  T   T   T   T   T  T  S  S  S  
---------------------------------------------------------------|
--------------------------------12h-13h-15p-13p-12-------------|
--14-12-14-12-------11-12-11-----------------------14-12-11----|
--------------12-14----------14-----------------------------14-|
---------------------------------------------------------------|
---------------------------------------------------------------|

-----------------------|
-----------------------|
-----------------------|
--12~-------------L----|
-----------------------|
-----------------------|


Interlude
  E   E  E   E  E   E  E   E     E   E  E   E  E  E  E  E   
------------------------------|----------------------------|
------------------------------|----------------------------|
------------------------------|----------------------------|
------------------------------|----------------------------|
-----12-----12-----13-----10--|-----10-----13--------------|
--0------0------0------0------|--0------0------0--8--0--8--|


  E   E  E  E  E  E  E  E     E   E  E   E  E   E  E   E   
---------------------------|------------------------------|
---------------------------|------------------------------|
---------------------------|------------------------------|
---------------------------|------------------------------|
---------------------------|-----12-----12-----13-----10--|
--0--10--7--7--7--8--7--3--|--0------0------0------0------|


  E   E  E   E  E  E  E  E     E   E  E  E  E  E  E  E   
----------------------------|---------------------------|
----------------------------|---------------------------|
----------------------------|---------------------------|
----------------------------|---------------------------|
-----10-----13--------------|---------------------------|
--0------0------0--8--0--8--|--0--10--7--7--7--8--7--3--|


  E   E  E   E  E   E  E   E     E   E  E   E  E  E  E  E   
------------------------------|----------------------------|
------------------------------|----------------------------|
------------------------------|----------------------------|
------------------------------|----------------------------|
-----12-----12-----13-----10--|-----10-----13--------------|
--0------0------0------0------|--0------0------0--8--0--8--|


  E   E  E  E  E  E  E  E     E   E  E   E  E   E  E   E   
---------------------------|------------------------------|
---------------------------|------------------------------|
---------------------------|------------------------------|
---------------------------|------------------------------|
---------------------------|-----12-----12-----13-----10--|
--0--10--7--7--7--8--7--3--|--0------0------0------0------|


                                                           A5                
  E   E  E   E  E  E  E  E     E   E  E  E  E  E  E  E     W                 
----------------------------|---------------------------|-------------------|
----------------------------|---------------------------|-------------------|
----------------------------|---------------------------|-------------------|
----------------------------|---------------------------|--8----------------|
-----10-----13--------------|---------------------------|--8----------------|
--0------0------0--8--0--8--|--0--10--7--7--7--8--7--3--|--8----------------|
                   
                                         Outro Chorus
  A5       F#5         F#5                 C#5  C#5    C#5    C#5     
  H        H           W                   Q    E   E  E   E  E   E   
--------------------|-------------------|----------------------------|
--------------------|-------------------|----------------------------|
--------------------|-------------------|----------------------------|
--L--------5--------|--L----------------|--0----0------0------0------|
--L--------5--------|--L----------------|--0----0------0------0------|
--L--------5--------|--L----------------|--0----0------0------0------|


  C#5    D5 D5  C#5 B5  C#5D5    D5    D5  E5 E5  C#5 B5  D5  
         PM PM                                                
  E   E  E  E   E   E   E  E     E  E  E   E  E   E   E   E   
------------------------------|------------------------------|
------------------------------|------------------------------|
------------------------------|------------------------------|
--0------1--1--12--10--12--1--|--1-----1h--3--3--12--10--13--|
--0------1--1--12--10--12--1--|--1-----1---3--3--12--10--13--|
--0------1--1--12--10--12--1--|--1-----1h--3--3--12--10--13--|


  C#5  C#5    C#5    C#5       C#5    D5 D5  C#5 B5  C#5D5  
                                      PM PM                 
  Q    E   E  E   E  E   E     E   E  E  E   E   E   E  E   
----------------------------|------------------------------|
----------------------------|------------------------------|
----------------------------|------------------------------|
--0----0------0------0------|--0------1--1--12--10--12--1--|
--0----0------0------0------|--0------1--1--12--10--12--1--|
--0----0------0------0------|--0------1--1--12--10--12--1--|


  D5    D5  E5 E5  C#5 B5  D5    C#5  C#5    C#5    C#5     
  E  E  E   E  E   E   E   E     Q    E   E  E   E  E   E   
------------------------------|----------------------------|
------------------------------|----------------------------|
------------------------------|----------------------------|
--1-----1h--3--3--12--10--13--|--0----0------0------0------|
--1-----1---3--3--12--10--13--|--0----0------0------0------|
--1-----1h--3--3--12--10--13--|--0----0------0------0------|


  C#5    D5 D5  C#5 B5  C#5D5    D5    D5  E5 E5  C#5 B5  D5  
         PM PM                                                
  E   E  E  E   E   E   E  E     E  E  E   E  E   E   E   E   
------------------------------|------------------------------|
------------------------------|------------------------------|
------------------------------|------------------------------|
--0------1--1--12--10--12--1--|--1-----1h--3--3--12--10--13--|
--0------1--1--12--10--12--1--|--1-----1---3--3--12--10--13--|
--0------1--1--12--10--12--1--|--1-----1h--3--3--12--10--13--|


  C#5  C#5    C#5    C#5       C#5    D5 D5  C#5 B5  C#5D5  
                                      PM PM                 
  Q    E   E  E   E  E   E     E   E  E  E   E   E   E  E   
----------------------------|------------------------------|
----------------------------|------------------------------|
----------------------------|------------------------------|
--0----0------0------0------|--0------1--1--12--10--12--1--|
--0----0------0------0------|--0------1--1--12--10--12--1--|
--0----0------0------0------|--0------1--1--12--10--12--1--|


  D5    D5  E5 E5  C#5 B5  D5   
  E  E  E   E  E   E   E   E    
------------------------------||
------------------------------||
------------------------------||
--1-----1h--3--3--12--10--13--||
--1-----1---3--3--12--10--13--||
--1-----1h--3--3--12--10--13--||




Duration Legend
---------------
W - whole
H - half
Q - quarter
E - 8th
S - 16th
T - 32nd
X - 64th
. - note dotted
|-n-|  - n-tuplets


Tablature Legend
----------------
L - tied note
x - dead note
g - grace note
(n) - ghost note
> - accentuded note
NH - natural harmonic
AH - artificial harmonic
TH - tapped harmonic
SH - semi harmonic
PH - pitch harmonic
h - hammer on
p - pull off
b - bend
br - bendRelease
pb - preBend
pbr - preBendRelease
brb - bendReleaseBend
\n/ - tremolo bar dip
\n - tremolo bar dive
-/n - tremolo bar Release up
/n\ - tremolo bar inverted dip
/n - tremolo bar return
-\n - tremolo bar Release down
S - shift slide
s - legato slide
/ -  slide into from below or out of upwards
\ -  slide into from above or out of downwards
~ - vibrato
W - wide vibrato
tr - trill
TP - tremolo picking
T - tapping
S - slap
P - pop
< - fade in
^ - brush up
v - brush down
comments
We did not receive enough feedback on this tab! Please rate:
print report bad tab
1 2 3 4 5
I want to post or [tab]
guest
You may want to rate the tab now too:
select rating
Please do not post tabs as comments. Select "correction" instead!