Oops, an error
Loading. Please wait.

Warrior Tab

ver2
ver2

Whole song

Interactive

More versions @911Tabs.com
2,562 views 12 this week
no commentswrite comment
1 2 3 4 5
worth learning
x 4
Autoscroll
+/-
esc
set tempo
stop
Contributor
Difficulty
Tuning
intermediate
C G C F A D
WARNING: You are trying to view
                                    content from Ultimate-Guitar.com
                                    in an unauthorized application,
                                    which is prohibited.

                                    Please use an official Ultimate
                                    Guitar Tabs application for iPhone,
                                    iPad or Android to access legitimate
                                    chords, guitar, bass, and drum tabs
                                    from Ultimate-Guitar.com database.

                                    Type "ultimate guitar tabs" in Apple
                                    App Store's or Android Market's
                                    search to find the application.
Disturbed - Warrior

Welcome...to the Asylum.
Please rate and feel free to comment! For any further comments: CellDwellin09@gmail.com

Key:
\ === Slide Down
/ === Slide Up
* === Palm Mute
h === Hammer-On
p === Pull-Off
b === Bend
~ === Let Note(s) Ring
v === Vibrato
|:=== Repeat Once (beginning)
:|=== Repeat Once (end)

Intro - Guitar 1 (0:00)
D|----------------------------------------------------|
A|----------------------------------------------------|
F|----------------------------------------------------|
C|----------------------------------------------------|
G|--8p5---------6p5-6p5-----8p5-------8p5-6p5---------|
C|------0-0-0-0---------0-0-----0-0-0---------0-0-0---|
	* * * *		* *	* * *	      * * *
D|--------------------|
A|--------------------|
F|--------------------|
C|--------------------|
G|--3h5---------------|
C|------0-0-0-0-5h6---|
	* * * *
D|----------------------------------------------------|
A|----------------------------------------------------|
F|----------------------------------------------------|
C|----------------------------------------------------|
G|--8p5---------6p5-6p5-----8p5-------8p5-6p5---------|
C|------0-0-0-0---------0-0-----0-0-0---------0-0-0---|
	* * * *		* *	* * *	      * * *
D|------------------|
A|------------------|
F|------------------|
C|------------------|
G|--3h5-------------|
C|------0-0-0-<3>---|
	* * *
(0:09)
D|----------------------------------------------------|
A|----------------------------------------------------|
F|----------------------------------------------------|
C|----------------------------------------------------|
G|--8p5---------6p5-6p5-----8p5-------8p5-6p5---------|
C|------0-0-0-0---------0-0-----0-0-0---------0-0-0---|
	* * * *		* *	* * *	      * * *
D|------------------------------------|
A|------------------------------------|
F|------------------------------------|
C|------------------5~~55-1~~11-8\\\--|
G|--3h5-------------5~~55-1~~11-8\\\--|
C|------0-0-0-0-5h6-5~~55-1~~11-8\\\--|
	* * * *
Verse 1 (x2) - Guitar 1
(0:16) and (0:26)
D|----------------------------------------------------|
A|----------------------------------------------------|
F|----------------------------------------------------|
C|----------------------------------------------------|
G|--8p5---------6p5-6p5-----8p5-------8p5-6p5---------|
C|------0-0-0-0---------0-0-----0-0-0---------0-0-0---|
	* * * *		* *	* * *	      * * *
D|--------------------|
A|--------------------|
F|--------------------|
C|--------------------|
G|--3h5---------------|
C|------0-0-0-0-5h6---|
	* * * *
D|----------------------------------------------------|
A|----------------------------------------------------|
F|----------------------------------------------------|
C|----------------------------------------------------|
G|--8p5---------6p5-6p5-----8p5-------8p5-6p5---------|
C|------0-0-0-0---------0-0-----0-0-0---------0-0-0---|
	* * * *		* *	* * *	      * * *
D|------------------|
A|------------------|
F|------------------|
C|------------------|(1st Ending)
G|--3h5-------5p3---|
C|------0-0-0-5p3---|
	* * *
Pre-Chorus 1 - Guitar 1
(0:34)
D|---------------------------------------------------------|
A|-----------------=============(Wah Pedal)==============--|
F|---------------------------------------------------------|
C|--3h5----------------------------------------------------|(2nd Ending)
G|------------5p3-----------------------66666666-33333333--|
C|------0-0-0-5p3--555555-7777-88-77-88--------------------|
	* * *
(0:40)
D|-------------------------------------------------------------|
A|-------------------------------------------------------------|
F|--------------------8-----------------7----------------------|
C|--------8\7-------7-------7\--------7------------------------|
G|--0--0--6\5-----5---------5\------5---------3h5---------0h1--|
C|--0--0------0-0-------0-0-0---0-0-------0-0-----0-0-0-0------|
    *  *      * *	* *	* *	  * *	  * * * *
D|-------------------------------------------------------------|
A|-------------------------------------------------------------|
F|--------------------8-----------------7----------------------|
C|--------8\7-------7-------7\--------7------------------------|
G|--0--0--6\5-----5---------5\------5---------3h5--------------|
C|--0--0------0-0-------0-0-0---0-0-------0-0-----6-5-6-8-6-5--|
    *  *      * *	* *	* *	  * *	  * * * * * *
Chorus 1 - Guitar 1
(0:50)
D|----------------------------------------|
A|--88888888-88888888-66666666-66666666---|
F|--77777777-77777777-77777777-77777777---|
C|--55555555-55555555-33333333-33333333---|
G|--55555555-55555555-33333333-33333333---|
C|--55555555-55555555-33333333-33333333---|

D|----------------------------------------|
A|--55555555-55555555-44444444-44444444---|
F|--44444444-44444444-33333333-33333333---|
C|--22222222-22222222-11111111-11111111---|
G|--22222222-22222222-11111111-11111111---|
C|--22222222-22222222-11111111-11111111---|

(0:59)
D|----------------------------------------------|
A|--88888888-88888888-11(x16)-5-(x16)-9-(x16)---|
F|--77777777-77777777-10(x16)-4-(x16)-8-(x16)---|Note: 11 = Eleven
C|--55555555-55555555-8-(x16)-2-(x16)-6-(x16)---|Note: 10 = Ten
G|--55555555-55555555-8-(x16)-2-(x16)-6-(x16)---|
C|--55555555-55555555-8-(x16)-2-(x16)-6-(x16)---|

Verse 2 (x2) - Guitar 1
(1:09 and 1:23)
D|:----------------------------------------------------|
A|:----------------------------------------------------|
F|:----------------------------------------------------|
C|:----------------------------------------------------|
G|:--8p5---------6p5-6p5-----8p5-------8p5-6p5---------|
C|:------0-0-0-0---------0-0-----0-0-0---------0-0-0---|
         * * * *	 * *	 * * *	       * * *
D|--------------------:|
A|--------------------:|Note: The repeated part is only
F|--------------------:|repeated once in the first time
C|--------------------:|around on this verse. However,
G|--3h5---------------:|the entire verse is repeated.
C|------0-0-0-0-5h6---:|
	* * * *
D|----------------------------------------------------|
A|----------------------------------------------------|
F|----------------------------------------------------|
C|----------------------------------------------------|
G|--8p5---------6p5-6p5-----8p5-------8p5-6p5---------|
C|------0-0-0-0---------0-0-----0-0-0---------0-0-0---|
	* * * *		* *	* * *	      * * *
D|------------------|
A|------------------|
F|------------------|
C|------------------|(1st Ending)
G|--3h5-------5p3---|
C|------0-0-0-5p3---|
	* * *
Pre-Chorus 2 - Guitar 1
(1:31)
D|---------------------------------------------------------|
A|-----------------=============(Wah Pedal)==============--|
F|---------------------------------------------------------|
C|--3h5----------------------------------------------------|(2nd Ending)
G|------------5p3-----------------------66666666-33333333--|
C|------0-0-0-5p3--555555-7777-88-77-88--------------------|
	* * *
(1:37)
D|-------------------------------------------------------------|
A|-------------------------------------------------------------|
F|--------------------8-----------------7----------------------|
C|--------8\7-------7-------7\--------7------------------------|
G|--0--0--6\5-----5---------5\------5---------3h5---------0h1--|
C|--0--0------0-0-------0-0-0---0-0-------0-0-----0-0-0-0------|
    *  *      * *	* *	* *	  * *	  * * * *
D|-------------------------------------------------------------|
A|-------------------------------------------------------------|
F|--------------------8-----------------7----------------------|
C|--------8\7-------7-------7\--------7------------------------|
G|--0--0--6\5-----5---------5\------5---------3h5--------------|
C|--0--0------0-0-------0-0-0---0-0-------0-0-----6-5-6-8-6-5--|
    *  *      * *	* *	* *	  * *	  * * * * * *
Chorus 2 - Guitar 1
(1:47)
D|----------------------------------------|
A|--88888888-88888888-66666666-66666666---|
F|--77777777-77777777-77777777-77777777---|
C|--55555555-55555555-33333333-33333333---|
G|--55555555-55555555-33333333-33333333---|
C|--55555555-55555555-33333333-33333333---|

D|----------------------------------------|
A|--55555555-55555555-44444444-44444444---|
F|--44444444-44444444-33333333-33333333---|
C|--22222222-22222222-11111111-11111111---|
G|--22222222-22222222-11111111-11111111---|
C|--22222222-22222222-11111111-11111111---|

(1:56)
D|----------------------------------------------|
A|--88888888-88888888-11(x16)-5-(x16)-9-(x16)---|
F|--77777777-77777777-10(x16)-4-(x16)-8-(x16)---|Note: 11 = Eleven
C|--55555555-55555555-8-(x16)-2-(x16)-6-(x16)---|Note: 10 = Ten
G|--55555555-55555555-8-(x16)-2-(x16)-6-(x16)---|
C|--55555555-55555555-8-(x16)-2-(x16)-6-(x16)---|

Breakdown - Guitar 1 (with Wah)
(2:06)
D|------------------------------------------|
A|----------9-(x16)-8-(x16)-6-(x8)----------|
F|--7-(x16)------------------------5-(x8)---|
C|------------------------------------------|
G|------------------------------------------|
C|------------------------------------------|

Guitar 2
D|-----------------|
A|-----------------|
F|-----------------|
C|-----------------| x4
G|--00000--0000-0--|
C|--00000--0000-0--|
    *****  **** *
Guitar 1 (With Wah)
(2:15)
D|--------------------------8-(x8)-11-(x8)-10\\\--|Note: 10\\\
A|----------9-(x16)-8-(x16)-----------------------|is echoed
F|--7-(x16)---------------------------------------|
C|------------------------------------------------|
G|------------------------------------------------|
C|------------------------------------------------|

Guitar 2
D|-----------------|
A|-----------------|
F|-----------------|
C|-----------------| x4
G|--00000--0000-0--|
C|--00000--0000-0--|
    *****  **** *
(Played by second guitar with Wah while 10\\\ echoes)
(2:25)
D|-------------------------------|
A|-------------------------------|
F|--7-(x9)-8-(x7)-7-(x9)-8-(x7)--|
C|-------------------------------|
G|-------------------------------|
C|-------------------------------|

Chorus 3 (x2) - Guitar 1
(2:30 and 2:48)
D|----------------------------------------|
A|--88888888-88888888-66666666-66666666---|
F|--77777777-77777777-77777777-77777777---|
C|--55555555-55555555-33333333-33333333---|
G|--55555555-55555555-33333333-33333333---|
C|--55555555-55555555-33333333-33333333---|

D|----------------------------------------|
A|--55555555-55555555-44444444-44444444---|
F|--44444444-44444444-33333333-33333333---|
C|--22222222-22222222-11111111-11111111---|
G|--22222222-22222222-11111111-11111111---|
C|--22222222-22222222-11111111-11111111---|

(2:39)
D|----------------------------------------------|
A|--88888888-88888888-11(x16)-5-(x16)-9-(x16)---|
F|--77777777-77777777-10(x16)-4-(x16)-8-(x16)---|Note: 11 = Eleven
C|--55555555-55555555-8-(x16)-2-(x16)-6-(x16)---|Note: 10 = Ten
G|--55555555-55555555-8-(x16)-2-(x16)-6-(x16)---|
C|--55555555-55555555-8-(x16)-2-(x16)-6-(x16)---|

Outro/Chorus - Guitar 2 (comes in with Wah on second chorus)
(2:51, 2:58, 3:03)
D|-----------------------------------|
A|--------------------------------6--|
F|----5h7---5h7---5h7---5h7---5h7----|
C|--0-----0-----0-----0-----0--------|
G|--*-----*-----*-----*-----*--------|
C|-----------------------------------|

D|-----------------------------------|
A|----------------------------6p5----|
F|----5h7---5h7---5h7---5h7-------5--|
C|--0-----0-----0-----0-----0--------|
G|--*-----*-----*-----*-----*--------|
C|-----------------------------------|

D|-----------------------------------|
A|-----------------------------------|
F|----5h7---5h7---3h5---2h3---2h3p3--|
C|--0-----0-----0-----0-----0--------|
G|--*-----*-----*-----*-----*--------|
C|-----------------------------------|

(2:58)
D|-----------------------------------|
A|--------------------------------6--|
F|----5h7---5h7---5h7---5h7---5h7----|
C|--0-----0-----0-----0-----0--------|
G|--*-----*-----*-----*-----*--------|
C|-----------------------------------|

D|-----------------------------------|
A|-----------------------------------|
F|----5h7---5h7---5h7---3h5---2h3p3--|
C|--0-----0-----0-----0-----0--------|
G|--*-----*-----*-----*-----*--------|
C|-----------------------------------|

(3:03)
D|-----------------------------------|
A|----------------------------6p5----|
F|----5h7---5h7---5h7---5h7-------5--|
C|--0-----0-----0-----0-----0--------|
G|--*-----*-----*-----*-----*--------|
C|-----------------------------------|

D|-----------------------------------|
A|-----------------------------------|
F|----5h7---5h7---5h7---3h5---2h3p3--|
C|--0-----0-----0-----0-----0--------|
G|--*-----*-----*-----*-----*--------|
C|-----------------------------------|

End - Guitars 1 and 2
(3:08)
D|------------|
A|------------|
F|------------|
C|---5~~~~~---|
G|---5~~~~~---|
C|---5~~~~~---|

By: CellDwellin09
comments
print report bad tab
I want to post or [tab]
guest
You may want to rate the tab now too:
select rating
Please do not post tabs as comments. Select "correction" instead!