Oops, an error
Loading. Please wait.

Tooth And Nail Tab

ver3
ver3

Whole song

Interactive

More versions @911Tabs.com
4,311 views 1 this week
no commentswrite comment
1 2 3 4 5
accurate
x 3
Autoscroll
+/-
esc
set tempo
stop
Contributor
Difficulty
intermediate
Hey! There's an official Ultimate Guitar app which is ideal
for learning songs when you're away from computer. Get the app
WARNING: You are trying to view
                                    content from Ultimate-Guitar.com
                                    in an unauthorized application,
                                    which is prohibited.

                                    Please use an official Ultimate
                                    Guitar Tabs application for iPhone,
                                    iPad or Android to access legitimate
                                    chords, guitar, bass, and drum tabs
                                    from Ultimate-Guitar.com database.

                                    Type "ultimate guitar tabs" in Apple
                                    App Store's or Android Market's
                                    search to find the application.
----------------------------------------------------------------------------
                        Tooth and Nail - Dokken
----------------------------------------------------------------------------
Tabbed by:JL_Shredder
Email:jloy16@yahoo.com

Tuning:Standard



INTRO:
E|----------------------------------|--------------------------------3--|
B|----------------------------------|----------------------3------3--0--|
G|----------------------------------|-------------------2--2--2---2--0--|
D|-4-3-2----------------------------|--------5~---------2--0--2---0--0--|
A|--------5-5-4-3-2-2-1-0-----------|-----7------7--7---0-----0---------|
E|-------------------------3-3-2-1--|--0-----------------------------3--|



E|--------------------------------|--------------------------------3----|
B|--------------------------------|----------------------3------3--0----|
G|-----------------------7----7---|-------------------2--2--2---2--0----|
D|-------------5~--------7----7---|--------5~---------2--0--2---0--0----|
A|----------7------7-7---5----4---|-----7------7--7---0-----0-----------|
E|-------0------------------------|--0-----------------------------3----|



E|----------------------------------------------------------------------|
B|----------------------------------------------------------------------|
G|----------------------------------------------------------------------|
D|-------------5~---------4-3-2-----------------------------------------|
A|----------7------7--7----------5-5-4-3-2-2-1-0------------------------|
E|-------0----------------------------------------3-3-2-1---------------|

          RHYTHM

E|----------------------------------------------------------------------|
B|----------------------------------------------------------------------|
G|----------------------------------------------------------------------|
D|----------------------------------------------------------------------|
A|--------5h7----7---7~----------5h7----7---7~----------5h7----7---7~---|
E|-------------0---0----0-0-0-0-------0---0----0-0-0-0-------0---0----0-|



E|------------------|---------------------------------------------------|
B|------------------|---------------------------------------------------|
G|--------7---8-8---|---------------------------------------------------|
D|--------7---8-8---|---------------------------------------------------|
A|--------5---6-6---|-5h7----7---7~----------5h7----7---7~----------5h7-|
E|-0-0-0------------|------0---0----0-0-0-0-------0---0----0-0-0-0------|

                                  PRECHORUS

E|----------------------------|-----------------------------------------|
B|----------------------------|-----------------------------------------|
G|---------------------7---7\-|----4-----------------------4------------|
D|---------------------7---7\-|----4---------4-2---4-2-----4--------4-2-|
A|----7---7~-----------5---5\-|----2--5p2-2------5-----5---2--5p2-2-----|
E|--0---0----0-0-0-0----------|-----------------------------------------|

                                              CHORUS

E|-------------------------------------|-------------------------------|
B|-------------------------------------|-------------------------3-----|
G|-------------------------------------|----------------------2--2--2--|
D|---------------2--------3--------4---|-----------5~---------2--0--2--|
A|-5-2-5---2-3-4----3-4-5----4-5-6-----|--------7------7--7---0-----0--|
E|-------------------------------------|-----0-------------------------|



E|-----3-|----------------------------|----------------------------------|
B|--3--0-|----------------------------|-------------------------3------3-|
G|--2--0-|-------------------7----7---|----------------------2--2--2---2-|
D|--0--0-|---------5~--------7----7---|-----------5~---------2--0--2---0-|
A|-------|------7------7-7---5----4---|--------7------7--7---0-----0-----|
E|-----3-|---0------------------------|-----0----------------------------|

                                              SOLO

E|--3-|------------------------------|----17h9-14-9-14-9-17h9-14-9-14-9--|
B|--0-|------------------------------|-----------------------------------|
G|--0-|------------------9---7---9~--|-----------------------------------|
D|--0-|--------5~--------9---7---9~--|-----------------------------------|
A|----|-----7------7-7---7---5---7~--|-----------------------------------|
E|--3-|--0---------------------------|-----------------------------------|



E|-17h9-14-9-14-9-17h9-14-9-14-9-16h9-12-9-12-9-16h9-12-9-12-9-16h9-12-9-|
B|-----------------------------------------------------------------------|
G|-----------------------------------------------------------------------|
D|-----------------------------------------------------------------------|
A|-----------------------------------------------------------------------|
E|-----------------------------------------------------------------------|



E|-12-9-16h9-12-9-12-9---------------------------------------------------|
B|---------------------17h10-14-10-14-10-17h10-14-10-14-10-17h10-14-10---|
G|-----------------------------------------------------------------------|
D|-----------------------------------------------------------------------|
A|-----------------------------------------------------------------------|
E|-----------------------------------------------------------------------|



E|-----------------------------------------------------------------------|
B|-14-10-17h10-14-10-14-10-17h9-12-9-12-9-17h9-12-9-12-9-17h10-13-10-13--|
G|-----------------------------------------------------------------------|
D|-----------------------------------------------------------------------|
A|-----------------------------------------------------------------------|
E|-----------------------------------------------------------------------|



E|----------------------17h9-14-9-14-9-17h9-14-9-14-9-17h9-14-9-14-9-17h-|
B|-10-17h10-13-10-13-10--------------------------------------------------|
G|-----------------------------------------------------------------------|
D|-----------------------------------------------------------------------|
A|-----------------------------------------------------------------------|
E|-----------------------------------------------------------------------|



E|-9-14-9-14-9-16h9-12-9-12-9-16h9-12-9-12-9-16h9-12-9-12-9-16h9-12-9-12-|
B|-----------------------------------------------------------------------|
G|-----------------------------------------------------------------------|
D|-----------------------------------------------------------------------|
A|-----------------------------------------------------------------------|
E|-----------------------------------------------------------------------|



E|-9---------------------------------------------------------------------|
B|---17h10-14-10-14-10-17h10-14-10-14-10-17h10-14-10-14-10-17h10-14-10---|
G|-----------------------------------------------------------------------|
D|-----------------------------------------------------------------------|
A|-----------------------------------------------------------------------|
E|-----------------------------------------------------------------------|



E|-----------------------------------------------------------------------|
B|-14-10-17h9-12-9-12-9-17h9-12-9-12-9-17h9-12-9-12-9-17h9-12-9-12-9-17h-|
G|-----------------------------------------------------------------------|
D|-----------------------------------------------------------------------|
A|-----------------------------------------------------------------------|
E|-----------------------------------------------------------------------|



E|-----------------------------------------------------------------------|
B|-9-12-9-12-9-17h9-12-9-12-9-17h9-12-9-12-9-17h9-12-9-12-9-17h9-12-9-12-|
G|-----------------------------------------------------------------------|
D|-----------------------------------------------------------------------|
A|-----------------------------------------------------------------------|
E|-----------------------------------------------------------------------|

with pick slides

E|-------------------------------------------------15h8-12-8--15h8-12-8-|
B|-9-17h9-12-9-12-9-17h9-12-9-12-9-17h9-12-9-12-9-----------------------|
G|----------------------------------------------------------------------|
D|----------------------------------------------------------------------|
A|----------------------------------------------------------------------|
E|----------------------------------------------------------------------|



E|--15h8-12-8--15h8-12-8------------------------------------------------|
B|------------------------14h7-11-7--14h7-11-7--14h7-11-7--14h7-11-14---|
G|----------------------------------------------------------------------|
D|----------------------------------------------------------------------|
A|----------------------------------------------------------------------|
E|----------------------------------------------------------------------|



E|-------15h8-12-8--15h8-12-8--15h8-12-8--15h8-12-8---------------------|
B|---------------------------------------------------14h7-11-7--14h7-11-|
G|----------------------------------------------------------------------|
D|----------------------------------------------------------------------|
A|----------------------------------------------------------------------|
E|----------------------------------------------------------------------|



E|--------------------------|------------------------------------------|
B|-7--14h7-11-7--14h7-11-14-|------------------------------------------|
G|--------------------------|--------12h5-9-5-12-5-9-5-12h5-9-5-12-5-9-|
D|--------------------------|------------------------------------------|
A|--------------------------|------------------------------------------|
E|--------------------------|------------------------------------------|



E|---------------------------------------------------------------------|
B|---------------------------------------------------------------------|
G|-5-------------------------------------------------------------------|
D|---11h4-8-4-11-4-8-4-11h4-8-4-11-4-8-4-------------------------------|
A|---------------------------------------10h3-7-3-10-3-7-3-10h3-7-3-10-|
E|---------------------------------------------------------------------|



E|---------------------------------------------------------------------|
B|-----------------------------------------8-7--------8-7-10b12--r-8-7-|
G|---------------------------------------------9-9~--------------------|
D|---------------------------------------------------------------------|
A|-3-7-3---------------------------------------------------------------|
E|-------9h2-6-2-9-2-6-2-9h2-6-2-9-2-6-2-------------------------------|



E|---------------------------------------------------------------------|
B|---8-7-----7--------8-7---------8-7-10b12--r-8-7----/12-10-8-8-7-----|
G|-9-----9-9---9-8~-------9-9~---------------------9---------------9-8~|
D|---------------------------------------------------------------------|
A|---------------------------------------------------------------------|
E|---------------------------------------------------------------------|



E|-----------0h8-12--------0h8-12--------7p8-10-8-7--------------------|
B|----0h8-12--------0h8-12--------7h8-10------------10p8-7-------------|
G|---------------------------------------------------------9--7~-------|
D|---------------------------------------------------------------------|
A|---------------------------------------------------------------------|
E|---------------------------------------------------------------------|



E|---------0h5-8---------0h5-8-----------------------------------------|
B|--0h5-8---------0h5-8------------------------------------------------|
G|--------------------------------------4h5-8-4------------------------|
D|-------------------------------4h5-7-----------7h5-4-----------------|
A|------------------------------------------------------7--6~----------|
E|---------------------------------------------------------------------|



E|--------------0h8-12----------0h8-12----------7p8-10-8-7-------------|
B|------0h8-12----------0h8-12----------7h8-10--------------10p8-7-----|
G|------------------------------------------------------------------9--|
D|---------------------------------------------------------------------|
A|---------------------------------------------------------------------|
E|---------------------------------------------------------------------|



E|----------|--------------0h5-8---------0h5-8--22-20-19---------------|
B|----------|-------0h5-8---------0h5-8-------------------22-20-19-----|
G|-7~-------|-------------------------------------------------------19-|
D|----------|----------------------------------------------------------|
A|----------|----------------------------------------------------------|
E|----------|----------------------------------------------------------|



E|--------------------------------------------------|
B|--------------------------------------------------|
G|-17-16--------------------------------------------|
D|--------19-17-16-12-10-9--------------------------|
A|--------------------------12-10-9-5-3-2-----------|
E|-----------------------------------------5-3-2-0--|

| /  slide up
| \  slide down
| h  hammer-on
| p  pull-off
| ~  vibrato
| +  harmonic
| x  Mute note

comments
We did not receive enough feedback on this tab! Please rate:
print report bad tab
1 2 3 4 5
I want to post or [tab]
guest
You may want to rate the tab now too:
select rating
Please do not post tabs as comments. Select "correction" instead!