Oops, an error
Loading. Please wait.

Unchain The Night Tab

ver1
ver1

Whole song

Interactive

More versions @911Tabs.com
19,633 views 36 this week
4 commentsread comments
1 2 3 4 5
excellent!
x 4
Autoscroll
+/-
esc
set tempo
stop
Contributor
Hey! There's an official Ultimate Guitar app which is ideal
for learning songs when you're away from computer. Get the app
WARNING: You are trying to view
                                    content from Ultimate-Guitar.com
                                    in an unauthorized application,
                                    which is prohibited.

                                    Please use an official Ultimate
                                    Guitar Tabs application for iPhone,
                                    iPad or Android to access legitimate
                                    chords, guitar, bass, and drum tabs
                                    from Ultimate-Guitar.com database.

                                    Type "ultimate guitar tabs" in Apple
                                    App Store's or Android Market's
                                    search to find the application.
Song:Unchain The Night
Written By:D.Dokken
Artist:Dokken
Album:Under Lock and Key
Tuning:Standard


Legend
------

h  = hammer-on
p  = pull-off
b  = bend
r  = bend release
/  = slide up/down
<5> = natural harmonic
[5] = artifical harmonic
~  = vibrato
tr = trill

Chord Diagrams (low to high)
----- --------

E5	0 2 2 4 X X
D5	X 5 7 7 X X
C5	X 3 5 5 X X
A5	X 0 2 2 X X
G5	3 X 0 0 3 X
Em	0 7 9 9 8 0
C	X 3 5 5 5 X
B	X 2 4 4 4 X
D	X 5 7 7 7 X
D/F#	2 X 0 2 3 X
A/C#	X 4 2 2 5 X
E5vii	X 7 9 9 X X


Intro:Clean Guitar
E|------------------------------------------|------------------------------|
B|*-----------------------------------------|------------------------------|
G|-----0-------2-------4-------5------5p4---|----0-------2-------4---------|
D|--------2-2-----2-2-----2-2----2-2--------|-------2-2-----2-2----2-------|
A|*-----------------------------------------|------------------------------|
E|--0---------------------------------------|-0----------------------------|

                                                    
                                                   1.

E|-------------|-----------------------------------|-----------------------|
B|-------------|-----------------------------------|-----------------------|
G|----5------4-|--0-----2------4-------5------5p4--|-------0------2--------|
D|-2----2-2----|----0-0---0-0-----0-0----0-0-------|--0-0----0-0-----0-----|
A|-------------|-----------------------------------|-----------------------|
E|-------------|-----------------------------------|-----------------------|
                                                    
                                 
                                2.

E|----------------------|--------------------------------------------------|
B|---------------------*|--------------------------------------------------|
G|----4-------5---------|-----------0-------2-------4-------5----4p2-------|
D|-0-----0-0-----0------|------2-2-----2-2-----0-0-------------------------|
A|---------------------*|------------------------------0-0----0------------|
E|-----------------3-2--|--------------------------------------------------|
                                 

                                          Distorted rhythm

E|--------------------|------------------|-------------------------|-------|
B|----0~--------------|------------------|-----5-------5-------5---|-------|
G|----0~--------------|------------------|-----4-------3-------2---|-------|
D|----2~--------------|------------------|-----2-------2-------2---|-------|
A|----2~--------------|------------------|-------------------------|-------|
E|----0~--------------|------------------|--------0-0-----0-0----0-|-0-0---|



E|----------------|-------------------|-----------------|------------------|
B|----------------|--5-------5--------|-----------------|--5-------5-------|
G|-2-----2-0------|--4-------3------2-|------------2----|--4-------3-------|
D|-2-----2-0------|--2-------2------2-|------------2----|--2-------2-------|
A|----------------|-----------------0-|--0---0--1--0----|------------------|
E|----0-------0-0-|-----0-0----0-0----|----3----------3/|-----0-0-----0----|

                                                          
                                              trem bar (grad descent)

E|--------|-------------------|----------------------|---------|-----------|
B|----5---|-------------------|--5-------5~----------|---------|-----------|
G|----2---|------2----2-0-----|--4-------3~------{3}-|--\------|-----------|
D|----2---|------2----2-0-----|--2-------2~----------|---------|-----------|
A|--------|-------------------|----------------------|---------|-----------|
E|-0----0-|-0--0----0-----0-0-|-----0-0--------------|---------|-----0-----|
                                                          


E|---------------|------------------|------------------|-------------------|
B|---------------|------------------|------------------|-------------------|
G|---------------|------------------|------------------|-------------------|
D|---------------|------------------|------------------|-------------------|
A|---------------|------------------|------------------|--------0-----0----|
E|-0-0-0-0-0-0-0-|--0-0-0-0-0-0-0-0-|--0-0-0-0-0-0-0-0-|--0--0-----3-------|



E|----------|--------------------|------------------|----------------------|
B|----------|--------------------|------------------|----------------------|
G|----------|--------------------|------------------|----------------------|
D|----------|--------------------|------------------|----------------------|
A|--1--0----|--------------------|------------------|----------------------|
E|--------3-|----0-0-0-0-0-0-0-0-|--0-0-0-0-0-0-0-0-|--0-0-0-0-0-0-0-0-----|



E|-------------------------|------------------------|----------------------|
B|-------------------------|----5-------5-------5---|----------------------|
G|-------------------------|----4-------3-------2---|-----2-----2-0--------|
D|-------------------------|----2-------2-------2---|-----2-----2-0--------|
A|--------0-----0--1--0----|------------------------|----------------------|
E|--0--0-----3-----------3-|-------0-0-----0-0----0-|-0-0----0-------0-0---|



E|--------------------|---------------|-----------------|------------------|
B|--5------5----------|---------------|-5-----5-----5---|------------------|
G|--4------3-------2--|------------2--|-4-----3-----2---|-----2---2-0\-----|
D|--2------2-------2--|------------2--|-2-----2-----2---|-----2---2-0\-----|
A|-----------------0--|-0-----0-1--0--|-----------------|------------------|
E|-----0-0----0--0----|----3----------|---0-0---0-0---0-|-0-0---0----------|

    
trem. bar

E|---|-----------|------------------------|---------------|--------3-------|
B|---|-----4-----|------------------------|---------------|--------3-------|
G|---|-4---4-----|-----{5}-{4}~-----------|-9--9-7----9-9-|--------0-------|
D|---|-4---4-----|---------------{5}-{4}~-|-9--9-7----9-9-|--------0-------|
A|---|-2---2-----|---2/{3}-{2}~-----------|-7--7-5--0-7-7-|----------------|
E|---|-----------|---------------{3}-{2}~-|-0-------------|----0-2-3-------|
    


E|-2---|------------|-----------------|-----------------|------3---2-------|
B|-3---|------------|-5-------7-------|--------7------9-|------3---3-------|
G|-2---|-9---7---5--|---5---5---7---7-|---9--9-7----9-9-|------0---2-------|
D|-0-0-|-9---7---5--|-----5-------7---|---9--9-7----9-9-|------0---0-------|
A|---0-|-7---5---3--|-----------------|---7--7-5--0-7-7-|-------------0----|
E|-----|------------|-----------------|---0-------------|--0-2-3-----------|

                                                                       
                                                                     
E|------------|----------|-----------------|-----------------|-------------|
B|----------5-|----7-----|-5-----5-----5---|-----------------|-5-----5~----|
G|----5-----2-|----7-----|-4-----3-----2---|-----2---2-0-----|-4-----3~----|
D|----5-----2-|----7--X\-|-2-----2-----2---|-----2---2-0-----|-2-----2~----|
A|----3---0-4-|--0-5--X\-|-----------------|-----------------|-------------|
E|------------|-------X\-|---0-0---0-0---0-|-0-0---0-----0-0-|---0-0-------|
                                                                       
    
trem. bar

E|----------|-------------------|-----------------|------------------------|
B|----15p12-|-------------------|-----------------|------------------------|
G|----------|---15-14p12~--(12)\|-----------------|------------------------|
D|----------|-------------------|-----------------|------------------------|
A|----------|-------------------|-----------------|------------------------|
E|----------|-------------------|-0-0-0-0-0-0-0-0-|--0-0-0-0-0-0-0-0-------|
    


E|-------------------|-----------------|-----------------|-----------------|
B|-------------------|-----------------|-------------7/9-|-----------------|
G|-------------------|-----------------|-------------7/9-|-----------------|
D|-------------------|-----------------|-------------7/9-|-----------------|
A|-------------------|-----0---0-1-0---|-------------5/7-|-----------------|
E|---0-0-0-0-0-0-0-0-|-0-0---3-------3-|-0-0-0-0-0-0-----|---0-0-0-0-0-0---|



E|-----|------------------|-------------------|-----------------|----------|
B|-----|------------------|-------------------|-5-----5-----5---|----------|
G|-----|------------------|-------------------|-4-----3-----2---|-----2----|
D|-0-2-|--------------0-2-|-------------------|-2-----2-----2---|-----2----|
A|-0-2-|--------------0-2-|-------0---0-1-0---|-----------------|----------|
E|-----|--0-0-0-0-0-0-----|---0-0---3-------3-|---0-0---0-0---0-|-0-0------|



E|-----------|----------------|-----------------|------------------|-------|
B|-----------|--5-----5-------|-----------------|--5-----5-----5---|-------|
G|---2-0-----|--4-----3-----2-|------------2----|--4-----3-----2---|-------|
D|---2-0-----|--2-----2-----2-|------------2----|--2-----2-----2---|-------|
A|-----------|--------------0-|-0-----0-1--0----|------------------|-------|
E|-0-----0-0-|----0-0---0-0---|----3----------3/|----0-0---0-0---0-|-0-----|

               
          trem. bar

E|--------------|-----------|-----------------------|----------------------|
B|--------------|-----4-----|-----------------------|--8----7--------------|
G|----2---2-0\--|-4---4-----|----{5}-{4}~-----------|--9--9-7----9-9\------|
D|----2---2-0\--|-4---4-----|--------------{5}-{4}~-|--9--9-7----9-9\------|
A|--------------|-2---2-----|--2/{3}-{2}~-----------|--7--7-5--0-7-7\------|
E|-0----0-------|-----------|--------------{3}-{2}~-|--0-------------------|
               


E|---------2---|----------------|------------------|---------------|-------|
B|-----0---3---|--8----7-----5--|-/5-------7-------|-8--8-7--------|-------|
G|-----0---2---|--9----7-----5--|----5---5---7---7-|-9--9-7----7-9-|-------|
D|-----0---0---|--9----7-----5--|------5-------7---|-9--9-7--0-7-9-|-------|
A|-----------0-|--7--0-5---0-3--|------------------|-7--7-5--0-5-7-|-------|
E|---2-3-------|----------------|------------------|-0-------------|--0----|



E|---3-------|----------------|------------|---------------|-------2-------|
B|---3---3---|--------------4-|--X\-3------|-8----7--------|---0---3-------|
G|---0---2---|-----5--------4-|--X\-2---2--|-9--9-7----9-9\|---0---2-------|
D|---0---0---|-----5--------4-|--X\-0---2--|-9--9-7----9-9\|---0---0-------|
A|---------0-|-----3------0-2-|---------0--|-7--7-5--0-7-7\|----------0----|
E|-2-3-------|----------------|------------|-0-------------|-2-3-----------|



E|-----------------|--------------------|----------------|-----3---2-------|
B|--8-----7-----5--|-/--5-------7-------|--8--8-7--------|-----3---3-------|
G|--9-----7-----5--|------5---5---7---7-|--9--9-7----7-9\|-----0---2-------|
D|--9-----7-----5--|--------5-------7---|--9--9-7--0-7-9\|-----0---0-------|
A|--7---0-5---0-3--|--------------------|--7--7-5--0-5-7\|-----------0-----|
E|-----------------|--------------------|--0-------------|---2-3-----------|



E|------------|-------------|-------------------|-----------------|--------|
B|-5--------5-|------7------|-------------------|-----------------|--------|
G|-5--------2-|------7------|-------------------|-----------------|--------|
D|-5------0-2-|------7------|-----4-4-4-4-4-5-4-|-4-4-4-4-4-4-4-4-|--------|
A|-3------0-4-|----0-5------|---0-2-2-2-2-2-2-2-|-2-2-2-2-2-2-2-2-|-0------|
E|------------|---------12\-|-------------------|-----------------|--------|



E|---------------|-----------------|-------------------|-------------------|
B|---------------|----------3------|-------------------|-------------------|
G|---------------|----------0--2---|-------------------|-------------------|
D|-4-4-4-4-4-5-4-|----4-4-4-0--2---|----4-4-4-4-4-5-4--|---4-4-4-4-4-4-----|
A|-2-2-2-2-2-2-2-|----2-2-2----0---|--0-2-2-2-2-2-2-2--|---2-2-2-2-2-2-----|
E|---------------|----------3------|-------------------|-------------------|

                                   GUITAR SOLO

E|------|-------------------|----------------------------------|-----------|
B|------|-------------------|-------7-8-7h-8-7-8-7-8-7-8-7---7-|-----------|
G|------|-------------------|------------------------------9---|--9~-------|
D|-4-4--|----4-4-4-4-4-5-4--|----------------------------------|-----------|
A|-2-2--|--0-2-2-2-2-2-2-2--|----------------------------------|-----------|
E|------|-------------------|----------------------------------|-----------|



E|----------------------|-----------------------------|--------------------|
B|--7-(7)h8-10b12-------|--12h-13--12---10h12-10\8----|-------8\p-7--------|
G|----------------------|-----------------------------|--------------7-----|
D|----------------------|---------------------------9-|--------------------|
A|----------------------|-----------------------------|--------------------|
E|----------------------|-----------------------------|--------------------|
                       
                  trem. bar

E|--------------|-------------|--------------7------|-----------7----------|
B|-7\p-5-----5--|-(5)---------|---5\--7-8-10---10-8p|---7-8-10-----10-8p---|
G|--------5-----|-------------|---------------------|----------------------|
D|--------------|-------------|---------------------|----------------------|
A|--------------|-------------|---------------------|----------------------|
E|--------------|-------------|---------------------|----------------------|
                       


E|---------7-----------------------------7--------|------------------------|
B|-7-8-10-----10-8-7-8-10-7-10-8-7-8-10-----10p8--|--7h8-10-7-10-8-7h8-----|
G|------------------------------------------------|------------------------|
D|------------------------------------------------|------------------------|
A|------------------------------------------------|------------------------|
E|------------------------------------------------|------------------------|



E|-----7---------------7---------------7-----------------------------------|
B|-10-----10p8-7-8-10-----10-8-7h8-10------10p8-7\5-8-5-7-5-5--------------|
G|------------------------------------------------------------5-7-4-5------|
D|--------------------------------------------------------------------7----|
A|-------------------------------------------------------------------------|
E|-------------------------------------------------------------------------|



E|---------|------------------|-17b19---r-17--b2----|-(17)\-12----15-15b17-|
B|---------|------------------|---------------------|----------14----------|
G|-4-------|------------------|---------------------|----------------------|
D|---5-7-4-|--7---4-5---------|---------------------|----------------------|
A|---------|----6-----6~----6/|---------------------|----------------------|
E|---------|------------------|---------------------|----------------------|



E|--|--r15\14-15~-14-12-14-(14)p12-14-12-|-----------------|---------------|
B|--|------------------------------------|--13-------------|-12h13-12-13---|
G|--|------------------------------------|-----------------|---------------|
D|--|------------------------------------|-----------------|---------------|
A|--|------------------------------------|-----------------|---------------|
E|--|------------------------------------|-----------------|---------------|



E|-------------------------------------------------------------------------|
B|-12----12h13-12-13-12----12h13-12-13-12----12h13-12-15-12-15-12----------|
G|----15----------------15----------------15-------------------------------|
D|-------------------------------------------------------------------------|
A|-------------------------------------------------------------------------|
E|-------------------------------------------------------------------------|



E|--------------------------------------------|----------------------------|
B|--15b-12h15-12------------------------------|----------------------------|
G|-----------------14b15--r-p12-14-{12}~----\-|------------------12-13h14--|
D|--------------------------------------------|--------12-13-14------------|
A|--------------------------------------------|----------------------------|
E|--------------------------------------------|----------------------------|



E|--------------------------------------|---17b19---r17~------15b16--------|
B|--------------------------------------|----------------------------------|
G|--14p12-16p12--14h16-15\p14--12/h14---|----------------------------------|
D|--------------------------------------|----------------------------------|
A|--------------------------------------|----------------------------------|
E|--------------------------------------|----------------------------------|
                 
                high notes (17) are guitar 1.

E|-----------------------------|------------------------|------------------|
B|----------17/5~----5~----5~--|--(17)-------------{17}~|--(17)------------|
G|------------4------3~----2~--|---------2~--2~0~-------|----4------3~-----|
D|------------2------2~----2~--|---------2~--2~0~-------|----2------2~-----|
A|-----------------------------|------------------------|------------------|
E|---------------0~0~--0~0~--0~|----0--0~--0~----0~{-0}~|-------0~0~--0~---|
                 


E|-------|---------------------|-------------------|-----------------------|
B|-------|---(17)-------5\3~---|---5-----5-----5---|-----------------------|
G|---2~--|--------------4\2~---|---4-----3-----2---|-----2---2-0-----------|
D|---2~--|---------------------|---2-----2-----2---|-----2---2-0-----------|
A|-------|----------0-0--------|-------------------|-----------------------|
E|-0~--0~|-----0--0------------|-----0-0---0-0---0-|-0-0---0-----0-0-------|

                                 
                                trem bar

E|----------------------|--------------------|-----------------------------|
B|----------------------|--------------------|*----------------------------|
G|-4-----3-(3)---{2.4}--|-(2.4)\-------------|----0-0-------2--------------|
D|-2-----2-(2)----------|--------------------|---------2-2----2-2----------|
A|----------------------|--------0---0-1-0---|*----------------------------|
E|---0-0----------------|----------3-------3-|--0--------------------------|
                                 


E|-------------------|---------------------|----------------|--------------|
B|-------------------|---------------------|----------------|--------------|
G|--4------5-----5p4-|------0-------2------|-4-----5----2p0-|--------0-----|
D|----2-2-----2------|-0-0-----0-0-----0-0-|---0-0----0-----|-----2----2---|
A|-------------------|---------------------|----------------|--------------|
E|-------------------|---------------------|----------------|--------------|
                                                   
                                                  1.

E|-----------|------------------|---------------|-----------------|--------|
B|-----------|------------------|---------------|----------------*|--------|
G|----2----2-|---4-----5--2-5p4-|---0-----2-----|-4-----5----5p4--|-4------|
D|-2----0----|------2-----------|-----0-------2-|---2------2------|--------|
A|-----------|-0----------------|-------2---2---|-----2----------*|--------|
E|-----------|------------------|-0-------------|-----------------|--------|
                                                       
   2.                OUT SOLO

E|----------------|-----------------|------------------------|-------------|
B|----------------|-----------------|------------------------|-------------|
G|-----5----5p4/9-|---9---9~--------|---(9)-----9/h-11--12---|-------11----|
D|-2------2-------|-9---9-----------|------------------------|-------------|
A|---2------------|-----------------|------------------------|-------------|
E|----------------|-----------------|------------------------|-------------|
    


E|-------------------------|--------------------------|--------------------|
B|-------------------------|--------------------------|--------------------|
G|----11\p9-11-9-7-7---7~--|------(7)--------------12-|-14--(14)-p-12-14---|
D|-12----------------7-----|--------------------14----|--------------------|
A|-------------------------|-----------------14-------|--------------------|
E|-------------------------|--------------------------|--------------------|



E|------------------|-----------------------|-------------------|----------|
B|----12------------|-------------------8p7-|-------------------|----------|
G|-12----12-(12)\11-|-11~------(11)---7-----|-{9}---------------|---9~-----|
D|------------------|--------------/9-------|-------------------|----------|
A|------------------|-----------------------|-------------------|----------|
E|------------------|-----------------------|-------------------|----------|



E|---------------|-----------------------|-------------12-14-15-|-14-14b15-|
B|---------------|----15b17----15-15~----|--(15)----------------|----------|
G|----------(9)-/|-----------------------|----------------------|----------|
D|---------------|-----------------------|----------------------|----------|
A|---------------|-----------------------|----------------------|----------|
E|---------------|-----------------------|----------------------|----------|



E|---14--r-12h14-12-|---------------------15-|--17b19----17--r|--17~-------|
B|------------------|--13~------13\-/-17-----|----------------|------------|
G|------------------|------------------------|----------------|------------|
D|------------------|------------------------|----------------|------------|
A|------------------|------------------------|----------------|------------|
E|------------------|------------------------|----------------|------------|



E|-------15--17b19-|---15----------------------|-12----12------------------|
B|-----------------|-------17--17~--(17)\--/15-|----12----15p12----12------|
G|-----------------|---------------------------|----------------15----15---|
D|-----------------|---------------------------|---------------------------|
A|-----------------|---------------------------|---------------------------|
E|-----------------|---------------------------|---------------------------|
                                                              
                                                             trem bar

E|-------------------------|-------------------|---------------------------|
B|----------------------12-|-------------------|---------------------------|
G|-14p12-14----12h14-15----|-12----------------|-------------12\-----------|
D|----------14-------------|----14~------------|--(14)------------12-------|
A|-------------------------|-------------------|---------------------------|
E|-------------------------|-------------------|---------------------------|
                                                              


E|----------------|-------------|-----------------|----------------|-------|
B|----------------|-----8-8-10--|-----------------|----------------|-------|
G|----------------|---X---------|-5~--------4h5-4-|-----------4h-5-|-4~----|
D|---14~----------|---X---------|-----------------|-7~--(7)\5------|-------|
A|----------------|-------------|-----------------|----------------|-------|
E|----------------|-------------|-----------------|----------------|-------|
                                              
                 trem. bar                   feedback

E|---------|------------|-------------|----------------------|-------------|
B|---------|------------|-------------|----------------------|-------------|
G|---------|---4\-------|-------------|----------------------|-------------|
D|---------|------------|-9~----------|--(9)-----------------|-------------|
A|---------|------------|-------------|----------------------|----3-2~-----|
E|---------|------------|-------------|----------------------|-------------|
                                                             
              trem. bar

E|--------|-------|-------*|
B|--------|-------|-5-5---*|
G|--------|-------|-4-4---*|
D|--------|-------|-2-2---*|
A|--------|-2\----|-2-2---*|
E|-3-2~---|-0\----|-0-0---*|


LYRICS:

I've been lost in the middle
Always trying to find the wishing well
Running around in circles
Never crossing the line

Don't want to touch you
Don't want to see
You've got a knife in your heart
Don't say that you did it for me

Never unchain the night
Don't tell me that the love is gone
Never unchain the night
Cause there's always another turn

You know right where you want it
But you never gave it in return
Running me in circles
Always crossing the line

Don't want to touch you
Leave you confused
You took the easy way out
When you looked through the eyes of a fool

Never unchain the night
Don't tell me that the love is strong
Never unchain the night
Cause there's always another turn

Never, never
Never, never

Never unchain the night
Don't tell me that the love is gone
Never unchain the night
I'm never gonna set you free
Never unchain the night
Don't tell me that the love is gone
Never unchain the night
Cause there's always another turn
Never unchain the night




               
comments
print report bad tab
4 comments total. Showing first comments.
0 reply
crwinkler wrote on May 28 2008, 04:25 pm

i play the main riff like this:

E|---------------|------------------|------------------|-------------------|
B|---------------|------------------|------------------|-------------------|
G|---------------|------------------|------------------|-------------------|
D|9---8---7------|------------------|------------------|-------------------|
A|7---7---7------|------------------|------------------|-------------------|
E|-0-0-0-0--0-0--|------------------|------------------|-------------------|

something like that instead of the 542, 532, 522 you know :S

0 reply
steve delaney wrote on March 25 2009, 08:02 pm

everything on this tab is correct except the tuning is droped

0 reply
moonchild9 wrote on July 28 2009, 02:50 pm

Great job tabbing this out. I can play the whole song now!

I want to post or [tab]
guest
You may want to rate the tab now too:
select rating
Please do not post tabs as comments. Select "correction" instead!