Oops, an error
Loading. Please wait.

Without Warning Tab

2,526 views 1 this week
no commentswrite comment
1 2 3 4 5
please rate
add to favorites launch autoscroll
font size
0
reset
Autoscroll
+/-
esc
set tempo
stop
Contributor
WARNING: You are trying to view
                                    content from Ultimate-Guitar.com
                                    in an unauthorized application,
                                    which is prohibited.

                                    Please use an official Ultimate
                                    Guitar Tabs application for iPhone,
                                    iPad or Android to access legitimate
                                    chords, guitar, bass, and drum tabs
                                    from Ultimate-Guitar.com database.

                                    Type "ultimate guitar tabs" in Apple
                                    App Store's or Android Market's
                                    search to find the application.
Song:Without Warning
Artist:Dokken
Written By George Lynch
Album:Tooth And Nail
Tuning:Half Step Down

Chords:
Ebsus4/C#-xx0200
Ebm-022000
B-x32010
Ebsus4/Ab-x02200

Intro
Q=160
  Ebm                                 Cb
4/4
Gtr I
|-----0-------0---|-----0-------0---|-----0-------0---|-----0-------0----|
|-----0-0h1-0---0-|-----0-0h1-0---0-|-----0-0h1-0---0-|-----0-0h1-0---0--|
|-----------------|-----------------|-----------------|------------------|
|---2-------------|---2-------------|---2-------------|---2--------------|
|-----------------|-----------------|-3---------------|-3----------------|
|-0---------------|-0---------------|-----------------|------------------|


  Ebsus4/C#                           Ab                    Gb
|-----0---------0-|-----0---------0-|----------------------|----3-------3--|
|-----0-0h1---0---|-----0-0h1---0---|----------------------|----3-3-----3-3|
|---2-------------|---2-------------|-----2h=4--5p=4--2h=4-|------0-------0|
|-0---------0-----|-0---------0-----|---2-2-(2)-2-(2)-2-(2)|----------0----|
|-----------------|-----------------|-0--------------------|--2-----2------|
|-----------------|-----------------|----------------------|3--------------|


  Ebm                                   Cb
|-----0-------0---|-------0-------0---|-----0-------0---|-------0-------0--|
|-----0-0h1-0---0-|-------0-0h1-0---0-|-----0-0h1-0---0-|-------0-0h1-0---0|
|-----------------|-------------------|-----------------|------------------|
|---2-------------|-----2-------------|---2-------------|-----2------------|
|-----------------|-------------------|-3---------------|--3---------------|
|-0---------------|--0----------------|-----------------|------------------|
|
| Gtr II
|-----------------|-------------------|-----------------|------------------|
|-----------------|-------------------|-----------------|------------------|
|-----------------|-------------------|-----------------|------------------|
|-----------------|-------------------|-----------------|------------------|
|-----------------|-------------------|-3---------------|-(3)--------------|
|-0---------------|-(0)---------------|-----------------|------------------|


  Ebsus4/C#
|-----0---------0-|-------0---------0-|
|-----0-0h1---0---|-------0-0h1---0---|
|---2-------------|-----2-------------|
|-0---------0-----|--0----------0-----|
|-----------------|-------------------|
|-----------------|-------------------|
|
|-----------------|-------------------|
|-----------------|-------------------|
|-----------------|-------------------|
|-0---------------|-(0)---------------|
|-----------------|-------------------|
|-----------------|-------------------|


  Ab                      Gb
|-----------------------|-----3-------3---|
|-----------------------|-----3-3-----3-3-|
|-----2h=4--5p=4--2h=4--|-------0-------0-|
|---2-2-(2)-2-(2)-2-(2)-|-----------0-----|
|-0---------------------|---2-----2-------|
|-----------------------|-3---------------|
|
|-----------------------|-----------------|
|-----------------------|-----------------|
|-----------------------|-----------------|
|-----------------------|-----------------|
|-0---------------------|-0---------------|
|-----------------------|---------3-------|


  Ebm                                   Cb
|-----0-------0---|-------0-------0---|------0-------0---|------0-------0--|
|-----0-0h1-0---0-|-------0-0h1-0---0-|------0-0h1-0---0-|------0-0h1-0---0|
|-----------------|-------------------|------------------|-----------------|
|---2-------------|-----2-------------|----2-------------|----2------------|
|-----------------|-------------------|--3---------------|-3---------------|
|-0---------------|--0----------------|------------------|-----------------|
|
| Gtr II
|-----------------|-------------------|------------------|-----------------|
|-----------------|-------------------|------------------|-----------------|
|-----------------|-------------------|------------------|-----------------|
|-----------------|-------------------|------------------|-----------------|
|-----------------|-------------------|--3---------------|--(3)------------|
|-0---------------|-(0)---------------|------------------|-----------------|
|
| Gtr III
|-0---------------|-(0)---------------|-12---------------|-(12)------------|
|-----------------|-------------------|-12---------------|-(12)------------|
|-9---------------|-(9)---------------|--9---------------|--(9)------------|
|-9---------------|-(9)---------------|--9---------------|--(9)------------|
|-7---------------|-(7)---------------|--7---------------|--(7)------------|
|-0---------------|-(0)---------------|------------------|-----------------|


  Ebsus4/C#                               Ab
|------0---------0-|--------0---------0-|------------------------|
|--------0h1---0---|----------0h1---0---|------------------------|
|----2-------------|------2-------------|------2h=4--5p=4--2h=4--|
|--0---------0-----|---0----------0-----|----2-2-(2)-2-(2)-2-(2)-|
|------------------|--------------------|--0---------------------|
|------------------|--------------------|------------------------|
|
|------------------|--------------------|------------------------|
|------------------|--------------------|------------------------|
|------------------|--------------------|------------------------|
|--0---------------|--(0)---------------|------------------------|
|------------------|--------------------|--0---------------------|
|------------------|--------------------|------------------------|
|
|-10---------------|-(10)---------------|------------------------|
|-10---------------|-(10)---------------|-12---------------------|
|--7---------------|--(7)---------------|--9---------------------|
|--0---------------|--(0)---------------|--9---------------------|
|------------------|--------------------|--7---------------------|
|------------------|--------------------|------------------------|


  Gb
|-----3-------3-------|
|-----3-3-----3-----3-|
|-------0-----------0-|
|-----------0---------|
|---2-----2-----------|
|-3-------------------|
|
| Gtr IV
| <
|---------------------|
|---------------------|
|---------------------|
|-----4---5---4h5p4p2-|
|---------------------|
|---------------------|
|
|---------------------|
|---------------------|
|-2-------------------|
|-2-------------------|
|-0-------2-----------|
|---------3-----------|


  Ebm
|-----0---------0-|-------0-------------0-|
|-----0-0h1---0---|-------0-0h1---0-------|
|-----------------|-----------------------|
|---2-------2-----|-----2-------2---------|
|-----------------|-----------------------|
|-0---------------|--0--------------------|
|
| <                  <
|-----------------|-----------------------|
|-----------------|-----------------------|
|-----------------|-----------------------|
|-----2---4---5-2-|-(2)---4---5---4h5p4p2-|
|-----------------|-----------------------|
|-0---------------|-----------------------|
|
| Gtr III
|-0---------------|-(0)-------------------|
|-----------------|-----------------------|
|-----------------|-----------------------|
|-2---------------|-(2)-------------------|
|-2---------------|-(2)-------------------|
|-0---------------|-(0)-------------------|


  Cb
|-----0---------0-|-------0-------------0-|
|-----0-0h1---0---|-------0-0h1---0-------|
|-----------------|-----------------------|
|---2-------2-----|-----2-------2---------|
|-3---------------|--3--------------------|
|-----------------|-----------------------|
|
|-----------------|-----------------------|
|-----------------|-----------------------|
|-----------------|-----------------------|
|-----2---4---5-2-|-(2)---4---5---4h5p4p2-|
|-3---------------|-----------------------|
|-----------------|-----------------------|
|
|-----------------|-----------------------|
|-1---------------|-(1)-------------------|
|-0---------------|-(0)-------------------|
|-2---------------|-(2)-------------------|
|-3---------------|-(3)-------------------|
|-----------------|-----------------------|


  Ebsus4/C#
|-----0---------0-|-------0-------------0-|
|-----0-0h1---0---|-------0-0h1---0-------|
|---2-------------|-----2-----------------|
|-0---------0-----|--0----------0---------|
|-----------------|-----------------------|
|-----------------|-----------------------|
|
|-----------------|-----------------------|
|-----------------|-----------------------|
|-----------------|-----------------------|
|-0---2---4---5-2-|-(2)---4---5---4h5p4p2-|
|-----------------|-----------------------|
|-----------------|-----------------------|
|
|-----------------|-----------------------|
|-3---------------|-(3)-------------------|
|-2---------------|-(2)-------------------|
|-0---------------|-(0)-------------------|
|-----------------|-----------------------|
|-----------------|-----------------------|


  Ab                      Gb
|-----------------------|-------3-------3-------|
|-----------------------|-------3-3-----3-----3-|
|-----2h=4--5p=4--2h=4--|---------0-----------0-|
|---2-2-(2)-2-(2)-2-(2)-|-------------0---------|
|-0---------------------|-----2-----2-----------|
|-----------------------|--3--------------------|
|
|-----------------------|-----------------------|
|-----------------------|-----------------------|
|-----------------------|-----------------------|
|-----2-----4-----5--2--|-(2)---4---5---4h5p4p2-|
|-0---------------------|-----------------------|
|-----------------------|-----------------------|
|
|-----------------------|-----------------------|
|-----------------------|-----------------------|
|-2---------------------|--2--------------------|
|-2---------------------|--2--------------------|
|-0---------------------|--0--------2-----------|
|-----------------------|-----------3-----------|


 Guitar Solo
  Ebm
|------0---------0-|-------0----------------0---|
|------0-0h1---0---|-------0-0h=1----0----------|
|------------------|----------------------------|
|----2-------2-----|-----2---------2------------|
|------------------|----------------------------|
|--0---------------|--0-------------------------|
|
|------------------|----------------------------|
|------------------|----------------------------|
|------------------|----------------------------|
|------2---4---5-2-|-(2)---4----5----4h5p=4p2---|
|------------------|----------------------------|
|--0---------------|----------------------------|
|
| Gtr V
|  ~~~~~~~~~~~~~~~~~~~~~~
|------------------|----------------------------|
|------------------|----------------------------|
|-/9---------------|-(9)-------(9)---9--------9-|
|------------------|---------------------10-----|
|------------------|----------------------------|
|------------------|----------------------------|


  Cb
|---------0------------0---|-------0-------------0---|
|---------0-0h1---0--------|-------0-0h1---0---------|
|--------------------------|-------------------------|
|-------2-------2----------|-----2-------2-----------|
|--3-----------------------|--3----------------------|
|--------------------------|-------------------------|
|
|--------------------------|-------------------------|
|--------------------------|-------------------------|
|--------------------------|-------------------------|
|---------2---4---5----2---|-(2)---4---5---4h5p4p2---|
|--3-----------------------|-------------------------|
|--------------------------|-------------------------|
|
|                             ~~~
|--------------------------|-------------------------|
|--------------------------|-------------------------|
|-11b12r==========9h11p==9-|-------------------------|
|--------------------------|-10----------------------|
|--------------------------|-------------------------|
|--------------------------|-------------------------|


  Ebsus4/C#
|--------0-----------0-|--------0-------------0-|
|--------0--0h=1---0---|--------0-0h1---0-------|
|-----2----------------|------2-----------------|
|---0------------0-----|---0----------0---------|
|----------------------|------------------------|
|----------------------|------------------------|
|
|----------------------|------------------------|
|----------------------|------------------------|
|----------------------|------------------------|
|---0----2-----4---5-2-|--(2)---4---5---4h5p4p2-|
|----------------------|------------------------|
|----------------------|------------------------|
|
|              ~~
|----------------------|------------------------|
|-/12------10-10-------|-(10)-------------------|
|-------12-------------|------------9S==========|
|----------------------|------------------------|
|----------------------|------------------------|
|----------------------|------------------------|


  Ab                             Gb
|------------------------------|----------3-------------3-------|
|------------------------------|----------3--3----------3-----3-|
|--------2h=4----5p==4---2h=4--|-------------0----------------0-|
|-----2--2-(2)---2--(2)--2-(2)-|----------------------0---------|
|--0---------------------------|-------2--------2---------------|
|------------------------------|---3----------------------------|
|
|------------------------------|--------------------------------|
|------------------------------|--------------------------------|
|------------------------------|--------------------------------|
|--------2-------4-------5--2--|--(2)-----4-----5-------4h5p4p2-|
|--0---------------------------|--------------------------------|
|------------------------------|--------------------------------|
|
|------------------------------|--------------------------------|
|------------------------------|--------------------------------|
|-16-14-12-----[14]-12---------|-[14]-12-11-12-11tr12-----------|
|----------16-----------16-14--|--------------------------------|
|------------------------------|--------------------------------|
|------------------------------|--------------------------------|


  Ebm
|-------0---------0-|--------0---------------0----|
|-------0-0h1---0---|--------0-0h1----0-----------|
|-------------------|-----------------------------|
|-----2-------2-----|------2-------2--------------|
|-------------------|-----------------------------|
|---0---------------|---0-------------------------|
|
|-------------------|-----------------------------|
|-------------------|-----------------------------|
|-------------------|-----------------------------|
|-------2---4---5-2-|--(2)---4---5----4h5p=4p2----|
|-------------------|-----------------------------|
|---0---------------|-----------------------------|
|
|   ~~~~~~~~~~~~~~~~~~~~~~~
|-------------------|-----------------------------|
|-/17---------------|-(17)-----------17--------17-|
|-------------------|---------------------16------|
|-------------------|-----------------------------|
|-------------------|-----------------------------|
|-------------------|-----------------------------|


  Cb
|----------0------------0-|----------0----------------------0-------|
|----------0-0h==1----0---|----------0----0h===1-----0--------------|
|-------------------------|-----------------------------------------|
|--------2----------2-----|-------2--------------2------------------|
|--3----------------------|---3-------------------------------------|
|-------------------------|-----------------------------------------|
|
|-------------------------|-----------------------------------------|
|-------------------------|-----------------------------------------|
|-------------------------|-----------------------------------------|
|----------2-----4----5-2-|--(2)-----4---------5-----4h=5p4p2-------|
|--3----------------------|-----------------------------------------|
|-------------------------|-----------------------------------------|
|
|  ~~~~~~~~~~~~~~~~~
|-------------------------|-----------------------------------------|
|-19b20========(19)-------|-(19)r19-17h19p==17-----(17)-------(17)--|
|-------------------------|-----------------------------------------|
|-------------------------|-----------------------------------------|
|-------------------------|-----------------------------------------|
|-------------------------|-----------------------------------------|


  Ebsus4/C#
|-------------0--------------0--|--------0-------------0-|
|-------------0-0h1------0------|--------0-0h1---0-------|
|-----------2-------------------|------2-----------------|
|--0------------------0---------|---0----------0---------|
|-------------------------------|------------------------|
|-------------------------------|------------------------|
|
|-------------------------------|------------------------|
|-------------------------------|------------------------|
|-------------------------------|------------------------|
|--0----------2---4------5---2--|--(2)---4---5---4h5p4p2-|
|-------------------------------|------------------------|
|-------------------------------|------------------------|
|
|-------------------------------|------------------------|
|-17h19p17S15-------(15)---(15)-|-(15)-------------------|
|-------------------------------|------------------------|
|-------------------------------|------------------------|
|-------------------------------|------------------------|
|-------------------------------|------------------------|


  Ab                                    Gb
|-------------------------------------|-------3--------3-------|
|-------------------------------------|-------3-3------3-----3-|
|------------2h=====4----5p==4--2h=4--|---------0------------0-|
|--------2---2-----(2)---2--(2)-2-(2)-|--------------0---------|
|---0---------------------------------|-----2------2-----------|
|-------------------------------------|--3---------------------|
|
|-------------------------------------|------------------------|
|-------------------------------------|------------------------|
|-------------------------------------|------------------------|
|------------2-----------4------5--2--|-(2)---4----5---4h5p4p2-|
|---0---------------------------------|------------------------|
|-------------------------------------|------------------------|
|
|-/19b20r==(19)b20r====(19)-----------|-17---------------------|
|-------------------------------------|-----------20-----------|
|-------------------------------------|------------------------|
|-------------------------------------|------------------------|
|-------------------------------------|------------------------|
|-------------------------------------|------------------------|


  Ebm
|----------0---------0-|--------0----------------0-|
|----------0-0h1---0---|--------0-0h==1----0-------|
|----------------------|---------------------------|
|--------2-------2-----|------2----------2---------|
|----------------------|---------------------------|
|--0-------------------|---0-----------------------|
|
|----------------------|---------------------------|
|----------------------|---------------------------|
|----------------------|---------------------------|
|----------2---4---5-2-|--(2)---4-----5----4h5p4p2-|
|----------------------|---------------------------|
|--0-------------------|---------------------------|
|
|-22b24================|=(22)-------(22)r==========|
|----------------------|---------------------------|
|----------------------|---------------------------|
|----------------------|---------------------------|
|----------------------|---------------------------|
|----------------------|---------------------------|


  Cb
|------0---------0-|--------0-----------------0-|
|------0-0h1---0---|--------0-0h==1----0--------|
|------------------|----------------------------|
|----2-------2-----|------2---------2-----------|
|--3---------------|---3------------------------|
|------------------|----------------------------|
|
|------------------|----------------------------|
|------------------|----------------------------|
|------------------|----------------------------|
|------2---4---5-2-|--(2)---4-----5----4h5p4p=2-|
|--3---------------|----------------------------|
|------------------|----------------------------|
|
|  ~~~~~~~~~~~~~~~~~~~~~~~
|-22---------------|-(22)-------------19-----20-|
|------------------|------------/22-------------|
|------------------|----------------------------|
|------------------|----------------------------|
|------------------|----------------------------|
|------------------|----------------------------|


  Ebsus4/C#
|---------0---------0-|-------0-------------0-|
|---------0-0h1---0---|-------0-0h1---0-------|
|-------2-------------|-----2-----------------|
|--0------------0-----|--0----------0---------|
|---------------------|-----------------------|
|---------------------|-----------------------|
|
|---------------------|-----------------------|
|---------------------|-----------------------|
|---------------------|-----------------------|
|--0------2---4---5-2-|-(2)---4---5---4h5p4p2-|
|---------------------|-----------------------|
|---------------------|-----------------------|
|
|                        ~~~~~~~~~~~~~~~~~~~~~~
|-20b22r==============|=20--------------------|
|---------------------|-----------------------|
|---------------------|-----------------------|
|---------------------|-----------------------|
|---------------------|-----------------------|
|---------------------|-----------------------|


  Ab                       Gb
   >                        >
|------------------------|-------3--------3-------|
|------------------------|-------3-3------3-----3-|
|------2h=4--5p=4--2h=4--|---------0------------0-|
|----2-2-(2)-2-(2)-2-(2)-|--------------0---------|
|--0---------------------|-----2------2-----------|
|------------------------|--3---------------------|
|
|------------------------|------------------------|
|------------------------|------------------------|
|------------------------|------------------------|
|------2-----4-----5--2--|-(2)---4----5---4h5p4p2-|
|--0---------------------|------------------------|
|------------------------|------------------------|
|
|~~~~~~~~~~~~~~~~~~~~~~~~~~~~~~
|------------------------|------------------------|
|-22---------------------|-22--------20-----------|
|------------------------|------------------------|
|------------------------|------------------------|
|------------------------|------------------------|
|------------------------|------------------------|


 Outro
  Gtr II
   ~~~~~~~~~~~~~~~~~~~~~~~~~~~~~~~~~~~~~~
|-----------|-----------|-----------|-------|
|-----------|-----------|-----------|-------|
|-----------|-----------|-----------|-------|
|-----------|-----------|-----------|-------|
|-----------|--1--------|-----------|--1----|
|--0--------|-----------|--0--------|-------|
|
|  ~~~~~~~~~~~~~~~~~~~~~~~~~~~~~~~~~~~~~~
|-24--------|-24--------|-24--------|-24----|
|-17--------|-17--------|-17--------|-17----|
|-----------|-----------|-----------|-------|
|-----------|-----------|-----------|-------|
|-----------|-----------|-----------|-------|
|-----------|-----------|-----------|-------|
|
|                          ~~~~~~~~~~~~~~
|-----------|-----------|-----------|-------|
|-----------|-----------|--1--------|--0----|
|-----------|-----------|-----------|-------|
|-----------|-----------|-----------|-------|
|-----------|-----------|-----------|-------|
|-----------|-----------|-----------|-------|


                           >
   ~~~~~~~~~~~~~~~~~~~~~~~~~~~~~
|-----------|-----------|--------------|--------*|
|-----------|-----------|--------------|--------*|
|-----------|-----------|--------------|--------*|
|-----------|-----------|--------------|--------*|
|-----------|--1--------|-(1)----------|--------*|
|--0--------|-----------|--------------|--------*|
|
|                          \6.5
|  ~~~~~~~~~~~~~~
|-24--------|-24--------|-24-----------|--------*|
|-17--------|-17--------|--------------|--------*|
|-----------|-----------|--------------|-<5>----*|
|-----------|-----------|--------------|--------*|
|-----------|-----------|--------------|--------*|
|-----------|-----------|--------------|--------*|
|
|                          >
|  ~~~~~~~~~~~~~~~~~~~~~~~~~~~~~
|-----------|-----------|--------------|--------*|
|--1--------|--0--------|-(0)----------|--------*|
|-----------|-----------|--------------|--------*|
|-----------|-----------|--------------|--------*|
|-----------|-----------|--------------|--------*|
|-----------|-----------|--------------|--------*|


comments
We did not receive enough feedback on this tab! Please rate:
1 2 3 4 5
I want to post or [tab]
guest
You may want to rate the tab now too:
select rating
Please do not post tabs as comments. Select "correction" instead!