Oops, an error
Loading. Please wait.

Beautiful Morning Tab

ver2
ver2

Whole song

More versions @911Tabs.com
1,880 views 6 this week
no commentswrite comment
1 2 3 4 5
please rate
Autoscroll
+/-
esc
set tempo
stop
Difficulty
Tuning
intermediate
D A D G B E
WARNING: You are trying to view
                                    content from Ultimate-Guitar.com
                                    in an unauthorized application,
                                    which is prohibited.

                                    Please use an official Ultimate
                                    Guitar Tabs application for iPhone,
                                    iPad or Android to access legitimate
                                    chords, guitar, bass, and drum tabs
                                    from Ultimate-Guitar.com database.

                                    Type "ultimate guitar tabs" in Apple
                                    App Store's or Android Market's
                                    search to find the application.
Don Broco - Beautiful Morning



This tab is really just a guide to what is played and not really 100% on strumming pattern.

You'll have to sort out stumming patterns yo' fyyyne self, cos it's impossible (due to 
lack of quality tabbing time) for me to tab.

I'm pretty sure I have most of it down, but give me a shout if you have any suggestions? 
I think the mid 8th has a bit different...



Intro/Verses

With Delay
e----------------------------8-8-/-5-5~----------------|
B---------8---10---------------------------------------|
G-----9-------------7---7------------------------------|
D--/7---7---7----7----7---7-------------8-8-7-7-5~-----|
A------------------------------------------------------|
D------------------------------------------------------|


Bridge

With Delay
e----8--8----8-----8------------|
B-------------------------------|
G----5--5----5-----5------------|
D--7-------7-----7---0----------|
A----------------------8--------|
D------------------------10-----|


e----8--8----8-----8------------|
B-------------------------------|
G----5--5----5-----5---10-12----|
D--7-------7-----7---0----------|
A----------------------8--10----|
D-------------------------------|


Chorus

e----------------------------------------|
B----------------------------------------|
G-----10---10---9h10----10---12-10----10-|
D-----8----8----8-------8----------12----|
A--8--8----8--8-------8----8-------------|
D--8--8----8--8-------8----8-------------|

e--------------------------------------------|
B--------------------------------------------|
G------12---12------10--------------10-9-----|
D------10---10---12----12-0--0--0-0------10--|
A--10--10---10------------0--0--0-0----------|
D--10--10---10------------0--0--0-0----------|

e----------------------------------------|
B----------------------------------------|
G-----10---10---9h10----10---12-10-12-10-|
D-----8----8----8-------8----------------|
A--8--8----8--8-------8----8-------------|
D--8--8----8--8-------8----8-------------|

e-------------------------------|
B-------------------------------|
G------12---12------10----------|
D------10---10---12----12-0~----|
A--10--10---10------------0~----|
D--10--10---10------------0~----|


Verse
e----------------------------8-8-/-5-5~----------------|
B---------8---10---------------------------------------|
G-----9-------------7---7------------------------------|
D--/7---7---7----7----7---7-------------8-8-7-7-5~-----|
A------------------------------------------------------|
D------------------------------------------------------|


Bridge
e----8--8----8-----8------------|
B-------------------------------|
G----5--5----5-----5------------|
D--7-------7-----7---7----------|
A----------------------8--------|
D------------------------10-----|


e----8--8----8-----8------------|
B-------------------------------|
G----5--5----5-----5---10-12----|
D--7-------7-----7---0----------|
A----------------------8--10----|
D-------------------------------|

e----8--8----8-----8------------|
B-------------------------------|
G----5--5----5-----5------------|
D--7-------7-----7---0----------|
A----------------------8--------|
D------------------------10-----|


e----8--8----8-----8------------|
B-------------------------------|
G----5--5----5-----5------------|
D--7-------7-----7---0-5-7------|
A----------------------5-7------|
D----------------------5-7------|


Chorus

e----------------------------------------|
B----------------------------------------|
G-----10---10---9h10----10---12-10----10-|
D-----8----8----8-------8----------12----|
A--8--8----8--8-------8----8-------------|
D--8--8----8--8-------8----8-------------|

e--------------------------------------------|
B--------------------------------------------|
G------12---12------10--------------10-9-----|
D------10---10---12----12-0--0--0-0------10--|
A--10--10---10------------0--0--0-0----------|
D--10--10---10------------0--0--0-0----------|

e----------------------------------------|
B----------------------------------------|
G-----10---10---9h10----10---12-10----10-|
D-----8----8----8-------8----------12----|
A--8--8----8--8-------8----8-------------|
D--8--8----8--8-------8----8-------------|

e----------------------------------------------|
B----------------------------------------------|
G------12---12------10--------------10-9-------|
D------10---10---12----12-0--0--0-0------10----|
A--10--10---10------------0--0--0-0------------|
D--10--10---10------------0--0--0-0------------|
e----------------------------------------------|
B----------------------------------------------|
G-----10---10---9h10----10---12-10----10-------|
D-----8----8----8-------8----------12----------|
A--8--8----8--8-------8----8-------------------|
D--8--8----8--8-------8----8-------------------|

e--------------------------------------------|
B--------------------------------------------|
G------12---12------10--------------10-9-----|
D------10---10---12----12-0--0--0-0------10--|
A--10--10---10------------0--0--0-0----------|
D--10--10---10------------0--0--0-0----------|



Middle 8th

e-------------------------------------------|
B-------------------------------------------|
G-----1010-10-10-9-9--9-9--9---9-9--10------|
D-----8-8--8--8--8-10-8-10-10--1010-10------|
A-xx8---------------------------------------|
D-xx8---------------------------------------|

e-------------------------------------------|
B-------------------------------------------|
G------1010-10-10-9-9--9-9--9---9-9--10-----|
D------8-8--8--8--8-10-8-10-10--1010-10-----|
A-xx10--------------------------------------|
D-xx10--------------------------------------|

e----------------------------------------|
B----------------------------------------|
G-----1010-10-10-9-9--9-9--9---9-9--10---|
D-----8-8--8--8--8-10-8-10-10--1010-10---|
A-xx5------------------------------------|
D-xx5------------------------------------|

e-------------------------------------------|
B-------------------------------------------|
G-----1010-10-10-9-9--9-9--9---9-9--10------|
D-----8-8--8--8--8-10-8-10-10--1010-10------|
A-xx5---------------------------------------|
D-xx5---------------------------------------|



e-------------------------------------------|
B-------------------------------------------|
G-----1010-10-10-9-9--9-9--9---9-9--10------|
D-----8-8--8--8--8-10-8-10-10--1010-10------|
A-xx8---------------------------------------|
D-xx8---------------------------------------|

e-------------------------------------------|
B-------------------------------------------|
G------1010-10-10-9-9--9-9--9---9-9--10-----|
D------8-8--8--8--8-10-8-10-10--1010-10-----|
A-xx10--------------------------------------|
D-xx10--------------------------------------|

e----------------------------------------|
B----------------------------------------|
G-----1010-10-10-9-9--9-9--9---9-9--10---|
D-----8-8--8--8--8-10-8-10-10--1010-10---|
A-xx5------------------------------------|
D-xx5------------------------------------|

e-------------------------------------------|
B-------------------------------------------|
G-----1010-10-10-9-9--9-9--9---9-9--10------|
D-----8-8--8--8--8-10-8-10-10--1010-10------|
A-xx5---------------------------------------|
D-xx5---------------------------------------|



e-------------------------------------------|
B-------------------------------------------|
G-----1010-10-10-9-9--9-9--9---9-9--10------|
D-----8-8--8--8--8-10-8-10-10--1010-10------|
A-xx8---------------------------------------|
D-xx8---------------------------------------|

e-------------------------------------------|
B-------------------------------------------|
G------1010-10-10-9-9--9-9--9---9-9--10-----|
D------8-8--8--8--8-10-8-10-10--1010-10-----|
A-xx10--------------------------------------|
D-xx10--------------------------------------|

e----------------------------------------|
B----------------------------------------|
G-----1010-10-10-9-9--9-9--9---9-9--10---|
D-----8-8--8--8--8-10-8-10-10--1010-10---|
A-xx5------------------------------------|
D-xx5------------------------------------|

e----------------------------------------|
B----------------------------------------|
G-----1010-10-10-9-9--9------------------|
D-----8-8--8--8--8-10-8------------------|
A-xx5------------------------------------|
D-xx5-------------------7-7-7-7-7-7-7-7--|



Chorus

e----------------------------------------|
B----------------------------------------|
G-----10---10---9h10----10---12-10----10-|
D-----8----8----8-------8----------12----|
A--8--8----8--8-------8----8-------------|
D--8--8----8--8-------8----8-------------|

e--------------------------------------------|
B--------------------------------------------|
G------12---12------10--------------10-9-----|
D------10---10---12----12-0--0--0-0------10--|
A--10--10---10------------0--0--0-0----------|
D--10--10---10------------0--0--0-0----------|

e----------------------------------------|
B----------------------------------------|
G-----10---10---9h10----10---12-10-12-10-|
D-----8----8----8-------8----------------|
A--8--8----8--8-------8----8-------------|
D--8--8----8--8-------8----8-------------|

e--------------------------------------------|
B--------------------------------------------|
G------12---12------10-----------------------|
D------10---10---12----12-7--7-7----7---7----|
A--10--10---10------------7--7-7----7---7----|
D--10--10---10------------7--7-7----7---7----|

e----------------------------------------|
B----------------------------------------|
G-----10---10---9h10----10---12-10----10-|
D-----8----8----8-------8----------12----|
A--8--8----8--8-------8----8-------------|
D--8--8----8--8-------8----8-------------|

e--------------------------------------------|
B--------------------------------------------|
G------12---12------10-----------------------|
D------10---10---12----12-7--7-7----7---7----|
A--10--10---10------------7--7-7----7---7----|
D--10--10---10------------7--7-7----7---7----|


Bridge to Outro

e----------------------------------------|
B----------------------------------------|
G-----10-------10------10-------10-------|
D-----8--------8-------8--------8--------|
A--8--8--8--8--8----8--8--8--8--8--------|
D--8--8--8--8--8----8--8--8--8--8--------|

e----------------------------------------|
B----------------------------------------|
G-----12----------12-------9-----------9-|
D-----10----------10-------7-----------7-|
A-10--10--10--10--10----7--7--7----7---7-|
D-10--10--10--10--10----7--7--7----7---7-|

e----------------------------------------|
B----------------------------------------|
G-----10-------10------10-------10-------|
D-----8--------8-------8--------8--------|
A--8--8--8--8--8----8--8--8--8--8--------|
D--8--8--8--8--8----8--8--8--8--8--------|

e----------------------------------------|
B----------------------------------------|
G-----12----------12-------9-------------|
D-----10----------10-------7-------7---7-|
A-10--10--10--10--10----7--7--7----7---7-|
D-10--10--10--10--10----7--7--7----7---7-|

e----------------------------------------|
B----------------------------------------|
G-----10-------10------10-------10-------|
D-----8--------8-------8--------8--------|
A--8--8--8--8--8----8--8--8--8--8--------|
D--8--8--8--8--8----8--8--8--8--8--------|

e----------------------------------------|
B----------------------------------------|
G-----12----------12-------9-----------9-|
D-----10----------10-------7-----------7-|
A-10--10--10--10--10----7--7--7----7---7-|
D-10--10--10--10--10----7--7--7----7---7-|

e----------------------------------------|
B----------------------------------------|
G-----10-------10------10-------10-------|
D-----8--------8-------8--------8--------|
A--8--8--8--8--8----8--8--8--8--8--------|
D--8--8--8--8--8----8--8--8--8--8--------|

e----------------------------------------|
B----------------------------------------|
G-----12----------12-------9-------------|
D-----10----------10-------7-------7---7-|
A-10--10--10--10--10----7--7--7----7---7-|
D-10--10--10--10--10----7--7--7----7---7-|


Outro

e----8--8----8-----8------------|
B-------------------------------|
G----5--5----5-----5------------|
D--7-------7-----7---0----------|
A----------------------8--------|
D------------------------10-----|


e----8--8----8-----8--------|
B---------------------------|
G----5--5----5-----5--------|
D--7-------7-----7---0------|
A----------------------8^---|
D---------------------------|


e----8--8----8-----8------------|
B-------------------------------|
G----5--5----5-----5------------|
D--7-------7-----7---0----------|
A----------------------8--------|
D------------------------10-----|


e----8--8----8-----8--------|
B---------------------------|
G----5--5----5-----5--------|
D--7-------7-----7---0------|
A----------------------8^---|
D---------------------------|



If you have any suggestions, feel free to email me: garrymabon@hotmail.com
comments
We did not receive enough feedback on this tab! Please rate:
print report bad tab
1 2 3 4 5
I want to post or [tab]
guest
You may want to rate the tab now too:
select rating
Please do not post tabs as comments. Select "correction" instead!