Oops, an error
Loading. Please wait.

Vincent Tab

ver4
ver4

Whole song

Interactive

More versions @911Tabs.com
4,487 views 24 this week
no commentswrite comment
1 2 3 4 5
excellent!
x 1
Autoscroll
+/-
esc
set tempo
stop
Difficulty
intermediate
Hey! There's an official Ultimate Guitar app which is ideal
for learning songs when you're away from computer. Get the app
WARNING: You are trying to view
                                    content from Ultimate-Guitar.com
                                    in an unauthorized application,
                                    which is prohibited.

                                    Please use an official Ultimate
                                    Guitar Tabs application for iPhone,
                                    iPad or Android to access legitimate
                                    chords, guitar, bass, and drum tabs
                                    from Ultimate-Guitar.com database.

                                    Type "ultimate guitar tabs" in Apple
                                    App Store's or Android Market's
                                    search to find the application.
intro
E||--------0-||
B||----0-3---||
G||--2-------||
D||----------||
A||----------||
E||----------||
     3 & 4 &
riff 1
E||-2---------------|---------2-0-----|-0-2-------------|---------2-0-----|
B||-----0---3---0---|-----0-------3---|-0---0-----0-----|-----0-------3-0-|
G||---2---2---2---2-|---2---2-------0-|-0-------0-----0-|---0---0---------|
D||-0---------------|-0---------------|-2-----2-----0---|-2---------------|
A||-----------------|-----------------|-----------------|-----------------|
E||-----------------|-----------------|-----------------|-----------------|
    1 & 2 & 3 & 4 &   1 & 2 & 3 & 4 &   1 & 2 & 3 & 4 &   1 & 2 & 3 & 4 &

E||-0-2-------------|---------------0-|-2-------------0-|-2---------------|
B||-----0---------2-|-3-2-0---0-2-3---|-----------0-3---|-----0---3---0---|
G||-0-----0---------|-0-----2---------|-2-------2-------|---2---2---2---2-|
D||---------0-------|-----------------|-0---0-----------|-0---------------|
A||-----------------|-0---------------|-----------------|-----------------|
E||-3---------------|-----------------|-----------------|-----------------|
    1 & 2 & 3 & 4 &   1 & 2 & 3 & 4 &   1 & 2 & 3 & 4 &   1 & 2 & 3 & 4 &

E||---------2-0-----|-0-2--------------|---------2-0-----|-0-2-------------|
B||-----0-------3---|-0---0-----0---0--|-----0-------3-0-|-----0---------2-|
G||---2---2-------0-|-0-------0----0-0-|---0---0---------|-0-----0---------|
D||-0---------------|-2-----2-----0----|-2---------------|---------0-------|
A||-----------------|------------------|-----------------|-----------------|
E||-----------------|------------------|-3---------------|-----------------|
    1 & 2 & 3 & 4 &   1 & 2 & 3 & 4 &    1 & 2 & 3 & 4 &   1 & 2 & 3 & 4 &

E||---------------0-|-----2---3-5---3-|-2---------0-2---|-0---------------|
B||-3-2-0---0-2-3---|-3---------------|---------3-----3-|-----0-------0---|
G||-0-----2---------|-----2---4-6---4-|-2-----2---------|---0---0---0---0-|
D||-----------------|-0---------------|-0---------------|---------2-------|
A||-0---------------|-----------------|-----------------|-----------------|
E||-----------------|-----------------|-----------------|-0---------------|
    1 & 2 & 3 & 4 &   1 & 2 & 3 & 4 &   1 & 2 & 3 & 4 &   1 & 2 & 3 & 4 &

E||---------0-2-3-5-|-2-----7-5-------|-----2-3-2-0-----|-2-0-0-----------|
B||-----2-----------|-----3---7-------|---3---------3-0-|-0---------0-3-0-|
G||---0---0---------|---2-------------|-----------------|-0-------0-------|
D||-----------------|-0-----------0---|-----------------|-------2---------|
A||-0---------------|---------------4-|-2---------------|-----------------|
E||-----------------|-----------------|-----------------|-0---------------|
    1 & 2 & 3 & 4 &   1 & 2 & 3 & 4 &   1 & 2 & 3 & 4 &   1 & 2 & 3 & 4 &

E||-----0-0-0-2-3-0-|-2-2-2-3-2-0-----||
B||-2-------2-------|-3-----------3-0-||
G||---0-----0-------|-----------------||
D||-----------------|-----------------||
A||-0-------0-------|-2---------------||
E||-----------------|-----------------||
    1 & 2 & 3 & 4 &   1 & 2 & 3 & 4 &

riff 2
E||-0---2-----------|-------------0---||
B||-------0---------|-------0-2-3---2-||
G||-1---------0-----|-----0-----------||
D||---------2---0h2-|---2-------------||
A||-----------------|-0---------------||
E||-0---------------|-----------------||
    1 & 2 & 3 & 4 &   1 & 2 & 3 & 4 &

riff 3
E||-----------------|---------------0-||
B||-3-------0-----0-|-----------0-3---||
G||-----2-----0-----|-2-------2-------||
D||-0---------------|-0---0-----------||
A||-----------------|-----------------||
E||---------3-------|-----------------||
    1 & 2 & 3 & 4 &   1 & 2 & 3 & 4 &

riff 1
E||-2---------------|---------2-0-----|-0-2-------------|---------2-0-----|
B||-----0---3---0---|-----0-------3---|-0---0-----0-----|-----0-------3-0-|
G||---2---2---2---2-|---2---2-------0-|-0-------0-----0-|---0---0---------|
D||-0---------------|-0---------------|-2-----2-----0---|-2---------------|
A||-----------------|-----------------|-----------------|-----------------|
E||-----------------|-----------------|-----------------|-----------------|
    1 & 2 & 3 & 4 &   1 & 2 & 3 & 4 &   1 & 2 & 3 & 4 &   1 & 2 & 3 & 4 &

E||-0-2-------------|---------------0-|-2-------------0-|-2---------------|
B||-----0---------2-|-3-2-0---0-2-3---|-----------0-3---|-----0---3---0---|
G||-0-----0---------|-0-----2---------|-2-------2-------|---2---2---2---2-|
D||---------0-------|-----------------|-0---0-----------|-0---------------|
A||-----------------|-0---------------|-----------------|-----------------|
E||-3---------------|-----------------|-----------------|-----------------|
    1 & 2 & 3 & 4 &   1 & 2 & 3 & 4 &   1 & 2 & 3 & 4 &   1 & 2 & 3 & 4 &

E||---------2-0-----|-0-2--------------|---------2-0-----|-0-2-------------|
B||-----0-------3---|-0---0-----0---0--|-----0-------3-0-|-----0---------2-|
G||---2---2-------0-|-0-------0----0-0-|---0---0---------|-0-----0---------|
D||-0---------------|-2-----2-----0----|-2---------------|---------0-------|
A||-----------------|------------------|-----------------|-----------------|
E||-----------------|------------------|-3---------------|-----------------|
    1 & 2 & 3 & 4 &   1 & 2 & 3 & 4 &    1 & 2 & 3 & 4 &   1 & 2 & 3 & 4 &

E||---------------0-|-----2---3-5---3-|-2---------0-2---|-0---------------|
B||-3-2-0---0-2-3---|-3---------------|---------3-----3-|-----0-------0---|
G||-0-----2---------|-----2---4-6---4-|-2-----2---------|---0---0---0---0-|
D||-----------------|-0---------------|-0---------------|---------2-------|
A||-0---------------|-----------------|-----------------|-----------------|
E||-----------------|-----------------|-----------------|-0---------------|
    1 & 2 & 3 & 4 &   1 & 2 & 3 & 4 &   1 & 2 & 3 & 4 &   1 & 2 & 3 & 4 &

E||---------0-2-3-5-|-2-----7-5-------|-----2-3-2-0-----|-2-0-0-----------|
B||-----2-----------|-----3---7-------|---3---------3-0-|-0---------0-3-0-|
G||---0---0---------|---2-------------|-----------------|-0-------0-------|
D||-----------------|-0-----------0---|-----------------|-------2---------|
A||-0---------------|---------------4-|-2---------------|-----------------|
E||-----------------|-----------------|-----------------|-0---------------|
    1 & 2 & 3 & 4 &   1 & 2 & 3 & 4 &   1 & 2 & 3 & 4 &   1 & 2 & 3 & 4 &

E||-----0-0-0-2-3-0-|-2-2-2-3-2-0-----||
B||-2-------2-------|-3-----------3-0-||
G||---0-----0-------|-----------------||
D||-----------------|-----------------||
A||-0-------0-------|-2---------------||
E||-----------------|-----------------||
    1 & 2 & 3 & 4 &   1 & 2 & 3 & 4 &

riff 2
E||-0---2-----------|-------------0---||
B||-------0---------|-------0-2-3---2-||
G||-1---------0-----|-----0-----------||
D||---------2---0h2-|---2-------------||
A||-----------------|-0---------------||
E||-0---------------|-----------------||
    1 & 2 & 3 & 4 &   1 & 2 & 3 & 4 &

riff 4
E||---------0---2---|-2---0-----------|-----0-0-2---3---|-5---------------|
B||-3---3-3---------|-0-----------0---|---------2-------|-----------------|
G||-----------------|-0---------0-----|---2-----0-------|-----------------|
D||-0---------------|---------2-----0-|-----------------|-0---5-3---0-----|
A||-----------------|-----------------|-4-------4-------|---------------4-|
E||-----------------|-0---------------|-----------------|-----------------|
    1 & 2 & 3 & 4 &   1 & 2 & 3 & 4 &   1 & 2 & 3 & 4 &   1 & 2 & 3 & 4 &

E||-----2---3---5---|-7-5-5-3-2-2-3---|-6-5-5-3-5-----6-|-5-3-3-2-2---0-2-|
B||---------3-------|-0-------0-------|-2---------------|-----------3-----|
G||-----------------|-0-------0-------|-------------0---|---------3-------|
D||-----------------|---------0-------|-0---------------|-0---------------|
A||-2---------------|-----------------|-----------------|---------3-------|
E||-----------------|-0---------------|-----------------|-----------------|
    1 & 2 & 3 & 4 &   1 & 2 & 3 & 4 &   1 & 2 & 3 & 4 &   1 & 2 & 3 & 4 &

E||-2-----------2-2-|-3-2-2-0-0-2-b-3-|
B||-------0---------|-0-----------b---|
G||-2---------------|---------0---b---|
D||-----1---1-------|-2-----------b---|
A||-2---------------|-------------b---|
E||-----------------|---------0---b---|

E||-3-2-2-0-0---0-2-|-----2-0---------|-----------------|---------------0-||
B||-0-------0-3-----|---------3---2---|-3---------------|-----------0-3---||
G||-0-------0-------|---0-----0-------|-----------------|---------2-------||
D||-0---------------|-----------------|-4-----2-0-------|-0---0-----------||
A||-----------------|-0-------0-------|-5-----------0---|-----------------||
E||---------0-------|-----------------|-----------------|-----------------||
    1 & 2 & 3 & 4 &   1 & 2 & 3 & 4 &   1 & 2 & 3 & 4 &   1 & 2 & 3 & 4 &

riff 1
E||-2---------------|---------2-0-----|-0-2-------------|---------2-0-----|
B||-----0---3---0---|-----0-------3---|-0---0-----0-----|-----0-------3-0-|
G||---2---2---2---2-|---2---2-------0-|-0-------0-----0-|---0---0---------|
D||-0---------------|-0---------------|-2-----2-----0---|-2---------------|
A||-----------------|-----------------|-----------------|-----------------|
E||-----------------|-----------------|-----------------|-----------------|
    1 & 2 & 3 & 4 &   1 & 2 & 3 & 4 &   1 & 2 & 3 & 4 &   1 & 2 & 3 & 4 &

E||-0-2-------------|---------------0-|-2-------------0-|-2---------------|
B||-----0---------2-|-3-2-0---0-2-3---|-----------0-3---|-----0---3---0---|
G||-0-----0---------|-0-----2---------|-2-------2-------|---2---2---2---2-|
D||---------0-------|-----------------|-0---0-----------|-0---------------|
A||-----------------|-0---------------|-----------------|-----------------|
E||-3---------------|-----------------|-----------------|-----------------|
    1 & 2 & 3 & 4 &   1 & 2 & 3 & 4 &   1 & 2 & 3 & 4 &   1 & 2 & 3 & 4 &

E||---------2-0-----|-0-2--------------|---------2-0-----|-0-2-------------|
B||-----0-------3---|-0---0-----0---0--|-----0-------3-0-|-----0---------2-|
G||---2---2-------0-|-0-------0----0-0-|---0---0---------|-0-----0---------|
D||-0---------------|-2-----2-----0----|-2---------------|---------0-------|
A||-----------------|------------------|-----------------|-----------------|
E||-----------------|------------------|-3---------------|-----------------|
    1 & 2 & 3 & 4 &   1 & 2 & 3 & 4 &    1 & 2 & 3 & 4 &   1 & 2 & 3 & 4 &

E||---------------0-|-----2---3-5---3-|-2---------0-2---|-0---------------|
B||-3-2-0---0-2-3---|-3---------------|---------3-----3-|-----0-------0---|
G||-0-----2---------|-----2---4-6---4-|-2-----2---------|---0---0---0---0-|
D||-----------------|-0---------------|-0---------------|---------2-------|
A||-0---------------|-----------------|-----------------|-----------------|
E||-----------------|-----------------|-----------------|-0---------------|
    1 & 2 & 3 & 4 &   1 & 2 & 3 & 4 &   1 & 2 & 3 & 4 &   1 & 2 & 3 & 4 &

E||---------0-2-3-5-|-2-----7-5-------|-----2-3-2-0-----|-2-0-0-----------|
B||-----2-----------|-----3---7-------|---3---------3-0-|-0---------0-3-0-|
G||---0---0---------|---2-------------|-----------------|-0-------0-------|
D||-----------------|-0-----------0---|-----------------|-------2---------|
A||-0---------------|---------------4-|-2---------------|-----------------|
E||-----------------|-----------------|-----------------|-0---------------|
    1 & 2 & 3 & 4 &   1 & 2 & 3 & 4 &   1 & 2 & 3 & 4 &   1 & 2 & 3 & 4 &

E||-----0-0-0-2-3-0-|-2-2-2-3-2-0-----||
B||-2-------2-------|-3-----------3-0-||
G||---0-----0-------|-----------------||
D||-----------------|-----------------||
A||-0-------0-------|-2---------------||
E||-----------------|-----------------||
    1 & 2 & 3 & 4 &   1 & 2 & 3 & 4 &

outro
E||-----------------|-------------0-2-|-5---------------|---------||
B||-3-0---3---------|-------0-2-3-----|-----7---0-----0-|-7-------||
G||-1---------------|-----0-----------|-------7---0-----|-7-------||
D||---------2---0h2-|---2-------------|-0-----------0---|---------||
A||-----------------|-0---------------|-----------------|---------||
E||-0---------------|-----------------|-----------------|---------||
    1 & 2 & 3 & 4 &   1 & 2 & 3 & 4 &   1 & 2 & 3 & 4 &   1 & 2 &
comments
We did not receive enough feedback on this tab! Please rate:
print report bad tab
1 2 3 4 5
I want to post or [tab]
guest
You may want to rate the tab now too:
select rating
Please do not post tabs as comments. Select "correction" instead!