Oops, an error
Loading. Please wait.

Mellow Yellow Tab

ver1
ver1

Whole song

Interactive

More versions @911Tabs.com
8,772 views 15 this week
no commentswrite comment
1 2 3 4 5
worth learning
x 5
Autoscroll
+/-
esc
set tempo
stop
Hey! There's an official Ultimate Guitar app which is ideal
for learning songs when you're away from computer. Get the app
WARNING: You are trying to view
                                    content from Ultimate-Guitar.com
                                    in an unauthorized application,
                                    which is prohibited.

                                    Please use an official Ultimate
                                    Guitar Tabs application for iPhone,
                                    iPad or Android to access legitimate
                                    chords, guitar, bass, and drum tabs
                                    from Ultimate-Guitar.com database.

                                    Type "ultimate guitar tabs" in Apple
                                    App Store's or Android Market's
                                    search to find the application.
Guitar 1:


     W                   W                   W                 
E||-------------------|-------------------|-------------------|
B||-------------------|-------------------|-------------------|
G||-------------------|-------------------|-------------------|
D||-------------------|-------------------|-------------------|
A||-------------------|-------------------|-------------------|
E||-------------------|-------------------|-------------------|


  W                   W                   W                 
-------------------|-------------------|-------------------|
-------------------|-------------------|-------------------|
-------------------|-------------------|-------------------|
-------------------|-------------------|-------------------|
-------------------|-------------------|-------------------|
-------------------|-------------------|-------------------|


  S E.  S E.  E  E  S E.     S E.  S E.  S E.  E  E   
--------------------------|--------------------------|
--------------------------|--------------------------|
--------------------------|--------------------------|
--------------------------|--3-----3-----3-----3-----|
--3-----3-----3-----3-----|--1-----1-----1-----1-----|
--1-----1-----1-----1-----|--------------------------|


  S E.  E  E  E  E  S E.     E  E  E  E  E  E  E  E   
--------------------------|--------------------------|
--------------------------|--------------------------|
--------------------------|--0-----0-----0-----------|
--------------------------|--------------------4-----|
--3-----3-----3-----3-----|--3-----3-----3-----2-----|
--1-----1-----1-----1-----|--------------------------|


  E  E  E  E  E  E  E  E     E  E  E  E  E  E  S E.   
--------------------------|--------------------------|
--------------------------|--------------------------|
--------------------------|--------------------------|
--3-----3-----3-----3-----|--3-----3-----3-----3-----|
--1-----1-----1-----1-----|--1-----1-----1-----1-----|
--------------------------|--------------------------|


  S E.  E  E  E  E  S E.     S E.  E  E  E  E  S E.   
--------------------------|--------------------------|
--------------------------|--------------------------|
--0-----0-----0-----0-----|--0-----0-----0-----0-----|
--------------------------|--------------------------|
--3-----3-----3-----3-----|--3-----3-----3-----3-----|
--------------------------|--------------------------|


  S E.  S E.  S E.  S E.     S E.  E  E  E  E  E  E   
--------------------------|--------------------------|
--------------------------|--------------------------|
--------------------------|--------------0-----0-----|
--------------------------|--3-----3-----------------|
--3-----3-----3-----3-----|--1-----1-----3-----3-----|
--1-----1-----1-----1-----|--------------------------|


  E  E  E  E  S E.  S E.     S E.  S E.  E  E  E  E   
--------------------------|--------------------------|
--------------------------|--------------------------|
--------------------------|--------------0-----0-----|
--------------------------|--3-----3-----------------|
--3-----3-----3-----3-----|--1-----1-----3-----3-----|
--1-----1-----1-----1-----|--------------------------|


  E  E  E  E  E  E  S E.     S E.  S E.  E  E  E  E   
--------------------------|--------------------------|
--------------------------|--------------------------|
--------------------------|--------------0-----0-----|
--------------------------|--3-----3-----------------|
--3-----3-----3-----3-----|--1-----1-----3-----3-----|
--1-----1-----1-----1-----|--------------------------|


  E  E  E  E  E  E  E  E     E  E  S E.  S E.  S E.   
--------------------------|--------------------------|
--------------------------|--------------------------|
--0-----0-----0-----0-----|--0-----0-----------------|
--------------------------|--------------------------|
--3-----3-----3-----3-----|--3-----3-----3-----3-----|
--------------------------|--------------1-----1-----|


  E  E  S E.  S E.  S E.     S E.  E  E  S E.  E  E   
--------------------------|--------------------------|
--------------------------|--------------------------|
--------------------------|--------------------------|
--------------3-----3-----|--3-----3-----------------|
--3-----3-----1-----1-----|--1-----1-----3-----3-----|
--1-----1-----------------|--------------1-----1-----|


  E  E  S E.  E  E  E  E     E  E  E  E  E  E  E  E   
--------------------------|--------------------------|
--------------------------|--------------------------|
--------------0-----0-----|--0-----------------------|
--------------------------|--------4-----3-----3-----|
--3-----3-----3-----3-----|--3-----2-----1-----1-----|
--1-----1-----------------|--------------------------|


  E  E  E  E  E  E  E  E     E  E  S E.  S E.  E  E   
--------------------------|--------------------------|
--------------------------|--------------------------|
--------------------------|--------------0-----0-----|
--3-----3-----3-----3-----|--3-----3-----------------|
--1-----1-----1-----1-----|--1-----1-----3-----3-----|
--------------------------|--------------------------|


  E  E  S E.  S E.  E  E     E  E  S E.  S E.  S E.   
--------------------------|--------------------------|
--------------------------|--------------------------|
--0-----0-----0-----0-----|--0-----0-----------------|
--------------------------|--------------------------|
--3-----3-----3-----3-----|--3-----3-----3-----3-----|
--------------------------|--------------1-----1-----|


  S E.  S E.  S E.  E  E     E  E  E  E  E  E  E  E   
--------------------------|--------------------------|
--------------------------|--------------------------|
--------------------------|--0-----0-----------------|
--------------3-----3-----|--------------------------|
--3-----3-----1-----1-----|--3-----3-----3-----3-----|
--1-----1-----------------|--------------1-----1-----|


  S E.  S E.  S E.  S E.     E  E  E  E  E  E  E  E   
--------------------------|--------------------------|
--------------------------|--------------------------|
--------------------------|--0-----0-----------------|
--------------3-----3-----|--------------------------|
--3-----3-----1-----1-----|--3-----3-----3-----3-----|
--1-----1-----------------|--------------1-----1-----|


  E  E  S E.  S E.  S E.     E  E  E  E  E  E  E  E   
--------------------------|--------------------------|
--------------------------|--------------------------|
--------------------------|--0-----0-----0-----0-----|
--------------3-----3-----|--------------------------|
--3-----3-----1-----1-----|--3-----3-----3-----3-----|
--1-----1-----------------|--------------------------|


  E  E  E  E  E  E  S E.     S E.  S E.  E  E  S E.   
--------------------------|--------------------------|
--------------------------|--------------------------|
--0-----0-----0-----0-----|--------------------------|
--------------------------|--------------------------|
--3-----3-----3-----3-----|--3-----3-----3-----3-----|
--------------------------|--1-----1-----1-----1-----|


  S E.  S E.  S E.  E  E     S E.  E  E  E  E  S E.   
--------------------------|--------------------------|
--------------------------|--------------------------|
--------------------------|--------------------------|
--3-----3-----3-----3-----|--------------------------|
--1-----1-----1-----1-----|--3-----3-----3-----3-----|
--------------------------|--1-----1-----1-----1-----|


  E  E  E  E  E  E  E  E     E  E  E  E  E  E  E  E   
--------------------------|--------------------------|
--------------------------|--------------------------|
--0-----0-----0-----------|--------------------------|
--------------------4-----|--3-----3-----3-----3-----|
--3-----3-----3-----2-----|--1-----1-----1-----1-----|
--------------------------|--------------------------|


  E  E  E  E  E  E  S E.     S E.  E  E  E  E  S E.   
--------------------------|--------------------------|
--------------------------|--------------------------|
--------------------------|--0-----0-----0-----0-----|
--3-----3-----3-----3-----|--------------------------|
--1-----1-----1-----1-----|--3-----3-----3-----3-----|
--------------------------|--------------------------|


  S E.  E  E  E  E  S E.     S E.  S E.  S E.  S E.   
--------------------------|--------------------------|
--------------------------|--------------------------|
--0-----0-----0-----0-----|--------------------------|
--------------------------|--------------------------|
--3-----3-----3-----3-----|--3-----3-----3-----3-----|
--------------------------|--1-----1-----1-----1-----|


  S E.  E  E  E  E  E  E     E  E  E  E  S E.  S E.   
--------------------------|--------------------------|
--------------------------|--------------------------|
--------------0-----0-----|--------------------------|
--3-----3-----------------|--------------------------|
--1-----1-----3-----3-----|--3-----3-----3-----3-----|
--------------------------|--1-----1-----1-----1-----|


  S E.  S E.  E  E  E  E     E  E  E  E  E  E  S E.   
--------------------------|--------------------------|
--------------------------|--------------------------|
--------------0-----0-----|--------------------------|
--3-----3-----------------|--------------------------|
--1-----1-----3-----3-----|--3-----3-----3-----3-----|
--------------------------|--1-----1-----1-----1-----|


  S E.  S E.  E  E  E  E     E  E  E  E  E  E  E  E   
--------------------------|--------------------------|
--------------------------|--------------------------|
--------------0-----0-----|--0-----0-----0-----0-----|
--3-----3-----------------|--------------------------|
--1-----1-----3-----3-----|--3-----3-----3-----3-----|
--------------------------|--------------------------|


  E  E  S E.  S E.  S E.     E  E  S E.  S E.  S E.   
--------------------------|--------------------------|
--------------------------|--------------------------|
--0-----0-----------------|--------------------------|
--------------------------|--------------3-----3-----|
--3-----3-----3-----3-----|--3-----3-----1-----1-----|
--------------1-----1-----|--1-----1-----------------|


  S E.  E  E  S E.  E  E     E  E  S E.  E  E  E  E   
--------------------------|--------------------------|
--------------------------|--------------------------|
--------------------------|--------------0-----0-----|
--3-----3-----------------|--------------------------|
--1-----1-----3-----3-----|--3-----3-----3-----3-----|
--------------1-----1-----|--1-----1-----------------|


  E  E  E  E  E  E  E  E     E  E  E  E  E  E  E  E   
--------------------------|--------------------------|
--------------------------|--------------------------|
--0-----------------------|--------------------------|
--------4-----3-----3-----|--3-----3-----3-----3-----|
--3-----2-----1-----1-----|--1-----1-----1-----1-----|
--------------------------|--------------------------|


  E  E  S E.  S E.  E  E     E  E  S E.  S E.  E  E   
--------------------------|--------------------------|
--------------------------|--------------------------|
--------------0-----0-----|--0-----0-----0-----0-----|
--3-----3-----------------|--------------------------|
--1-----1-----3-----3-----|--3-----3-----3-----3-----|
--------------------------|--------------------------|


  E  E  S E.  S E.  S E.     S E.  S E.  S E.  E  E   
--------------------------|--------------------------|
--------------------------|--------------------------|
--0-----0-----------------|--------------------------|
--------------------------|--------------3-----3-----|
--3-----3-----3-----3-----|--3-----3-----1-----1-----|
--------------1-----1-----|--1-----1-----------------|


  E  E  E  E  E  E  E  E     S E.  S E.  S E.  S E.   
--------------------------|--------------------------|
--------------------------|--------------------------|
--0-----0-----------------|--------------------------|
--------------------------|--------------3-----3-----|
--3-----3-----3-----3-----|--3-----3-----1-----1-----|
--------------1-----1-----|--1-----1-----------------|


  E  E  E  E  E  E  E  E     E  E  S E.  S E.  S E.   
--------------------------|--------------------------|
--------------------------|--------------------------|
--0-----0-----------------|--------------------------|
--------------------------|--------------3-----3-----|
--3-----3-----3-----3-----|--3-----3-----1-----1-----|
--------------1-----1-----|--1-----1-----------------|


  E  E  E  E  E  E  E  E     E  E  E  E  E  E  S E.   
--------------------------|--------------------------|
--------------------------|--------------------------|
--0-----0-----0-----0-----|--0-----0-----0-----0-----|
--------------------------|--------------------------|
--3-----3-----3-----3-----|--3-----3-----3-----3-----|
--------------------------|--------------------------|


  S E.  S E.  E  E  S E.     S E.  S E.  S E.  E  E   
--------------------------|--------------------------|
--------------------------|--------------------------|
--------------------------|--------------------------|
--------------------------|--3-----3-----3-----3-----|
--3-----3-----3-----3-----|--1-----1-----1-----1-----|
--1-----1-----1-----1-----|--------------------------|


  S E.  E  E  E  E  S E.     E  E  E  E  E  E  E  E   
--------------------------|--------------------------|
--------------------------|--------------------------|
--------------------------|--0-----0-----0-----------|
--------------------------|--------------------4-----|
--3-----3-----3-----3-----|--3-----3-----3-----2-----|
--1-----1-----1-----1-----|--------------------------|


  E  E  E  E  E  E  E  E     E  E  E  E  E  E  S E.   
--------------------------|--------------------------|
--------------------------|--------------------------|
--------------------------|--------------------------|
--3-----3-----3-----3-----|--3-----3-----3-----3-----|
--1-----1-----1-----1-----|--1-----1-----1-----1-----|
--------------------------|--------------------------|


  S E.  E  E  E  E  S E.     S E.  E  E  E  E  S E.   
--------------------------|--------------------------|
--------------------------|--------------------------|
--0-----0-----0-----0-----|--0-----0-----0-----0-----|
--------------------------|--------------------------|
--3-----3-----3-----3-----|--3-----3-----3-----3-----|
--------------------------|--------------------------|


  S E.  S E.  S E.  S E.     S E.  E  E  E  E  E  E   
--------------------------|--------------------------|
--------------------------|--------------------------|
--------------------------|--------------0-----0-----|
--------------------------|--3-----3-----------------|
--3-----3-----3-----3-----|--1-----1-----3-----3-----|
--1-----1-----1-----1-----|--------------------------|


  E  E  E  E  S E.  S E.     S E.  S E.  E  E  E  E   
--------------------------|--------------------------|
--------------------------|--------------------------|
--------------------------|--------------0-----0-----|
--------------------------|--3-----3-----------------|
--3-----3-----3-----3-----|--1-----1-----3-----3-----|
--1-----1-----1-----1-----|--------------------------|


  E  E  E  E  E  E  S E.     S E.  S E.  E  E  E  E   
--------------------------|--------------------------|
--------------------------|--------------------------|
--------------------------|--------------0-----0-----|
--------------------------|--3-----3-----------------|
--3-----3-----3-----3-----|--1-----1-----3-----3-----|
--1-----1-----1-----1-----|--------------------------|


  E  E  E  E  E  E  E  E     E  E  S E.  S E.  S E.   
--------------------------|--------------------------|
--------------------------|--------------------------|
--0-----0-----0-----0-----|--0-----0-----------------|
--------------------------|--------------------------|
--3-----3-----3-----3-----|--3-----3-----3-----3-----|
--------------------------|--------------1-----1-----|


  E  E  S E.  S E.  S E.     S E.  E  E  S E.  E  E   
--------------------------|--------------------------|
--------------------------|--------------------------|
--------------------------|--------------------------|
--------------3-----3-----|--3-----3-----------------|
--3-----3-----1-----1-----|--1-----1-----3-----3-----|
--1-----1-----------------|--------------1-----1-----|


  E  E  S E.  E  E  E  E     E  E  E  E  E  E  E  E   
--------------------------|--------------------------|
--------------------------|--------------------------|
--------------0-----0-----|--0-----------------------|
--------------------------|--------4-----3-----3-----|
--3-----3-----3-----3-----|--3-----2-----1-----1-----|
--1-----1-----------------|--------------------------|


  E  E  E  E  E  E  E  E     E  E  S E.  S E.  E  E   
--------------------------|--------------------------|
--------------------------|--------------------------|
--------------------------|--------------0-----0-----|
--3-----3-----3-----3-----|--3-----3-----------------|
--1-----1-----1-----1-----|--1-----1-----3-----3-----|
--------------------------|--------------------------|


  E  E  S E.  S E.  E  E     E  E  S E.  S E.  S E.   
--------------------------|--------------------------|
--------------------------|--------------------------|
--0-----0-----0-----0-----|--0-----0-----------------|
--------------------------|--------------------------|
--3-----3-----3-----3-----|--3-----3-----3-----3-----|
--------------------------|--------------1-----1-----|


  S E.  S E.  S E.  E  E     E  E  E  E  E  E  E  E   
--------------------------|--------------------------|
--------------------------|--------------------------|
--------------------------|--0-----0-----------------|
--------------3-----3-----|--------------------------|
--3-----3-----1-----1-----|--3-----3-----3-----3-----|
--1-----1-----------------|--------------1-----1-----|


  S E.  S E.  S E.  S E.     E  E  E  E  E  E  E  E   
--------------------------|--------------------------|
--------------------------|--------------------------|
--------------------------|--0-----0-----------------|
--------------3-----3-----|--------------------------|
--3-----3-----1-----1-----|--3-----3-----3-----3-----|
--1-----1-----------------|--------------1-----1-----|


  E  E  S E.  S E.  S E.     E  E  E  E  E  E  E  E   
--------------------------|--------------------------|
--------------------------|--------------------------|
--------------------------|--0-----0-----0-----0-----|
--------------3-----3-----|--------------------------|
--3-----3-----1-----1-----|--3-----3-----3-----3-----|
--1-----1-----------------|--------------------------|


  E  E  E  E  E  E  S E.     S E.  S E.  E  E  S E.   
--------------------------|--------------------------|
--------------------------|--------------------------|
--0-----0-----0-----0-----|--------------------------|
--------------------------|--------------------------|
--3-----3-----3-----3-----|--3-----3-----3-----3-----|
--------------------------|--1-----1-----1-----1-----|


  S E.  S E.  S E.  E  E     S E.  E  E  E  E  S E.   
--------------------------|--------------------------|
--------------------------|--------------------------|
--------------------------|--------------------------|
--3-----3-----3-----3-----|--------------------------|
--1-----1-----1-----1-----|--3-----3-----3-----3-----|
--------------------------|--1-----1-----1-----1-----|


  E  E  E  E  E  E  E  E     E  E  E  E  E  E  E  E   
--------------------------|--------------------------|
--------------------------|--------------------------|
--0-----0-----0-----------|--------------------------|
--------------------4-----|--3-----3-----3-----3-----|
--3-----3-----3-----2-----|--1-----1-----1-----1-----|
--------------------------|--------------------------|


  E  E  E  E  E  E  S E.     S E.  E  E  E  E  S E.   
--------------------------|--------------------------|
--------------------------|--------------------------|
--------------------------|--0-----0-----0-----0-----|
--3-----3-----3-----3-----|--------------------------|
--1-----1-----1-----1-----|--3-----3-----3-----3-----|
--------------------------|--------------------------|


  S E.  E  E  E  E  S E.     S E.  S E.  S E.  S E.   
--------------------------|--------------------------|
--------------------------|--------------------------|
--0-----0-----0-----0-----|--------------------------|
--------------------------|--------------------------|
--3-----3-----3-----3-----|--3-----3-----3-----3-----|
--------------------------|--1-----1-----1-----1-----|


  S E.  E  E  E  E  E  E     E  E  E  E  S E.  S E.   
--------------------------|--------------------------|
--------------------------|--------------------------|
--------------0-----0-----|--------------------------|
--3-----3-----------------|--------------------------|
--1-----1-----3-----3-----|--3-----3-----3-----3-----|
--------------------------|--1-----1-----1-----1-----|


  S E.  S E.  E  E  E  E     E  E  E  E  E  E  S E.   
--------------------------|--------------------------|
--------------------------|--------------------------|
--------------0-----0-----|--------------------------|
--3-----3-----------------|--------------------------|
--1-----1-----3-----3-----|--3-----3-----3-----3-----|
--------------------------|--1-----1-----1-----1-----|


  S E.  S E.  E  E  E  E     E  E  E  E  E  E  E  E     E  E  S H        E  S  
--------------------------|--------------------------|------------------------|
--------------------------|--------------------------|------------------------|
--------------0-----0-----|--0-----0-----0-----0-----|--0-----0---------------|
--3-----3-----------------|--------------------------|------------------------|
--1-----1-----3-----3-----|--3-----3-----3-----3-----|--3-----3---------------|
--------------------------|--------------------------|------------------------|


----||
----||
----||
----||
----||
----||










Guitar 2:


     W                   W                   W                 
E||-------------------|-------------------|-------------------|
B||-------------------|-------------------|-------------------|
G||-------------------|-------------------|-------------------|
D||-------------------|-------------------|-------------------|
A||-------------------|-------------------|-------------------|
E||-------------------|-------------------|-------------------|


  W                   W                   W                   W                 
-------------------|-------------------|-------------------|-------------------|
-------------------|-------------------|-------------------|-------------------|
-------------------|-------------------|-------------------|-------------------|
-------------------|-------------------|-------------------|-------------------|
-------------------|-------------------|-------------------|-------------------|
-------------------|-------------------|-------------------|-------------------|


  W                   W                   W                   W                 
-------------------|-------------------|-------------------|-------------------|
-------------------|-------------------|-------------------|-------------------|
-------------------|-------------------|-------------------|-------------------|
-------------------|-------------------|-------------------|-------------------|
-------------------|-------------------|-------------------|-------------------|
-------------------|-------------------|-------------------|-------------------|


  W                   W                   W                 
-------------------|-------------------|-------------------|
-------------------|-------------------|-------------------|
-------------------|-------------------|-------------------|
-------------------|-------------------|-------------------|
-------------------|-------------------|-------------------|
-------------------|-------------------|-------------------|


  H        E  T Q    S T    S. H.           E  T    H        E.  Q    T T  
-------------------------|-----------------------|------------------------|
-------------------------|-----------------------|------------------------|
-------------------------|-----------------------|------------------------|
-------------------------|-----------------------|------------------------|
----------------3----L---|-----------------------|---------------3----L---|
----------------7--------|--6--------------------|---------------7--------|


  S. H.           E  T    H        E  T T Q    T T    S H.           E.   
-----------------------|---------------------------|---------------------|
-----------------------|---------------------------|---------------------|
-----------------------|---------------------------|---------------------|
-----------------------|---------------------------|---------------------|
-----------------------|---------------------------|---------------------|
--6--------------------|----------------7-8----L---|--6------------------|


  W                   W                   W                   W                 
-------------------|-------------------|-------------------|-------------------|
-------------------|-------------------|-------------------|-------------------|
-------------------|-------------------|-------------------|-------------------|
-------------------|-------------------|-------------------|-------------------|
-------------------|-------------------|-------------------|-------------------|
-------------------|-------------------|-------------------|-------------------|


  W                   W                   W                   W                 
-------------------|-------------------|-------------------|-------------------|
-------------------|-------------------|-------------------|-------------------|
-------------------|-------------------|-------------------|-------------------|
-------------------|-------------------|-------------------|-------------------|
-------------------|-------------------|-------------------|-------------------|
-------------------|-------------------|-------------------|-------------------|


  W                   W                   E  T T Q    T S. Q.     S  
-------------------|-------------------|----------------------------|
-------------------|-------------------|----------------------------|
-------------------|-------------------|----------------------------|
-------------------|-------------------|----------------------------|
-------------------|-------------------|-------2-3----L-1-----------|
-------------------|-------------------|----------------------------|


  W                   E.  Q    S S Q.     S    W                 
-------------------|------------------------|-------------------|
-------------------|------------------------|-------------------|
-------------------|------------------------|-------------------|
-------------------|------------------------|-------------------|
-------------------|------3----L------------|-------------------|
-------------------|------7------6----------|-------------------|


       3                                                                
  E  T X Q    S S. Q.     T. X    W                   W                 
-------------------------------|-------------------|-------------------|
-------------------------------|-------------------|-------------------|
-------------------------------|-------------------|-------------------|
-------------------------------|-------------------|-------------------|
-------2-3----L-1--------------|-------------------|-------------------|
-------------------------------|-------------------|-------------------|


  W                   W                   W                   W                 
-------------------|-------------------|-------------------|-------------------|
-------------------|-------------------|-------------------|-------------------|
-------------------|-------------------|-------------------|-------------------|
-------------------|-------------------|-------------------|-------------------|
-------------------|-------------------|-------------------|-------------------|
-------------------|-------------------|-------------------|-------------------|


  W                   W                   W                   W                 
-------------------|-------------------|-------------------|-------------------|
-------------------|-------------------|-------------------|-------------------|
-------------------|-------------------|-------------------|-------------------|
-------------------|-------------------|-------------------|-------------------|
-------------------|-------------------|-------------------|-------------------|
-------------------|-------------------|-------------------|-------------------|


  3                3        3    3               3     
  W                X Q    S X    E  H.           Q     
------------------------------|-----------------------|
------------------------------|-----------------------|
------------------------------|-----------------------|
------------------------------|-----------------------|
-------------------2-3----L-1-|--L--------------------|
------------------------------|-----------------------|


              3          3    3                  3  
  H        E  T T Q    S X    T H.           E.  S  
---------------------------|-----------------------|
---------------------------|-----------------------|
---------------------------|-----------------------|
---------------------------|-----------------------|
----------------2-3----L-1-|--L--------------------|
---------------------------|-----------------------|


                          3    3                    3                      
  H        E  T. X Q    S X    T S. H.           E  X    W                 
----------------------------|-------------------------|-------------------|
----------------------------|-------------------------|-------------------|
----------------------------|-------------------------|-------------------|
----------------------------|-------------------------|-------------------|
-------------------3----L-L-|--L----------------------|-------------------|
-------------------7--------|----6--------------------|-------------------|


  W                   W                   W                   W                 
-------------------|-------------------|-------------------|-------------------|
-------------------|-------------------|-------------------|-------------------|
-------------------|-------------------|-------------------|-------------------|
-------------------|-------------------|-------------------|-------------------|
-------------------|-------------------|-------------------|-------------------|
-------------------|-------------------|-------------------|-------------------|


  W                   W                   W                   W                 
-------------------|-------------------|-------------------|-------------------|
-------------------|-------------------|-------------------|-------------------|
-------------------|-------------------|-------------------|-------------------|
-------------------|-------------------|-------------------|-------------------|
-------------------|-------------------|-------------------|-------------------|
-------------------|-------------------|-------------------|-------------------|


  W                   W                   W                   W                 
-------------------|-------------------|-------------------|-------------------|
-------------------|-------------------|-------------------|-------------------|
-------------------|-------------------|-------------------|-------------------|
-------------------|-------------------|-------------------|-------------------|
-------------------|-------------------|-------------------|-------------------|
-------------------|-------------------|-------------------|-------------------|


  W                   W                   W                   W                 
-------------------|-------------------|-------------------|-------------------|
-------------------|-------------------|-------------------|-------------------|
-------------------|-------------------|-------------------|-------------------|
-------------------|-------------------|-------------------|-------------------|
-------------------|-------------------|-------------------|-------------------|
-------------------|-------------------|-------------------|-------------------|


  W                   W                   W                   W                 
-------------------|-------------------|-------------------|-------------------|
-------------------|-------------------|-------------------|-------------------|
-------------------|-------------------|-------------------|-------------------|
-------------------|-------------------|-------------------|-------------------|
-------------------|-------------------|-------------------|-------------------|
-------------------|-------------------|-------------------|-------------------|


  W                   W                   W                   W                 
-------------------|-------------------|-------------------|-------------------|
-------------------|-------------------|-------------------|-------------------|
-------------------|-------------------|-------------------|-------------------|
-------------------|-------------------|-------------------|-------------------|
-------------------|-------------------|-------------------|-------------------|
-------------------|-------------------|-------------------|-------------------|


              |3|                                                               
  H        E  T X Q    T T T    T H.           E.  T    H        E  T T Q    S  
-----------------------------|-----------------------|-------------------------|
-----------------------------|-----------------------|-------------------------|
-----------------------------|-----------------------|-------------------------|
-----------------------------|-----------------------|-------------------------|
----------------2-3----L---1-|--L--------------------|----------------2-3----L-|
-----------------------------|-----------------------|-------------------------|


  S. H.           E  T    H        E  T Q    S T    S. H        Q    E  T  
-----------------------|-------------------------|------------------------|
-----------------------|-------------------------|------------------------|
-----------------------|-------------------------|------------------------|
-----------------------|-------------------------|------------------------|
--1--------------------|----------------3----L---|------------------------|
-----------------------|----------------7--------|--6---------------------|


  W                   W                   W                   W                 
-------------------|-------------------|-------------------|-------------------|
-------------------|-------------------|-------------------|-------------------|
-------------------|-------------------|-------------------|-------------------|
-------------------|-------------------|-------------------|-------------------|
-------------------|-------------------|-------------------|-------------------|
-------------------|-------------------|-------------------|-------------------|


  W                   W                   W                   W                 
-------------------|-------------------|-------------------|-------------------|
-------------------|-------------------|-------------------|-------------------|
-------------------|-------------------|-------------------|-------------------|
-------------------|-------------------|-------------------|-------------------|
-------------------|-------------------|-------------------|-------------------|
-------------------|-------------------|-------------------|-------------------|


  W                   W                   W                   W                 
-------------------|-------------------|-------------------|-------------------|
-------------------|-------------------|-------------------|-------------------|
-------------------|-------------------|-------------------|-------------------|
-------------------|-------------------|-------------------|-------------------|
-------------------|-------------------|-------------------|-------------------|
-------------------|-------------------|-------------------|-------------------|


  W                   W                   W                   W                 
-------------------|-------------------|-------------------|-------------------|
-------------------|-------------------|-------------------|-------------------|
-------------------|-------------------|-------------------|-------------------|
-------------------|-------------------|-------------------|-------------------|
-------------------|-------------------|-------------------|-------------------|
-------------------|-------------------|-------------------|-------------------|


  W                   W                   W                   W                 
-------------------|-------------------|-------------------|-------------------|
-------------------|-------------------|-------------------|-------------------|
-------------------|-------------------|-------------------|-------------------|
-------------------|-------------------|-------------------|-------------------|
-------------------|-------------------|-------------------|-------------------|
-------------------|-------------------|-------------------|-------------------|


  W                   W                   W                   W                 
-------------------|-------------------|-------------------|-------------------|
-------------------|-------------------|-------------------|-------------------|
-------------------|-------------------|-------------------|-------------------|
-------------------|-------------------|-------------------|-------------------|
-------------------|-------------------|-------------------|-------------------|
-------------------|-------------------|-------------------|-------------------|


  W                   W                   W                   W                 
-------------------|-------------------|-------------------|-------------------|
-------------------|-------------------|-------------------|-------------------|
-------------------|-------------------|-------------------|-------------------|
-------------------|-------------------|-------------------|-------------------|
-------------------|-------------------|-------------------|-------------------|
-------------------|-------------------|-------------------|-------------------|


  W                   W                   W                   W                 
-------------------|-------------------|-------------------|-------------------|
-------------------|-------------------|-------------------|-------------------|
-------------------|-------------------|-------------------|-------------------|
-------------------|-------------------|-------------------|-------------------|
-------------------|-------------------|-------------------|-------------------|
-------------------|-------------------|-------------------|-------------------|


  W                   W                  
-------------------|-------------------||
-------------------|-------------------||
-------------------|-------------------||
-------------------|-------------------||
-------------------|-------------------||
-------------------|-------------------||




Duration Legend
---------------
W - whole
H - half
Q - quarter
E - 8th
S - 16th
T - 32nd
X - 64th
. - note dotted
|-n-|  - n-tuplets


Tablature Legend
----------------
L - tied note
x - dead note
g - grace note
(n) - ghost note
> - accentuded note
NH - natural harmonic
AH - artificial harmonic
TH - tapped harmonic
SH - semi harmonic
PH - pitch harmonic
h - hammer on
p - pull off
b - bend
br - bendRelease
pb - preBend
pbr - preBendRelease
brb - bendReleaseBend
\n/ - tremolo bar dip
\n - tremolo bar dive
-/n - tremolo bar Release up
/n\ - tremolo bar inverted dip
/n - tremolo bar return
-\n - tremolo bar Release down
S - shift slide
s - legato slide
/ -  slide into from below or out of upwards
\ -  slide into from above or out of downwards
~ - vibrato
W - wide vibrato
tr - trill
TP - tremolo picking
T - tapping
S - slap
P - pop
< - fade in
^ - brush up
v - brush down
comments
print report bad tab
I want to post or [tab]
guest
You may want to rate the tab now too:
select rating
Please do not post tabs as comments. Select "correction" instead!