Oops, an error
Loading. Please wait.

Cars Hiss By My Window Tab

ver3
ver3

Whole song

Interactive

More versions @911Tabs.com
10,575 views 24 this week
1 commentread comment
1 2 3 4 5
accurate
x 5
Autoscroll
+/-
esc
set tempo
stop
Contributor
Difficulty
Tabbers playing skills
novice
advanced
Hey! There's an official Ultimate Guitar app which is ideal
for learning songs when you're away from computer. Get the app
WARNING: You are trying to view
                                    content from Ultimate-Guitar.com
                                    in an unauthorized application,
                                    which is prohibited.

                                    Please use an official Ultimate
                                    Guitar Tabs application for iPhone,
                                    iPad or Android to access legitimate
                                    chords, guitar, bass, and drum tabs
                                    from Ultimate-Guitar.com database.

                                    Type "ultimate guitar tabs" in Apple
                                    App Store's or Android Market's
                                    search to find the application.
                        Cars hiss by my window                              


                                                                       The Doors
guitar



              |--3--|  |--3--|     |--3--|  |---3--|   |--3--|  |--3--|   
     H        E  E  E  E  E  E     E  E  E  E  E   E   E  E  E  E  E  E   
E||-----------------------------|----------------------------------------|
B||-----------------------------|-----------2----------------------------|
G||-----------------------------|-----------2------4h--L-----------------|
D||--------------------0--1--2--|-----------2-----/6---L--------0--1--2--|
A||-----------------2-----------|----------------------------2-----------|
E||-----------------------------|--0-----0-------------------0-----------|


  |--3--|  |---3--|   |--3--|  |--3--|   
  E  E  E  E  E   E   E  E  E  E  E  E   
----------------------------------------|
-----------2----------------------------|
-----------2------4h--L-----------------|
-----------2-----/6---L--------0--1--2--|
----------------------------2-----------|
--0-----0-------------------0-----------|


  |--3--|  |---3--|   |--3--|  |--3--|   
  E  E  E  E  E   E   E  E  E  E  E  E   
----------------------------------------|
-----------2----------------------------|
-----------2------4h--L-----------------|
-----------2-----/6---L--------0--1--2--|
----------------------------2-----------|
--0-----0-------------------0-----------|


  |--3--|  |---3--|   |--3--|  |--3--|   
  E  E  E  E  E   E   E  E  E  E  E  E   
----------------------------------------|
-----------2----------------------------|
-----------2------4h--L-----------------|
-----------2-----/6---L--------0--1--2--|
----------------------------2-----------|
--0-----0-------------------0-----------|


  |--3--|  |---3--|  |--3--|  |--3--|     |--3--|  |---3--|  |--3--|  |--3--|   
  E  E  E  E  E   E  E  E  E  E  E  E     E  E  E  E  E   E  E  E  E  E  E  E   
---------------------------------------|---------------------------------------|
-----------7---------------------------|-----------7---------------------------|
-----------7-----/6--L-----------------|-----------7-----/6--L-----------------|
-----------7-----/5--L--------5--6--7--|-----------7-----/5--L--------5--6--7--|
--0-----0------------------7-----------|--0-----0------------------7-----------|
---------------------------------------|---------------------------------------|


  |--3--|  |---3--|   |--3--|  |--3--|   
  E  E  E  E  E   E   E  E  E  E  E  E   
----------------------------------------|
-----------2----------------------------|
-----------2------4h--L-----------------|
-----------2-----/6---L--------0--1--2--|
----------------------------2-----------|
--0-----0-------------------0-----------|


  |--3--|  |---3--|   |--3--|  |--3--|   
  E  E  E  E  E   E   E  E  E  E  E  E   
----------------------------------------|
-----------2----------------------------|
-----------2------4h--L-----------------|
-----------2-----/6---L--------0--1--2--|
----------------------------2-----------|
--0-----0-------------------0-----------|


  |--3--|  |---3--|  |--3--|  |--3--|     |--3--|  |---3--|  |--3--|  |--3--|   
  E  E  E  E  E   E  E  E  E  E  E  E     E  E  E  E  E   E  E  E  E  E  E  E   
---------------------------------------|---------------------------------------|
-----------7---------------------------|-----------7---------------------------|
-----------7-----/6--L-----------------|-----------7-----/6--L-----------------|
-----------7-----/5--L--------5--6--7--|-----------7-----/5--L--------5--6--7--|
--0-----0------------------7-----------|--0-----0------------------7-----------|
---------------------------------------|---------------------------------------|


  |--3--|  |---3--|   |--3--|  |--3--|   
  E  E  E  E  E   E   E  E  E  E  E  E   
----------------------------------------|
-----------2----------------------------|
-----------2------4h--L-----------------|
-----------2-----/6---L--------0--1--2--|
----------------------------2-----------|
--0-----0-------------------0-----------|


  |--3--|  |--3--|   |--3--|  |--3--|     |--3--|  |--3--|            
  E  E  E  E  E  E   E  E  E  E  E  E     E  E  E  E  E  E  H         
---------------------------------------|-----------------------------|
-----------2------------------------7--|--9--7-----------------------|
-----------2-----4h--L--------------7--|--------8--6-----------------|
-----------2-----6---L--------------9--|--------------9--8--7--------|
---------------------------2-----------|-----------------------------|
--0-----0------------------0-----------|-----------------------------|


       |--3--|       |--3--|           |--3--|  |--3--|  |--3--|   
  Q    E  E  E  Q    E  E  E      Q    E  E  E  E  E  E  E  E  E   
-------3--L--0-----------------|----------------------------------|
-------------------------------|----------------------------------|
----------------2----0-----0h--|--1-------------------------------|
-------------------------------|-------2--2--2--0-----0-----------|
-------------------------------|-------------------2-----0--------|
-------------------------------|----------------------------3--0--|


       |--3--|              |--3--|  |---3--|   |--3--|  |--3--|   
  Q    E  E  E  H           E  E  E  E  E   E   E  E  E  E  E  E   
-------------------------|----------------------------------------|
-------------------------|-----------2----------------------------|
----------------2--------|-----------2------4h--L-----------------|
--2-------------1--------|-----------2-----/6---L--------0--1--2--|
-------0--1--2--2--------|----------------------------2-----------|
-------------------------|--0-----0-------------------0-----------|


  |--3--|  |---3--|   |--3--|  |--3--|   
  E  E  E  E  E   E   E  E  E  E  E  E   
----------------------------------------|
-----------2----------------------------|
-----------2------4h--L-----------------|
-----------2-----/6---L--------0--1--2--|
----------------------------2-----------|
--0-----0-------------------0-----------|


  |--3--|  |---3--|   |--3--|  |--3--|   
  E  E  E  E  E   E   E  E  E  E  E  E   
----------------------------------------|
-----------2----------------------------|
-----------2------4h--L-----------------|
-----------2-----/6---L--------0--1--2--|
----------------------------2-----------|
--0-----0-------------------0-----------|


  |--3--|  |---3--|   |--3--|  |--3--|   
  E  E  E  E  E   E   E  E  E  E  E  E   
----------------------------------------|
-----------2----------------------------|
-----------2------4h--L-----------------|
-----------2-----/6---L--------0--1--2--|
----------------------------2-----------|
--0-----0-------------------0-----------|


  |--3--|  |---3--|  |--3--|  |--3--|     |--3--|  |---3--|  |--3--|  |--3--|   
  E  E  E  E  E   E  E  E  E  E  E  E     E  E  E  E  E   E  E  E  E  E  E  E   
---------------------------------------|---------------------------------------|
-----------7---------------------------|-----------7---------------------------|
-----------7-----/6--L-----------------|-----------7-----/6--L-----------------|
-----------7-----/5--L--------5--6--7--|-----------7-----/5--L--------5--6--7--|
--0-----0------------------7-----------|--0-----0------------------7-----------|
---------------------------------------|---------------------------------------|


  |--3--|  |---3--|   |--3--|  |--3--|   
  E  E  E  E  E   E   E  E  E  E  E  E   
----------------------------------------|
-----------2----------------------------|
-----------2------4h--L-----------------|
-----------2-----/6---L--------0--1--2--|
----------------------------2-----------|
--0-----0-------------------0-----------|


  |--3--|  |--3--|   |--3--|  |--3--|     |--3--|  |--3--|            
  E  E  E  E  E  E   E  E  E  E  E  E     E  E  E  E  E  E  H         
---------------------------------------|-----------------------------|
-----------2------------------------7--|--9--7-----------------------|
-----------2-----4h--L--------------7--|--------8--6-----------------|
-----------2-----6---L--------------9--|--------------9--8--7--------|
---------------------------2-----------|-----------------------------|
--0-----0------------------0-----------|-----------------------------|


       |--3--|       |--3--|            |--3--|  |--3--|  |--3--|   
  Q    E  E  E  Q    E  E  E      Q     E  E  E  E  E  E  E  E  E   
-------3--L--0-----------------|-----------------------------------|
-------------------------------|-----------------------------------|
----------------2----0-----0h--|--1--------------------------------|
-------------------------------|-------/2--2--2--0-----0-----------|
-------------------------------|--------------------2-----0--------|
-------------------------------|-----------------------------3--0--|


       |--3--|                   |--3--|  |--3--|  |---3--|    
  Q    E  E  E  H           Q    E  E  E  E  E  E  E  E   E    
-------------------------|-------3--L--0--------0--L----------|
-------------------------|----------------3-------------------|
----------------2--------|-------------------------------/4s--|
--2-------------1--------|------------------------------------|
-------0--1--2--2--------|------------------------------------|
-------------------------|------------------------------------|


  |--3--|  |--3--|                    |--3--|  |--3--|  |--3--|   
  E  E  E  E  E  E  Q    Q       Q    E  E  E  E  E  E  E  E  E   
-----------3--L--0-------0----|-------3--L--0--------0--L--------|
--------------------3---------|----------------3-----------------|
--2--0------------------------|----------------------------------|
--------2---------------------|----------------------------------|
------------------------------|----------------------------------|
------------------------------|----------------------------------|


  |---3--|  |--3--|  |--3--|   |--3--|           |--3--|  |--3--|        
  E  E   E  E  E  E  E  E  E   E  E  E     Q     E  E  E  E  E  E  Q     
---------------0--0--0------------------|-------/4--2--0--------0--L----|
--------/3--3--3--3--3--3--3------------|-----------------2-------------|
--------/4--4--------4--4--4s--2--0-----|-------------------------------|
-------------------------------------2--|-------------------------------|
----------------------------------------|-------------------------------|
--0-------------------------------------|-------------------------------|


       |-3| |3|       |--3--|     |-3| |3|  3        |--3--|  3  3   
  Q    E  S S E  Q    E  E  E     E  S S E  E  Q     E  E  E  E  E   
-------4--2-0----0-------------|------------------------------------|
--------------2-------3--3--3--|------------------------------------|
----------------------4--4--4--|--4--2-0-------2b----2--0-----0-----|
-------------------------------|---------2--L--------------2-----2--|
-------------------------------|------------------------------------|
-------------------------------|------------------------------------|


  |--3--|  |--3--|  |--3--|  |--3--|     |--3--|  |--3--|  |--3--|        
  E  E  E  E  E  E  E  E  E  E  E  E     E  E  E  E  E  E  E  E  E  Q     
--------------------------------------|----------------------------------|
-----------------------------------7--|--9--7----------------------------|
--------------------0--------------8--|--------7--8--6-------------------|
--0-----------0--2-----2--L--------9--|-----------------9--8--7--L-------|
-----2--0--2--------------------------|----------------------------------|
--------------------------------------|----------------------------------|


       |--3--|       |--3--|            |--3--|  |--3--|  |--3--|   
  Q    E  E  E  Q    E  E  E      Q     E  E  E  E  E  E  E  E  E   
-------3--L--0-----------------|-----------------------------------|
-------------------------------|-----------------------------------|
----------------2----0-----0h--|--1--------------------------------|
-------------------------------|-------/2--2--2--0-----0-----------|
-------------------------------|--------------------2-----0--------|
-------------------------------|-----------------------------3--0--|


       |--3--|              |--3--|  |---3--|   |--3--|  |--3--|   
  Q    E  E  E  H           E  E  E  E  E   E   E  E  E  E  E  E   
-------------------------|----------------------------------------|
-------------------------|-----------2----------------------------|
----------------2--------|-----------2------4h--L-----------------|
--2-------------1--------|-----------2-----/6---L--------0--1--2--|
-------0--1--2--2--------|----------------------------2-----------|
-------------------------|--0-----0-------------------0-----------|


  |--3--|  |---3--|   |--3--|  |--3--|   
  E  E  E  E  E   E   E  E  E  E  E  E   
----------------------------------------|
-----------2----------------------------|
-----------2------4h--L-----------------|
-----------2-----/6---L--------0--1--2--|
----------------------------2-----------|
--0-----0-------------------0-----------|


  |--3--|  |--3--|   |--3--|  |--3--|     |--3--|  |--3--|   |--3--|  |--3--|   
  E  E  E  E  E  E   E  E  E  E  E  E     E  E  E  E  E  E   E  E  E  E  E  E   
---------------------------------------|---------------------------------------|
-----------7-----5---------------------|-----------7-----5---------------------|
-----------7-----5h--6--L--------------|-----------7-----5h--6--L--------------|
-----------7-----5------------5--6--7--|-----------7-----5------------5--6--7--|
--0-----0------------------7-----------|--0-----0------------------7-----------|
---------------------------------------|---------------------------------------|


  |--3--|  |---3--|   |--3--|  |--3--|   
  E  E  E  E  E   E   E  E  E  E  E  E   
----------------------------------------|
-----------2----------------------------|
-----------2------4h--L-----------------|
-----------2-----/6---L--------0--1--2--|
----------------------------2-----------|
--0-----0-------------------0-----------|


  |--3--|  |---3--|   |--3--|  |--3--|   
  E  E  E  E  E   E   E  E  E  E  E  E   
----------------------------------------|
-----------2----------------------------|
-----------2------4h--L-----------------|
-----------2-----/6---L--------0--1--2--|
----------------------------2-----------|
--0-----0-------------------0-----------|


  |--3--|  |---3--|  |--3--|  |--3--|     |--3--|  |---3--|  |--3--|  |--3--|   
  E  E  E  E  E   E  E  E  E  E  E  E     E  E  E  E  E   E  E  E  E  E  E  E   
---------------------------------------|---------------------------------------|
-----------7---------------------------|-----------7---------------------------|
-----------7-----/6--L-----------------|-----------7-----/6--L-----------------|
-----------7-----/5--L--------5--6--7--|-----------7-----/5--L--------5--6--7--|
--0-----0------------------7-----------|--0-----0------------------7-----------|
---------------------------------------|---------------------------------------|


  |--3--|  |---3--|   |--3--|  |--3--|   
  E  E  E  E  E   E   E  E  E  E  E  E   
----------------------------------------|
-----------2----------------------------|
-----------2------4h--L-----------------|
-----------2-----/6---L--------0--1--2--|
----------------------------2-----------|
--0-----0-------------------0-----------|


  |--3--|  |--3--|   |--3--|  |--3--|     |--3--|  |--3--|            
  E  E  E  E  E  E   E  E  E  E  E  E     E  E  E  E  E  E  H         
---------------------------------------|-----------------------------|
-----------2------------------------7--|--9--7-----------------------|
-----------2-----4h--L--------------7--|--------8--6-----------------|
-----------2-----6---L--------------9--|--------------9--8--7--------|
---------------------------2-----------|-----------------------------|
--0-----0------------------0-----------|-----------------------------|


       |--3--|       |--3--|           |--3--|  |--3--|  |--3--|   
  Q    E  E  E  Q    E  E  E      Q    E  E  E  E  E  E  E  E  E   
-------3--L--0-----------------|----------------------------------|
-------------------------------|----------------------------------|
----------------2----0-----0h--|--1-------------------------------|
-------------------------------|-------2--2--2--0-----0-----------|
-------------------------------|-------------------2-----0--------|
-------------------------------|----------------------------3--0--|


       |--3--|              |--3--|  |---3--|   |--3--|  |--3--|   
  Q    E  E  E  H           E  E  E  E  E   E   E  E  E  E  E  E   
-------------------------|----------------------------------------|
-------------------------|-----------2----------------------------|
----------------2--------|-----------2------4h--L-----------------|
--2-------------1--------|-----------2-----/6---L--------0--1--2--|
-------0--1--2--2--------|----------------------------2-----------|
-------------------------|--0-----0-------------------0-----------|


  |--3--|  |---3--|   |--3--|  |--3--|   
  E  E  E  E  E   E   E  E  E  E  E  E   
----------------------------------------|
-----------2----------------------------|
-----------2------4h--L-----------------|
-----------2-----/6---L--------0--1--2--|
----------------------------2-----------|
--0-----0-------------------0-----------|


  |--3--|  |---3--|   |--3--|  |--3--|   
  E  E  E  E  E   E   E  E  E  E  E  E   
----------------------------------------|
-----------2----------------------------|
-----------2------4h--L-----------------|
-----------2-----/6---L--------0--1--2--|
----------------------------2-----------|
--0-----0-------------------0-----------|


  |--3--|  |---3--|   |--3--|  |--3--|   
  E  E  E  E  E   E   E  E  E  E  E  E   
----------------------------------------|
-----------2----------------------------|
-----------2------4h--L-----------------|
-----------2-----/6---L--------0--1--2--|
----------------------------2-----------|
--0-----0-------------------0-----------|


  |--3--|  |---3--|   |--3--|  |--3--|   
  E  E  E  E  E   E   E  E  E  E  E  E   
----------------------------------------|
-----------2----------------------------|
-----------2------4h--L-----------------|
-----------2-----/6---L--------0--1--2--|
----------------------------2-----------|
--0-----0-------------------0-----------|


  |--3--|  |---3--|   |--3--|  |--3--|   
  E  E  E  E  E   E   E  E  E  E  E  E   
----------------------------------------|
-----------2----------------------------|
-----------2------4h--L-----------------|
-----------2-----/6---L--------0--1--2--|
----------------------------2-----------|
--0-----0-------------------0-----------|


  |--3--|  |---3--|   |--3--|  |--3--|   
  E  E  E  E  E   E   E  E  E  E  E  E   
----------------------------------------|
-----------2----------------------------|
-----------2------4h--L-----------------|
-----------2-----/6---L--------0--1--2--|
----------------------------2-----------|
--0-----0-------------------0-----------|


  |--3--|  |---3--|   |--3--|  |--3--|   
  E  E  E  E  E   E   E  E  E  E  E  E   
----------------------------------------|
-----------2----------------------------|
-----------2------4h--L-----------------|
-----------2-----/6---L--------0--1--2--|
----------------------------2-----------|
--0-----0-------------------0-----------|


  |--3--|  |---3--|   |--3--|  |--3--|   
  E  E  E  E  E   E   E  E  E  E  E  E   
----------------------------------------|
-----------2----------------------------|
-----------2------4h--L-----------------|
-----------2-----/6---L--------0--1--2--|
----------------------------2-----------|
--0-----0-------------------0-----------|


  |--3--|  |---3--|   |--3--|  |--3--|   
  E  E  E  E  E   E   E  E  E  E  E  E   
----------------------------------------|
-----------2----------------------------|
-----------2------4h--L-----------------|
-----------2-----/6---L--------0--1--2--|
----------------------------2-----------|
--0-----0-------------------0-----------|


  |--3--|  |---3--|   |--3--|  |--3--|   
  E  E  E  E  E   E   E  E  E  E  E  E   
----------------------------------------|
-----------2----------------------------|
-----------2------4h--L-----------------|
-----------2-----/6---L--------0--1--2--|
----------------------------2-----------|
--0-----0-------------------0-----------|


  |--3--|  |---3--|   |--3--|  |--3--|   
  E  E  E  E  E   E   E  E  E  E  E  E   
----------------------------------------|
-----------2----------------------------|
-----------2------4h--L-----------------|
-----------2-----/6---L--------0--1--2--|
----------------------------2-----------|
--0-----0-------------------0-----------|


  |--3--|  |---3--|   |--3--|  |--3--|                         
  E  E  E  E  E   E   E  E  E  E  E  E     H        H          
----------------------------------------|--------------------||
-----------2----------------------------|--------------------||
-----------2------4h--L-----------------|--------------------||
-----------2-----/6---L--------0--1--2--|--------------------||
----------------------------2-----------|--------------------||
--0-----0-------------------0-----------|--0-----------------||




Duration Legend
---------------
W - whole
H - half
Q - quarter
E - 8th
S - 16th
T - 32nd
X - 64th
. - note dotted
|-n-|  - n-tuplets


Tablature Legend
----------------
L - tied note
x - dead note
g - grace note
(n) - ghost note
> - accentuded note
NH - natural harmonic
AH - artificial harmonic
TH - tapped harmonic
SH - semi harmonic
PH - pitch harmonic
h - hammer on
p - pull off
b - bend
br - bendRelease
pb - preBend
pbr - preBendRelease
brb - bendReleaseBend
\n/ - tremolo bar dip
\n - tremolo bar dive
-/n - tremolo bar Release up
/n\ - tremolo bar inverted dip
/n - tremolo bar return
-\n - tremolo bar Release down
S - shift slide
s - legato slide
/ -  slide into from below or out of upwards
\ -  slide into from above or out of downwards
~ - vibrato
W - wide vibrato
tr - trill
TP - tremolo picking
T - tapping
S - slap
P - pop
< - fade in
^ - brush up
v - brush down
comments
print report bad tab
1 comment total.
0 reply
The Blue Sun wrote on August 24 2009, 05:06 am

Great Work Salmon !

I want to post or [tab]
guest
You may want to rate the tab now too:
select rating
Please do not post tabs as comments. Select "correction" instead!