Oops, an error
Loading. Please wait.

Waiting For The Sun Bass Tab

ver2
ver2

Whole song

Interactive

More versions @911Tabs.com
3,736 views 24 this week
no commentswrite comment
1 2 3 4 5
excellent!
x 1
Autoscroll
+/-
esc
set tempo
stop
Contributor
WARNING: You are trying to view
                                    content from Ultimate-Guitar.com
                                    in an unauthorized application,
                                    which is prohibited.

                                    Please use an official Ultimate
                                    Guitar Tabs application for iPhone,
                                    iPad or Android to access legitimate
                                    chords, guitar, bass, and drum tabs
                                    from Ultimate-Guitar.com database.

                                    Type "ultimate guitar tabs" in Apple
                                    App Store's or Android Market's
                                    search to find the application.
Waiting for the Sun - The Doors

Tabbed By: born21239
e-mail: bass21239@gmail.com

There are two basslines on this song, both likely played by session musician
Ray Neapolitan. The top half of the notation is a clean electric bass, and
the bottom half is an extremely fuzzed out bass providing accents in sections.
The song is in 4/4, but there are a few measures in 2/4, denoted by (2/4)
underneath them.

Tuning: EADG

0:01
   (Clean Bass)
G|------5----5---|------4----4---|------3----3---|---------------|
D|----7----7---7-|----5----5---5-|----5----5---5-|-----------5h7-|
A|-5-------------|-5-------------|-5-------------|-5---5-5-------|
E|---------------|---------------|---------------|---------------|


0:12
   (CB)
G|-------5-----|-------4-----|-------3-----|---------------|
D|-----7----7--|-----5----5--|-----5----5--|-----3--3--3---|
A|-5-----------|-5-----------|-5-----------|-5-5-----5-----|
E|-------------|-------------|-------------|---------------|
 |
 | (Fuzz Bass)
G|-------------|-------------|-------------|---------------|
D|-------------|-------------|-------------|-----3--3--3---|
A|-------------|-------------|-------------|-5-5-----5-----|
E|-------------|-------------|-------------|---------------|


0:23
   (CB)
G|------5----5---|------4----4---|------3----3---|----------------|
D|----7----7---7-|----5----5---5-|----5----5---5-|-----3--3--3--3-|
A|-5-------------|-5-------------|-5-------------|-5-5-----5------|
E|---------------|---------------|---------------|----------------|
 |
 | (FB)
G|---------------|---------------|---------------|----------------|
D|---------------|---------------|---------------|-----3--3--3--3-|
A|---------------|---------------|---------------|-5-5-----5------|
E|---------------|---------------|---------------|----------------|


0:33
   (CB)
G|----------------|--------------|------------------|----------|
D|-----3--3--3--3-|-1--3--5--5\--|-1--3--0h5-5--0h5-|----------|
A|-5-5-----5------|--------------|------------------|-0h6--8-8-|
E|----------------|--------------|------------------|----------|
 |                                                     (2/4)
 | (FB)
G|----------------|--------------|------------------|----------|
D|-----3--3--3--3-|--------------|------------------|----------|
A|-5-5-----5------|--------------|------------------|----------|
E|----------------|--------------|------------------|----------|


0:43
   (CB)
G|-------------|-------------|------5----5---|------4----4---|
D|-------------|-------------|----7----7---7-|----5----5---5-|
A|-5---5-5---5-|-5---5-5---0-|-5-------------|-5-------------|
E|-------------|-------------|---------------|---------------|


0:54
   (CB)
G|------3----3---|---------------|------5----5---|------4----4---|
D|----5----5---5-|-----3--3--3---|----7----7---7-|----5----5---5-|
A|-5-------------|-5-5-----5-----|-5-------------|-5-------------|
E|---------------|---------------|---------------|---------------|
 |
 | (FB)
G|---------------|---------------|---------------|----------------|
D|---------------|-----3--3--3---|---------------|----------------|
A|---------------|-5-5-----5-----|---------------|----------------|
E|---------------|---------------|---------------|----------------|


1:05
   (CB)
G|------3----3---|-----------------|-----------------|---------------|
D|----5----5---5-|-----3--3--3---3-|-----3--3--3---3-|-1--3--5-5--5\-|
A|-5-------------|-5-5-----5----5--|-5-5-----5----5--|---------------|
E|---------------|-----------------|-----------------|---------------|
 |
 | (FB)
G|---------------|----------------|----------------|---------------|
D|---------------|-----3--3--3--3-|-----3--3--3--3-|---------------|
A|---------------|-5-5-----5------|-5-5-----5------|---------------|
E|---------------|----------------|----------------|---------------|


1:16
   (CB)
G|-----------------|-------|-------------|-------------|
D|-1--3--5-5--(5)\-|-1--3--|-------------|-------------|
A|-----------------|-------|-5---5-5---5-|-6---6-8---8-|
E|-----------------|-------|-------------|-------------|
                     (2/4)

1:25
   (CB)
G|-------------|------------------|------------------|------------------|
D|-5---5-5---5-|-5--5--0h5-5--0h5-|-8--8--0h8-8--0h8-|------------------|
A|-------------|------------------|------------------|-8--8--0h8-8--0h8-|
E|-------------|------------------|------------------|------------------|
 |
 | (FB)
G|----|-----10/12-----10/12-----|-----13/15-----13/15-----|----8/10----8/10----|
D|----|-------------------------|-------------------------|--------------------|
A|----|-10---------10--------10-|-13---------13--------13-|-8--------8-------8-|
E|----|-------------------------|-------------------------|--------------------|


1:36
   (CB)
G|--------------------|--------------------|--------------------|--------------------|
D|-5--5--0h5-0h5--0h3-|-5--5--0h5-0h5--0h5-|-8--8--0h8-0h8--0h8-|--------------------|
A|--------------------|--------------------|--------------------|-8--8--0h8-0h8--0h8-|
E|--------------------|--------------------|--------------------|--------------------|
 |
 | (FB)
G|-----10/12-----10/12-----|-----10/12-----10/12-----|-----13/15-----13/15-13/15----|
D|-------------------------|-------------------------|------------------------------|
A|-10---------10--------10-|-10---------10--------10-|-13---------13-------------13-|
E|-------------------------|-------------------------|------------------------------|

----8/10----8/10----|
--------------------|
-8--------8-------8-|
--------------------|


1:47
   (CB)
G|--------------------|-------------------|-------------|--------------------|
D|-5--5--0h5-0h5--0h3-|-5--5--0h5-0h5--7\-|-3--3----3-4-|-5---0h5-0h5--0h5-3-|
A|--------------------|-------------------|-------------|--------------------|
E|--------------------|-------------------|-------------|--------------------|
 |
 | (FB)
G|-----10/12------10/12--|-----10/12------10/12--|-10-----8/10----8/10-|-----10/12------10/12--|
D|-----------------------|-----------------------|---------------------|-----------------------|
A|-10---------10---------|-10---------10---------|-----8--------8------|-10---------10---------|
E|-----------------------|-----------------------|---------------------|-----------------------|


1:58
   (CB)
G|----------------|--------------|-------------|----------------------|
D|-5---5-5--0h5-3-|-5---5-5---7\-|-3--3----3-4-|-5---0h5-0h5--0h5-0h3-|
A|----------------|--------------|-------------|----------------------|
E|----------------|--------------|-------------|----------------------|
 |
 | (FB)
G|-----10/12------10/12--|-----10/12------10/12--|-10-----8/10----8/10-|-----10/12------10/12--|
D|-----------------------|-----------------------|---------------------|-----------------------|
A|-10---------10---------|-10---------10---------|-----8--------8------|-10---------10---------|
E|-----------------------|-----------------------|---------------------|-----------------------|


2:09
   (CB)
G|----------------|--------------|-------------|------------------|
D|-5---5-5--0h5-3-|-5---5-5--5\--|-3--3----3-4-|-5---5-5--0h5-0h3-|
A|----------------|--------------|-------------|------------------|
E|----------------|--------------|-------------|------------------|
 |
 | (FB)
G|-----10/12------10/12--|-----10/12-----10/12----10/12-|-10-----8/10----8/10-|
D|-----------------------|------------------------------|---------------------|
A|-10---------10---------|-10---------10-------10-------|-----8--------8------|
E|-----------------------|------------------------------|---------------------|

-----10/12------10/12--|
-----------------------|
-10---------10---------|
-----------------------|


2:20
   (CB)
G|------------------|--------------|----------------|-------------|
D|-5---5-5--0h5-0h3-|-5---5-5--5-4-|-3---3-3--0h3-4-|-5---5-5---5-|
A|------------------|--------------|----------------|-------------|
E|------------------|--------------|----------------|-------------|
 |
 | (FB)
G|----10/12----10/12----10/12----10/12-|----10/12----10/12----10/12----10/12-|-----|
D|-------------------------------------|-------------------------------------|-----|
A|-10-------10-------10-------10-------|-10-------10-------10-------10-------|-8---|
E|-------------------------------------|-------------------------------------|-----|

8/10---8/10---8/10---8/10-|----10/12----10/12----10/12----10/12-|
-------------------------|--------------------------------------|
----8------8------8------|-10-------10-------10-------10--------|
-------------------------|--------------------------------------|


2:31
   (CB)
G|-------------|-------------|--------------|-------------|
D|-5---5-5---5-|-5---5-5--5--|--------------|-------------|
A|-------------|-------------|-8---8-8--8\--|-6---6-6--6--|
E|-------------|-------------|--------------|-------------|
 |
 | (FB)
G|----10/12----10/12----10/12----10/12-|-------------|--------------|-------------|
D|-------------------------------------|-------------|--------------|-------------|
A|-10-------10-------10-------10-------|-------------|--------------|-------------|
E|-------------------------------------|-------------|--------------|-------------|


2:42
   (CB)
G|-------------|-------------|----------------|------------------|
D|-------------|-5---5-5--5--|-5---5-5--(5)\--|-----3--3---3---3-|
A|-5---5-5--5--|-------------|----------------|-5-5------5----5--|
E|-------------|-------------|----------------|------------------|
 |
 | (FB)
G|---------------|---------------|----------------|----------------|
D|---------------|---------------|----------------|-----3--3--3--3-|
A|---------------|---------------|------------17\-|-5-5-----5------|
E|---------------|---------------|----------------|----------------|


2:53
   (CB)
G|------------------|------------------|------------------|------------------|
D|-----3--3---3---3-|-----3--3---3---3-|-----3--3---3---3-|-----3--3---3---3-|
A|-5-5------5----5--|-5-5------5----5--|-5-5------5----5--|-5-5------5----5--|
E|------------------|------------------|------------------|------------------|
 |
 | (FB)
G|----------------|----------------|------------------|----------------|
D|-----3--3--3--3-|-----3--3--3--3-|-----3--3--3--15\-|-----3--3--3--3-|
A|-5-5-----5------|-5-5-----5------|-5-5-----5--------|-5-5-----5------|
E|----------------|----------------|------------------|----------------|


3:04
   (CB)
G|------------------|------------------|-----------------|------5----5---|
D|-----3--3---3---3-|-----3--3---3---3-|-----3--3---3--3-|----7----7---7-|
A|-5-5------5----5--|-5-5------5----5--|-5-5------5------|-5-------------|
E|------------------|------------------|-----------------|---------------|
 |
 | (FB)
G|------------------|----------------|----------------|----------------|
D|-----3--3--3--15\-|-----3--3--3--3-|-----3--3--3--3-|----------------|
A|-5-5-----5--------|-5-5-----5------|-5-5-----5------|----------------|
E|------------------|----------------|----------------|----------------|


3:15
   (CB)
G|------4----4---|------3----3---|---------------|------5----5---|
D|----5----5---5-|----5----5---5-|----------5h7--|----7----7---7-|
A|-5-------------|-5-------------|-5---5-5-------|-5-------------|
E|---------------|---------------|---------------|---------------|


3:26
   (CB)
G|------4----4---|------3----3---|-----------------|-----------------|
D|----5----5---5-|----5----5---5-|-----3--3--3---3-|-----3--3--3---3-|
A|-5-------------|-5-------------|-5-5-----5----5--|-5-5-----5----5--|
E|---------------|---------------|-----------------|-----------------|


3:36
   (CB)
G|---------------|--------------|-------|-------------|
D|-1--3--5-5--5\-|-1--3--5---5\-|-1--3--|-0---0-0---0-|
A|---------------|--------------|-------|-------------|
E|---------------|--------------|-------|-------------|
                                  (2/4)

3:46
   (CB)
G|---------------|---------------|-------------|-------------------|
D|-1---1-1-1-1-1-|-3---3-3-3-3-4-|-5---5-5---5-|-3-3--3--3---3---3-|
A|---------------|---------------|-------------|--5-5------5----5--|
E|---------------|---------------|-------------|-------------------|


3:57
   (CB)
G|--------------|
D|-----3--3---3-|
A|-5-5------5---|
E|--------------|
comments
We did not receive enough feedback on this tab! Please rate:
print report bad tab
1 2 3 4 5
I want to post or [tab]
guest
You may want to rate the tab now too:
select rating
Please do not post tabs as comments. Select "correction" instead!