Oops, an error
Loading. Please wait.

Now Or Never Tab

by Dope
ver4
ver4

Whole song

More versions @911Tabs.com
1,430 views 3 this week
no commentswrite comment
1 2 3 4 5
please rate
Autoscroll
+/-
esc
set tempo
stop
Contributor
Difficulty
Tuning
intermediate
C# G# C# F# A# D#
WARNING: You are trying to view
                                    content from Ultimate-Guitar.com
                                    in an unauthorized application,
                                    which is prohibited.

                                    Please use an official Ultimate
                                    Guitar Tabs application for iPhone,
                                    iPad or Android to access legitimate
                                    chords, guitar, bass, and drum tabs
                                    from Ultimate-Guitar.com database.

                                    Type "ultimate guitar tabs" in Apple
                                    App Store's or Android Market's
                                    search to find the application.
Hithis is Dr.Sketchy this is my Third tab. This isn't the real tab it's my atenpemd at 
i have the real tab by virus which was given my a friend. Please don't copy and this 
is my own work thanks. I have this tab on ttabs and Ultimate Guitar.

Song-Now or Never
Artist-Dope
Album-Life
Tuning-(C#,G#,C#,F#,A#,D#)
Guitar 1-Virus (Lead)
Guitar 2-Acey Slade (Rhythm)

Legend
h=Hammer on
/=Slide up the neck (Towards the Base of the Guitar)
\=Slide down the neck (Towards the Head of the Guitar)
#=Harmonic
~=let ring

Intro-Guitar 1 Use Distortion
D#|------------------------------------------------|
A#|------------------------------------------------|
F#|------------------------------------------------|
C#|--4h6--4h6--4h6--4h6-----------------------\12--|
G#|-----------------------4h6--4h6--4h6--4h6--\12--|
C#|-----------------------4h6--4h6--4h6--4h6--\12--|

D#|-----------------------------------------------------|
A#|-----------------------------------------------------|
F#|-----------------------------------------------------|
C#|--4-6--4-6--4-6--4-6--9-7---4-6--4-6--4-6--4-6--9-7--|
G#|--4-6--4-6--4-6--4-6--9-7---4-6--4-6--4-6--4-6--9-7--|
C#|--4-6--4-6--4-6--4-6--9-7---4-6--4-6--4-6--4-6--9-7--|

D#|-----------------------------------------------------|
A#|-----------------------------------------------------|
F#|-----------------------------------------------------|
C#|--4-6--4-6--4-6--4-6--9-7---4-6--4-6--4-6--4-6--9-7--|
G#|--4-6--4-6--4-6--4-6--9-7---4-6--4-6--4-6--4-6--9-7--|
C#|--4-6--4-6--4-6--4-6--9-7---4-6--4-6--4-6--4-6--9-7--|

Intro-Guitar 2 Use Distortion
D#|--------------------------------------------------|
A#|--------------------------------------------------|
F#|--------------------------------------------------|
C#|--------------------------------------------------|
G#|-----------------------4h6--4h6--4h6--4h6--5#-----|
C#|-----------------------4h6--4h6--4h6--4h6-----7#--|

D#|-----------------------------------------------------|
A#|-----------------------------------------------------|
F#|-----------------------------------------------------|
C#|--4-6--4-6--4-6--4-6--9-7---4-6--4-6--4-6--4-6--9-7--|
G#|--4-6--4-6--4-6--4-6--9-7---4-6--4-6--4-6--4-6--9-7--|
C#|--4-6--4-6--4-6--4-6--9-7---4-6--4-6--4-6--4-6--9-7--|

D#|-----------------------------------------------------|
A#|-----------------------------------------------------|
F#|-----------------------------------------------------|
C#|--4-6--4-6--4-6--4-6--9-7---4-6--4-6--4-6--4-6--9-7--|
G#|--4-6--4-6--4-6--4-6--9-7---4-6--4-6--4-6--4-6--9-7--|
C#|--4-6--4-6--4-6--4-6--9-7---4-6--4-6--4-6--4-6--9-7--|

Verse-Guitar 1 Use a Flanger pedal
D#|--------------------------------------|
A#|--------------------------------------|
F#|--------------------------------------|
C#|--7\--------------5-7777777755555555--|
G#|--7\--------5h7-7---------------------|
C#|--7\----------------------------------|
PM|                     ............

D#|--------------------------------------|
A#|--------------------------------------|
F#|--------------------------------------|
C#|--7\--------------333333330000--------|
G#|--7\--------0h2h3-------------0h2h3h2-|
C#|--7\----------------------------------|
PM|                   ............

D#|--------------------------------------|
A#|--------------------------------------|
F#|--------------------------------------|
C#|--7\-xx-xx--------5-7777777755555555--|
G#|--7\-xx-xx--5h7-7---------------------|
C#|--7\-xx-xx----------------------------|
PM|                     ............

D#|--------------------------------------|
A#|--------------------------------------|
F#|--------------------------------------|
C#|--7\-xx-xx--------5-77775555----------|
F#|--7\-xx-xx--5/7-7-----------77775555--|
C#|--7\-xx-xx----------------------------|
PM|                    ................

Verse-Guitar 2 Use a Flanger pedal
D#|--------------------------------------|
A#|--------------------------------------|
F#|--------------------------------------|
C#|--7\--------------5-7777777755555555--|
G#|--7\--------5h7-7---------------------|
C#|--7\----------------------------------|
PM|                     ............

D#|--------------------------------------|
A#|--------------------------------------|
F#|--------------------------------------|
C#|--7\--------------333333330000--------|
G#|--7\--------0h2h3-------------0h2h3h2-|
C#|--7\----------------------------------|
PM|                   ............

D#|--------------------------------------|
A#|--------------------------------------|
F#|--------------------------------------|
C#|--7\-xx-xx--------5-7777777755555555--|
G#|--7\-xx-xx--5h7-7---------------------|
C#|--7\-xx-xx----------------------------|
PM|                     ............

D#|--------------------------------------|
A#|--------------------------------------|
F#|--------------------------------------|
C#|--7\-xx-xx--------5-77775555----------|
F#|--7\-xx-xx--5/7-7-----------77775555--|
C#|--7\-xx-xx----------------------------|
PM|                    ................

Pre-Chorus-Guitar 1 Use Distortion
D#|------------------------------------------------------------|
A#|------------------------------------------------------------|
F#|------------------------------------------------------------|
C#|--6-6--6-6--6-6--6-6--6-6-6-6--9-9--9-9--9-9--9-9--9-9-9-9--|
G#|--6-6--6-6--6-6--6-6--6-6-6-6--9-9--9-9--9-9--9-9--9-9-9-9--|
C#|--6-6--6-6--6-6--6-6--6-6-6-6--9-9--9-9--9-9--9-9--9-9-9-9--|

D#|------------------------------------------------------------|
A#|------------------------------------------------------------|
F#|------------------------------------------------------------|
C#|--4-4--4-4--4-4--4-4--4-4-4-4--1-1--1-1--4-4--4-4--4-4-4-4--|
G#|--4-4--4-4--4-4--4-4--4-4-4-4--1-1--1-1--4-4--4-4--4-4-4-4--|
C#|--4-4--4-4--4-4--4-4--4-4-4-4--1-1--1-1--4-4--4-4--4-4-4-4--|

D#|------------------------------------------------------------|
A#|------------------------------------------------------------|
F#|------------------------------------------------------------|
C#|--6-6--6-6--6-6--6-6--6-6-6-6--9-9--9-9--9-9--9-9--9-9-9-9--|
G#|--6-6--6-6--6-6--6-6--6-6-6-6--9-9--9-9--9-9--9-9--9-9-9-9--|
C#|--6-6--6-6--6-6--6-6--6-6-6-6--9-9--9-9--9-9--9-9--9-9-9-9--|

D#|---------------------------------------------------|
A#|---------------------------------------------------|
F#|---------------------------------------------------|
C#|--4-4--4-4--4-4--4-4--4-4-4-4--1-1--1-1--4-4--4-4--|
G#|--4-4--4-4--4-4--4-4--4-4-4-4--1-1--1-1--4-4--4-4--|
C#|--4-4--4-4--4-4--4-4--4-4-4-4--1-1--1-1--4-4--4-4--|

Pre-Chorus-Gutiar 2 Use Distortion
D#|------------------------------------------------------------|
A#|------------------------------------------------------------|
F#|--8-8--8-8--8-8--8-8--8-8-8-8--8-8--8-8--8-8--8-8--8-8-8-8--|
C#|--x-x--x-x--x-x--x-x--x-x-x-x--x-x--x-x--x-x--x-x--x-x-x-x--|
G#|--6-6--6-6--6-6--6-6--6-6-6-6--9-9--9-9--9-9--9-9--9-9-9-9--|
C#|------------------------------------------------------------|

D#|------------------------------------------------------------|
A#|------------------------------------------------------------|
F#|--8-8--8-8--8-8--8-8--8-8-8-8--8-8--8-8--8-8--8-8--8-8-8-8--|
C#|--x-x--x-x--x-x--x-x--x-x-x-x--x-x--x-x--x-x--x-x--x-x-x-x--|
G#|--4-4--4-4--4-4--4-4--4-4-4-4--1-1--1-1--4-4--4-4--4-4-4-4--|
C#|------------------------------------------------------------|

D#|------------------------------------------------------------------------|
A#|------------------------------------------------------------------------|
F#|--8-8--8-8--8-8--8-8--8-8-8-8--11-11--11-11--11-11--11-11--11-11-11-11--|
C#|--x-x--x-x--x-x--x-x--x-x-x-x--x--x---x--x---x--x---x--x---x--x--x--x---|
G#|--6-6--6-6--6-6--6-6--6-6-6-6--9--9---9--9---9--9---9--9---9--9--9--9---|
C#|------------------------------------------------------------------------|

D#|---------------------------------------------------|
A#|---------------------------------------------------|
F#|--6-6--6-6--6-6--6-6--6-6-6-6--3-3--3-3--6-6--6-6--|
C#|--x-x--x-x--x-x--x-x--x-x-x-x--x-x--x-x--x-x--x-x--|
G#|--4-4--4-4--4-4--4-4--4-4-4-4--1-1--1-1--4-4--4-4--|
C#|---------------------------------------------------|

Both Guitars
D#|------------------------|
A#|------------------------|
F#|------------------------|
C#|--4h6-4h6-4h6-4h6--12/--|
G#|-------------------12/--|
C#|-------------------12/--|

Chorus-Guitar 1 Use distortion
D#|----------------------------------------------------|
A#|----------------------------------------------------|
F#|----------------------------------------------------|
C#|--4-6--4-6--4-6--4-6--4-6--2-4--2-4--2-4--2-4--2-4--|
G#|--4-6--4-6--4-6--4-6--4-6--2-4--2-4--2-4--2-4--2-4--|
C#|--4-6--4-6--4-6--4-6--4-6--2-4--2-4--2-4--2-4--2-4--|

D#|------------------------------------------------|
A#|------------------------------------------------|
F#|------------------------------------------------|
C#|-0-2--0-2--0-2--0-2--0-2--4~---------5~---------|
G#|-0-2--0-2--0-2--0-2--0-2--4~---------5~---------|
C#|-0-2--0-2--0-2--0-2--0-2--4~---------5~---------|

D#|----------------------------------------------------|
A#|----------------------------------------------------|
F#|----------------------------------------------------|
C#|--4-6--4-6--4-6--4-6--4-6--2-4--2-4--2-4--2-4--2-4--|
G#|--4-6--4-6--4-6--4-6--4-6--2-4--2-4--2-4--2-4--2-4--|
C#|--4-6--4-6--4-6--4-6--4-6--2-4--2-4--2-4--2-4--2-4--|

D#|------------------------------------------------|
A#|------------------------------------------------|
F#|------------------------------------------------|
C#|-0-2--0-2--0-2--0-2--0-2--4~---------5~---------|
G#|-0-2--0-2--0-2--0-2--0-2--4~---------5~---------|
C#|-0-2--0-2--0-2--0-2--0-2--4~---------5~---------|

Chorus-Guitar 2 Use distortion
D#|----------------------------------------------------|
A#|----------------------------------------------------|
F#|----------------------------------------------------|
C#|--4-6--4-6--4-6--4-6--4-6--2-4--2-4--2-4--2-4--2-4--|
G#|--4-6--4-6--4-6--4-6--4-6--2-4--2-4--2-4--2-4--2-4--|
C#|--4-6--4-6--4-6--4-6--4-6--2-4--2-4--2-4--2-4--2-4--|

D#|------------------------------------------------|
A#|------------------------------------------------|
F#|--------------------------6-6-6-6-6--7-7-7-7-7--|
C#|-0-2--0-2--0-2--0-2--0-2--x-x-x-x-x--x-x-x-x-x--|
G#|-0-2--0-2--0-2--0-2--0-2--4-4-4-4-4--5-5-5-5-5--|
C#|-0-2--0-2--0-2--0-2--0-2------------------------|

D#|----------------------------------------------------|
A#|----------------------------------------------------|
F#|----------------------------------------------------|
C#|--4-6--4-6--4-6--4-6--4-6--2-4--2-4--2-4--2-4--2-4--|
G#|--4-6--4-6--4-6--4-6--4-6--2-4--2-4--2-4--2-4--2-4--|
C#|--4-6--4-6--4-6--4-6--4-6--2-4--2-4--2-4--2-4--2-4--|

D#|------------------------------------------------|
A#|------------------------------------------------|
F#|--------------------------6-6-6-6-6--7-7-7-7-7--|
C#|-0-2--0-2--0-2--0-2--0-2--x-x-x-x-x--x-x-x-x-x--|
G#|-0-2--0-2--0-2--0-2--0-2--4-4-4-4-4--5-5-5-5-5--|
C#|-0-2--0-2--0-2--0-2--0-2------------------------|

Verse-Guitar 1 Use a Flanger pedal
D#|--------------------------------------|
A#|--------------------------------------|
F#|--------------------------------------|
C#|--7\--------------5-7777777755555555--|
G#|--7\--------5h7-7---------------------|
C#|--7\----------------------------------|
PM|                     ............

D#|--------------------------------------|
A#|--------------------------------------|
F#|--------------------------------------|
C#|--7\--------------333333330000--------|
G#|--7\--------0h2h3-------------0h2h3h2-|
C#|--7\----------------------------------|
PM|                   ............

D#|--------------------------------------|
A#|--------------------------------------|
F#|--------------------------------------|
C#|--7\-xx-xx--------5-7777777755555555--|
G#|--7\-xx-xx--5h7-7---------------------|
C#|--7\-xx-xx----------------------------|
PM|                     ............

D#|--------------------------------------|
A#|--------------------------------------|
F#|--------------------------------------|
C#|--7\-xx-xx--------5-77775555----------|
F#|--7\-xx-xx--5/7-7-----------77775555--|
C#|--7\-xx-xx----------------------------|
PM|                    ................

Verse-Guitar 2 Use a Flanger pedal
D#|--------------------------------------|
A#|--------------------------------------|
F#|--------------------------------------|
C#|--7\--------------5-7777777755555555--|
G#|--7\--------5h7-7---------------------|
C#|--7\----------------------------------|
PM|                     ............

D#|--------------------------------------|
A#|--------------------------------------|
F#|--------------------------------------|
C#|--7\--------------333333330000--------|
G#|--7\--------0h2h3-------------0h2h3h2-|
C#|--7\----------------------------------|
PM|                   ............

D#|--------------------------------------|
A#|--------------------------------------|
F#|--------------------------------------|
C#|--7\-xx-xx--------5-7777777755555555--|
G#|--7\-xx-xx--5h7-7---------------------|
C#|--7\-xx-xx----------------------------|
PM|                     ............

D#|--------------------------------------|
A#|--------------------------------------|
F#|--------------------------------------|
C#|--7\-xx-xx--------5-77775555----------|
F#|--7\-xx-xx--5/7-7-----------77775555--|
C#|--7\-xx-xx----------------------------|
PM|                    ................

Pre-Chorus-Guitar 1 Use Distortion
D#|------------------------------------------------------------|
A#|------------------------------------------------------------|
F#|------------------------------------------------------------|
C#|--6-6--6-6--6-6--6-6--6-6-6-6--9-9--9-9--9-9--9-9--9-9-9-9--|
G#|--6-6--6-6--6-6--6-6--6-6-6-6--9-9--9-9--9-9--9-9--9-9-9-9--|
C#|--6-6--6-6--6-6--6-6--6-6-6-6--9-9--9-9--9-9--9-9--9-9-9-9--|

D#|------------------------------------------------------------|
A#|------------------------------------------------------------|
F#|------------------------------------------------------------|
C#|--4-4--4-4--4-4--4-4--4-4-4-4--1-1--1-1--4-4--4-4--4-4-4-4--|
G#|--4-4--4-4--4-4--4-4--4-4-4-4--1-1--1-1--4-4--4-4--4-4-4-4--|
C#|--4-4--4-4--4-4--4-4--4-4-4-4--1-1--1-1--4-4--4-4--4-4-4-4--|

D#|------------------------------------------------------------|
A#|------------------------------------------------------------|
F#|------------------------------------------------------------|
C#|--6-6--6-6--6-6--6-6--6-6-6-6--9-9--9-9--9-9--9-9--9-9-9-9--|
G#|--6-6--6-6--6-6--6-6--6-6-6-6--9-9--9-9--9-9--9-9--9-9-9-9--|
C#|--6-6--6-6--6-6--6-6--6-6-6-6--9-9--9-9--9-9--9-9--9-9-9-9--|

D#|---------------------------------------------------|
A#|---------------------------------------------------|
F#|---------------------------------------------------|
C#|--4-4--4-4--4-4--4-4--4-4-4-4--1-1--1-1--4-4--4-4--|
G#|--4-4--4-4--4-4--4-4--4-4-4-4--1-1--1-1--4-4--4-4--|
C#|--4-4--4-4--4-4--4-4--4-4-4-4--1-1--1-1--4-4--4-4--|

Pre-Chorus-Gutiar 2 Use Distortion
D#|------------------------------------------------------------|
A#|------------------------------------------------------------|
F#|--8-8--8-8--8-8--8-8--8-8-8-8--8-8--8-8--8-8--8-8--8-8-8-8--|
C#|--x-x--x-x--x-x--x-x--x-x-x-x--x-x--x-x--x-x--x-x--x-x-x-x--|
G#|--6-6--6-6--6-6--6-6--6-6-6-6--9-9--9-9--9-9--9-9--9-9-9-9--|
C#|------------------------------------------------------------|

D#|------------------------------------------------------------|
A#|------------------------------------------------------------|
F#|--8-8--8-8--8-8--8-8--8-8-8-8--8-8--8-8--8-8--8-8--8-8-8-8--|
C#|--x-x--x-x--x-x--x-x--x-x-x-x--x-x--x-x--x-x--x-x--x-x-x-x--|
G#|--4-4--4-4--4-4--4-4--4-4-4-4--1-1--1-1--4-4--4-4--4-4-4-4--|
C#|------------------------------------------------------------|

D#|------------------------------------------------------------------------|
A#|------------------------------------------------------------------------|
F#|--8-8--8-8--8-8--8-8--8-8-8-8--11-11--11-11--11-11--11-11--11-11-11-11--|
C#|--x-x--x-x--x-x--x-x--x-x-x-x--x--x---x--x---x--x---x--x---x--x--x--x---|
G#|--6-6--6-6--6-6--6-6--6-6-6-6--9--9---9--9---9--9---9--9---9--9--9--9---|
C#|------------------------------------------------------------------------|

D#|---------------------------------------------------|
A#|---------------------------------------------------|
F#|--6-6--6-6--6-6--6-6--6-6-6-6--3-3--3-3--6-6--6-6--|
C#|--x-x--x-x--x-x--x-x--x-x-x-x--x-x--x-x--x-x--x-x--|
G#|--4-4--4-4--4-4--4-4--4-4-4-4--1-1--1-1--4-4--4-4--|
C#|---------------------------------------------------|

Chorus-Guitar 1 Use distortion
D#|----------------------------------------------------|
A#|----------------------------------------------------|
F#|----------------------------------------------------|
C#|--4-6--4-6--4-6--4-6--4-6--2-4--2-4--2-4--2-4--2-4--|
G#|--4-6--4-6--4-6--4-6--4-6--2-4--2-4--2-4--2-4--2-4--|
C#|--4-6--4-6--4-6--4-6--4-6--2-4--2-4--2-4--2-4--2-4--|

D#|------------------------------------------------|
A#|------------------------------------------------|
F#|------------------------------------------------|
C#|-0-2--0-2--0-2--0-2--0-2--4~---------5~---------|
G#|-0-2--0-2--0-2--0-2--0-2--4~---------5~---------|
C#|-0-2--0-2--0-2--0-2--0-2--4~---------5~---------|

D#|----------------------------------------------------|
A#|----------------------------------------------------|
F#|----------------------------------------------------|
C#|--4-6--4-6--4-6--4-6--4-6--2-4--2-4--2-4--2-4--2-4--|
G#|--4-6--4-6--4-6--4-6--4-6--2-4--2-4--2-4--2-4--2-4--|
C#|--4-6--4-6--4-6--4-6--4-6--2-4--2-4--2-4--2-4--2-4--|

D#|------------------------------------------------|
A#|------------------------------------------------|
F#|------------------------------------------------|
C#|-0-2--0-2--0-2--0-2--0-2--4~---------5~---------|
G#|-0-2--0-2--0-2--0-2--0-2--4~---------5~---------|
C#|-0-2--0-2--0-2--0-2--0-2--4~---------5~---------|

Chorus-Guitar 2 Use distortion
D#|----------------------------------------------------|
A#|----------------------------------------------------|
F#|----------------------------------------------------|
C#|--4-6--4-6--4-6--4-6--4-6--2-4--2-4--2-4--2-4--2-4--|
G#|--4-6--4-6--4-6--4-6--4-6--2-4--2-4--2-4--2-4--2-4--|
C#|--4-6--4-6--4-6--4-6--4-6--2-4--2-4--2-4--2-4--2-4--|

D#|------------------------------------------------|
A#|------------------------------------------------|
F#|--------------------------6-6-6-6-6--7-7-7-7-7--|
C#|-0-2--0-2--0-2--0-2--0-2--x-x-x-x-x--x-x-x-x-x--|
G#|-0-2--0-2--0-2--0-2--0-2--4-4-4-4-4--5-5-5-5-5--|
C#|-0-2--0-2--0-2--0-2--0-2------------------------|

D#|----------------------------------------------------|
A#|----------------------------------------------------|
F#|----------------------------------------------------|
C#|--4-6--4-6--4-6--4-6--4-6--2-4--2-4--2-4--2-4--2-4--|
G#|--4-6--4-6--4-6--4-6--4-6--2-4--2-4--2-4--2-4--2-4--|
C#|--4-6--4-6--4-6--4-6--4-6--2-4--2-4--2-4--2-4--2-4--|

D#|------------------------------------------------|
A#|------------------------------------------------|
F#|--------------------------6-6-6-6-6--7-7-7-7-7--|
C#|-0-2--0-2--0-2--0-2--0-2--x-x-x-x-x--x-x-x-x-x--|
G#|-0-2--0-2--0-2--0-2--0-2--4-4-4-4-4--5-5-5-5-5--|
C#|-0-2--0-2--0-2--0-2--0-2------------------------|

Bridge-Guitar 1 Use Distortion
D#|-----------------------------------------------------|
A#|-----------------------------------------------------|
F#|-----------------------------------------------------|
C#|--4-6--4-6--4-6--4-6--9-7---4-6--4-6--4-6--4-6--9-7--|
G#|--4-6--4-6--4-6--4-6--9-7---4-6--4-6--4-6--4-6--9-7--|
C#|--4-6--4-6--4-6--4-6--9-7---4-6--4-6--4-6--4-6--9-7--|

D#|-----------------------------------------------------|
A#|-----------------------------------------------------|
F#|-----------------------------------------------------|
C#|--4-6--4-6--4-6--4-6--9-7---4-6--4-6--4-6--4-6--9-7--|
G#|--4-6--4-6--4-6--4-6--9-7---4-6--4-6--4-6--4-6--9-7--|
C#|--4-6--4-6--4-6--4-6--9-7---4-6--4-6--4-6--4-6--9-7--|

D#|-----------------------------------------------------|
A#|-----------------------------------------------------|
F#|-----------------------------------------------------|
C#|--4-6--4-6--4-6--4-6--9-7---4-6--4-6--4-6--4-6--9-7--|
G#|--4-6--4-6--4-6--4-6--9-7---4-6--4-6--4-6--4-6--9-7--|
C#|--4-6--4-6--4-6--4-6--9-7---4-6--4-6--4-6--4-6--9-7--|

D#|-----------------------------------------------------|
A#|-----------------------------------------------------|
F#|-----------------------------------------------------|
C#|--4-6--4-6--4-6--4-6--9-7---4-6--4-6--4-6--4-6--9-7--|
G#|--4-6--4-6--4-6--4-6--9-7---4-6--4-6--4-6--4-6--9-7--|
C#|--4-6--4-6--4-6--4-6--9-7---4-6--4-6--4-6--4-6--9-7--|

Bridge-Guitar 2 Use Distortion
D#|--------------------------------------------------------|
A#|--------------------------------------------------------|
F#|--------------------------------------------------------|
C#|--4-6--4-6--4-6--4-6---------4-6--4-6--4-6--4-6---------|
G#|--4-6--4-6--4-6--4-6--5#-----4-6--4-6--4-6--4-6--5#-----|
C#|--4-6--4-6--4-6--4-6-----7#--4-6--4-6--4-6--4-6-----7#--|

D#|--------------------------------------------------------|
A#|--------------------------------------------------------|
F#|--------------------------------------------------------|
C#|--4-6--4-6--4-6--4-6---------4-6--4-6--4-6--4-6---------|
G#|--4-6--4-6--4-6--4-6--5#-----4-6--4-6--4-6--4-6--5#-----|
C#|--4-6--4-6--4-6--4-6-----7#--4-6--4-6--4-6--4-6-----7#--|

D#|--------------------------------------------------------|
A#|--------------------------------------------------------|
F#|--------------------------------------------------------|
C#|--4-6--4-6--4-6--4-6---------4-6--4-6--4-6--4-6---------|
G#|--4-6--4-6--4-6--4-6--5#-----4-6--4-6--4-6--4-6--5#-----|
C#|--4-6--4-6--4-6--4-6-----7#--4-6--4-6--4-6--4-6-----7#--|

D#|--------------------------------------------------------|
A#|--------------------------------------------------------|
F#|--------------------------------------------------------|
C#|--4-6--4-6--4-6--4-6---------4-6--4-6--4-6--4-6---------|
G#|--4-6--4-6--4-6--4-6--5#-----4-6--4-6--4-6--4-6--5#-----|
C#|--4-6--4-6--4-6--4-6-----7#--4-6--4-6--4-6--4-6-----7#--|

Interlude-Both Guitars Use Distortion
D#|------------------------------------------------------------|
A#|------------------------------------------------------------|
F#|------------------------------------------------------------|
C#|------------------------------------------------------------|
G#|------------------------------------------------------------|
C#|--6-6--6-6--6-6--6-6--6-6-6-6--9-9--9-9--9-9--9-9--9-9-9-9--|
PM|  . .  . .  . .  . .  . . . .  . .  . .  . .  . .  . . . .

D#|------------------------------------------------------------|
A#|------------------------------------------------------------|
F#|------------------------------------------------------------|
C#|------------------------------------------------------------|
G#|------------------------------------------------------------|
C#|--4-4--4-4--4-4--4-4--4-4-4-4--1-1--1-1--4-4--4-4--4-4-4-4--|
PM|  . .  . .  . .  . .  . . . .  . .  . .  . .  . .

D#|------------------------------------------------------------|
A#|------------------------------------------------------------|
F#|------------------------------------------------------------|
C#|------------------------------------------------------------|
G#|------------------------------------------------------------|
C#|--6-6--6-6--6-6--6-6--6-6-6-6--9-9--9-9--9-9--9-9--9-9-9-9--|
PM|  . .  . .  . .  . .  . . . .  . .  . .  . .  . .  . . . .

D#|------------------------------------------------------------------------|
A#|------------------------------------------------------------------------|
F#|------------------------------------------------------------------------|
C#|---------------------------------------------------4h6-4h6-4h6-4h6------|
G#|--------------------------------------------------------------------/12-|
C#|--4-4--4-4--4-4--4-4--4-4-4-4--1-1--1-1--4-4--4-4-------------------/12-|
PM|  . .  . .  . .  . .  . . . .  . .  . .  . .  . .

Chorus-Guitar 1 Use distortion
D#|----------------------------------------------------|
A#|----------------------------------------------------|
F#|----------------------------------------------------|
C#|--4-6--4-6--4-6--4-6--4-6--2-4--2-4--2-4--2-4--2-4--|
G#|--4-6--4-6--4-6--4-6--4-6--2-4--2-4--2-4--2-4--2-4--|
C#|--4-6--4-6--4-6--4-6--4-6--2-4--2-4--2-4--2-4--2-4--|

D#|------------------------------------------------|
A#|------------------------------------------------|
F#|------------------------------------------------|
C#|-0-2--0-2--0-2--0-2--0-2--4~---------5~---------|
G#|-0-2--0-2--0-2--0-2--0-2--4~---------5~---------|
C#|-0-2--0-2--0-2--0-2--0-2--4~---------5~---------|

D#|----------------------------------------------------|
A#|----------------------------------------------------|
F#|----------------------------------------------------|
C#|--4-6--4-6--4-6--4-6--4-6--2-4--2-4--2-4--2-4--2-4--|
G#|--4-6--4-6--4-6--4-6--4-6--2-4--2-4--2-4--2-4--2-4--|
C#|--4-6--4-6--4-6--4-6--4-6--2-4--2-4--2-4--2-4--2-4--|

D#|------------------------------------------------|
A#|------------------------------------------------|
F#|------------------------------------------------|
C#|-0-2--0-2--0-2--0-2--0-2--4~---------5~---------|
G#|-0-2--0-2--0-2--0-2--0-2--4~---------5~---------|
C#|-0-2--0-2--0-2--0-2--0-2--4~---------5~---------|

D#|----------------------------------------------------|
A#|----------------------------------------------------|
F#|----------------------------------------------------|
C#|--4-6--4-6--4-6--4-6--4-6--2-4--2-4--2-4--2-4--2-4--|
G#|--4-6--4-6--4-6--4-6--4-6--2-4--2-4--2-4--2-4--2-4--|
C#|--4-6--4-6--4-6--4-6--4-6--2-4--2-4--2-4--2-4--2-4--|

D#|------------------------------------------------|
A#|------------------------------------------------|
F#|------------------------------------------------|
C#|-0-2--0-2--0-2--0-2--0-2--4~---------5~---------|
G#|-0-2--0-2--0-2--0-2--0-2--4~---------5~---------|
C#|-0-2--0-2--0-2--0-2--0-2--4~---------5~---------|

D#|----------------------------------------------------|
A#|----------------------------------------------------|
F#|----------------------------------------------------|
C#|--4-6--4-6--4-6--4-6--4-6--2-4--2-4--2-4--2-4--2-4--|
G#|--4-6--4-6--4-6--4-6--4-6--2-4--2-4--2-4--2-4--2-4--|
C#|--4-6--4-6--4-6--4-6--4-6--2-4--2-4--2-4--2-4--2-4--|

D#|------------------------------------------------|
A#|------------------------------------------------|
F#|------------------------------------------------|
C#|-0-2--0-2--0-2--0-2--0-2--4~---------5~---------|
G#|-0-2--0-2--0-2--0-2--0-2--4~---------5~---------|
C#|-0-2--0-2--0-2--0-2--0-2--4~---------5~---------|

Chorus-Guitar 2 Use distortion
D#|----------------------------------------------------|
A#|----------------------------------------------------|
F#|----------------------------------------------------|
C#|--4-6--4-6--4-6--4-6--4-6--2-4--2-4--2-4--2-4--2-4--|
G#|--4-6--4-6--4-6--4-6--4-6--2-4--2-4--2-4--2-4--2-4--|
C#|--4-6--4-6--4-6--4-6--4-6--2-4--2-4--2-4--2-4--2-4--|

D#|------------------------------------------------|
A#|------------------------------------------------|
F#|--------------------------6-6-6-6-6--7-7-7-7-7--|
C#|-0-2--0-2--0-2--0-2--0-2--x-x-x-x-x--x-x-x-x-x--|
G#|-0-2--0-2--0-2--0-2--0-2--4-4-4-4-4--5-5-5-5-5--|
C#|-0-2--0-2--0-2--0-2--0-2------------------------|

D#|----------------------------------------------------|
A#|----------------------------------------------------|
F#|----------------------------------------------------|
C#|--4-6--4-6--4-6--4-6--4-6--2-4--2-4--2-4--2-4--2-4--|
G#|--4-6--4-6--4-6--4-6--4-6--2-4--2-4--2-4--2-4--2-4--|
C#|--4-6--4-6--4-6--4-6--4-6--2-4--2-4--2-4--2-4--2-4--|

D#|------------------------------------------------|
A#|------------------------------------------------|
F#|--------------------------6-6-6-6-6--7-7-7-7-7--|
C#|-0-2--0-2--0-2--0-2--0-2--x-x-x-x-x--x-x-x-x-x--|
G#|-0-2--0-2--0-2--0-2--0-2--4-4-4-4-4--5-5-5-5-5--|
C#|-0-2--0-2--0-2--0-2--0-2------------------------|

D#|----------------------------------------------------|
A#|----------------------------------------------------|
F#|----------------------------------------------------|
C#|--4-6--4-6--4-6--4-6--4-6--2-4--2-4--2-4--2-4--2-4--|
G#|--4-6--4-6--4-6--4-6--4-6--2-4--2-4--2-4--2-4--2-4--|
C#|--4-6--4-6--4-6--4-6--4-6--2-4--2-4--2-4--2-4--2-4--|

D#|------------------------------------------------|
A#|------------------------------------------------|
F#|--------------------------6-6-6-6-6--7-7-7-7-7--|
C#|-0-2--0-2--0-2--0-2--0-2--x-x-x-x-x--x-x-x-x-x--|
G#|-0-2--0-2--0-2--0-2--0-2--4-4-4-4-4--5-5-5-5-5--|
C#|-0-2--0-2--0-2--0-2--0-2------------------------|

D#|----------------------------------------------------|
A#|----------------------------------------------------|
F#|----------------------------------------------------|
C#|--4-6--4-6--4-6--4-6--4-6--2-4--2-4--2-4--2-4--2-4--|
G#|--4-6--4-6--4-6--4-6--4-6--2-4--2-4--2-4--2-4--2-4--|
C#|--4-6--4-6--4-6--4-6--4-6--2-4--2-4--2-4--2-4--2-4--|

D#|------------------------------------------------|
A#|------------------------------------------------|
F#|--------------------------6-6-6-6-6--7-7-7-7-7--|
C#|-0-2--0-2--0-2--0-2--0-2--x-x-x-x-x--x-x-x-x-x--|
G#|-0-2--0-2--0-2--0-2--0-2--4-4-4-4-4--5-5-5-5-5--|
C#|-0-2--0-2--0-2--0-2--0-2------------------------|

Outro-Guitar 1 Use Distortion
D#|-----------------------------------------------------|
A#|-----------------------------------------------------|
F#|-----------------------------------------------------|
C#|--4-6--4-6--4-6--4-6--9-7---4-6--4-6--4-6--4-6--9-7--|
G#|--4-6--4-6--4-6--4-6--9-7---4-6--4-6--4-6--4-6--9-7--|
C#|--4-6--4-6--4-6--4-6--9-7---4-6--4-6--4-6--4-6--9-7--|

D#|-----------------------------------------------------|
A#|-----------------------------------------------------|
F#|-----------------------------------------------------|
C#|--4-6--4-6--4-6--4-6--9-7---4-6--4-6--4-6--4-6--9-7--|
G#|--4-6--4-6--4-6--4-6--9-7---4-6--4-6--4-6--4-6--9-7--|
C#|--4-6--4-6--4-6--4-6--9-7---4-6--4-6--4-6--4-6--9-7--|

D#|-----------------------------------------------------|
A#|-----------------------------------------------------|
F#|-----------------------------------------------------|
C#|--4-6--4-6--4-6--4-6--9-7---4-6--4-6--4-6--4-6--9-7--|
G#|--4-6--4-6--4-6--4-6--9-7---4-6--4-6--4-6--4-6--9-7--|
C#|--4-6--4-6--4-6--4-6--9-7---4-6--4-6--4-6--4-6--9-7--|

D#|-----------------------------------------------------|
A#|-----------------------------------------------------|
F#|-----------------------------------------------------|
C#|--4-6--4-6--4-6--4-6--9-7---4-6--4-6--4-6--4-6--9-7--|
G#|--4-6--4-6--4-6--4-6--9-7---4-6--4-6--4-6--4-6--9-7--|
C#|--4-6--4-6--4-6--4-6--9-7---4-6--4-6--4-6--4-6--9-7--|

Outro-Guitar 1 Use Distortion
D#|--------------------------------------------------------|
A#|--------------------------------------------------------|
F#|--------------------------------------------------------|
C#|--4-6--4-6--4-6--4-6---------4-6--4-6--4-6--4-6---------|
G#|--4-6--4-6--4-6--4-6--5#-----4-6--4-6--4-6--4-6--5#-----|
C#|--4-6--4-6--4-6--4-6-----7#--4-6--4-6--4-6--4-6-----7#--|

D#|--------------------------------------------------------|
A#|--------------------------------------------------------|
F#|--------------------------------------------------------|
C#|--4-6--4-6--4-6--4-6---------4-6--4-6--4-6--4-6---------|
G#|--4-6--4-6--4-6--4-6--5#-----4-6--4-6--4-6--4-6--5#-----|
C#|--4-6--4-6--4-6--4-6-----7#--4-6--4-6--4-6--4-6-----7#--|

D#|--------------------------------------------------------|
A#|--------------------------------------------------------|
F#|--------------------------------------------------------|
C#|--4-6--4-6--4-6--4-6---------4-6--4-6--4-6--4-6---------|
G#|--4-6--4-6--4-6--4-6--5#-----4-6--4-6--4-6--4-6--5#-----|
C#|--4-6--4-6--4-6--4-6-----7#--4-6--4-6--4-6--4-6-----7#--|

D#|--------------------------------------------------------|
A#|--------------------------------------------------------|
F#|--------------------------------------------------------|
C#|--4-6--4-6--4-6--4-6---------4-6--4-6--4-6--4-6---------|
G#|--4-6--4-6--4-6--4-6--5#-----4-6--4-6--4-6--4-6--5#-----|
C#|--4-6--4-6--4-6--4-6-----7#--4-6--4-6--4-6--4-6-----7#--|
comments
We did not receive enough feedback on this tab! Please rate:
1 2 3 4 5
I want to post or [tab]
guest
You may want to rate the tab now too:
select rating
Please do not post tabs as comments. Select "correction" instead!