Oops, an error
Loading. Please wait.

Coldplay Medley Tab

27,420 views 36 this week
1 commentread comment
1 2 3 4 5
accurate
x 7
Autoscroll
+/-
esc
set tempo
stop
Contributor
Difficulty
novice
Hey! There's an official Ultimate Guitar app which is ideal
for learning songs when you're away from computer. Get the app
WARNING: You are trying to view
                                    content from Ultimate-Guitar.com
                                    in an unauthorized application,
                                    which is prohibited.

                                    Please use an official Ultimate
                                    Guitar Tabs application for iPhone,
                                    iPad or Android to access legitimate
                                    chords, guitar, bass, and drum tabs
                                    from Ultimate-Guitar.com database.

                                    Type "ultimate guitar tabs" in Apple
                                    App Store's or Android Market's
                                    search to find the application.
Coldplay Medley - Doyle Dykes
Acoustic guitar for one

E  :------------------------------------------------|
B  :<7>---------<7>---------<7>---------<7>---------|
G  :------<7>---------<7>---------<7>---------<7>---|
D  :------------<7>---------------------<7>---------|
A  :-------------------------0----------------------|
D  :-0----------------------------------------------|

E  :<12>----------<12>----------<12>----------<12>----------|
B  :-------<12>----------<12>----------<12>----------<12>---|
G  :--------------<12>------------------------<12>----------|
D  :--------------------------------------------------------|
A  :------------------------------0-------------------------|
D  :--0-----------------------------------------------------|

E  :------------------------------------------------|
B  :<7>---------<7>---------<7>---------<7>---------|
G  :------<7>---------<7>---------<7>---------<7>---|
D  :------------<7>---------------------<7>---------|
A  :-------------------------0----------------------|
D  :-0----------------------------------------------|

E  :<12>----------<12>----------<12>----------<12>----------|
B  :-------<12>----------<12>----------<12>----------<12>---|
G  :--------------<12>------------------------<12>----------|
D  :--------------------------------------------------------|
A  :------------------------------0-------------------------|
D  :--0-----------------------------------------------------|

E  :--------------------0-------5---|----2---------------0-------4-/5--|
B  :----------------3-------3-------|--------3-------3-------3---------|
G  :--------4-----------------------|----------------------------------|
D  :----4-------4---------------0---|----0-------0-----------0---------|
A  :2---------------2---------------|----------------------------------|
D  :--------------------------------|5---------------5-----------------|

E  :----2-------------------0-------|0-h2--2---2---2---0-h2--*---0---*---|
B  :--------3-----------3-------3---|------------------------------------|
G  :----2-------2-----------0-------|----------2-------------------------|
D  :--------------------4---*-------|0-----------------0-----------------|
A  :----------------0---------------|----------------------------4-------|
D  :0-------------------------------|------------------------------------|

E  :--------------------0-------5---|----2---------------0-------4-/5--|
B  :3---------------3-------3-------|--------3-------3-------3---------|
G  :4-------4-----------------------|----------------------------------|
D  :4---4-------4---------------0---|------------0-----------0---------|
A  :2---------------2---------------|----------------------------------|
D  :--------------------------------|5---------------5-----------------|

E  :----2-------------------0-------|0-h2--2---2---2---0-h2--*---0---*---|
B  :--------3-----------3-------3---|----------------------------2---*---|
G  :----2-------2-----------0-------|----------2-------------------------|
D  :--------------------4---*-------|0-----------------0-----------------|
A  :----------------0---------------|------------------------------------|
D  :0-------------------------------|------------------------------------|

E  :--------------------0-------5---|----2---------------0-------4-/5--|
B  :3---------------3-------3-------|--------3-------3-------3---------|
G  :--------4-----------------------|----------------------------------|
D  :----4-------4---------------0---|------------0-----------0---------|
A  :2---------------2---------------|----------------------------------|
D  :--------------------------------|5---------------5-----------------|

E  :----2-------------------0-------|0-h2--2---2---2---0-h2--*---0---*---|
B  :--------3-----------3-------3---|------------------3---------2---*---|
G  :----2-------2-----------0-------|----------2-------------------------|
D  :--------------------4---*-------|0-----------------0-----------------|
A  :----------------0---------------|----------------------------4---*---|
D  :0-------------------------------|------------------------------------|

E  :--------------------0-------5---|----3---------------0-------4-/5--|
B  :3---------------3-------3-------|----------------3-------3---------|
G  :4-------4-----------------------|------------0---------------------|
D  :4---4-------4---------------0---|--------0-------------------------|
A  :2---------------2---------------|----------------------------------|
D  :--------------------------------|5---------------5-----------------|

E  :----2-------------------0-------|0-h2--2---2---2---0-h2------0-------|
B  :--------------------3-------3---|------------------------------------|
G  :------------2-----------0-------|----------2-------------2-----------|
D  :--------0-----------4---*-------|0-----------------0-------------0---|
A  :----------------0---------------|------------------------------------|
D  :0-------------------------------|------------------------------------|

E  :------------------10---7--------7-h10--|
B  :3------------------8-------10---8------|
G  :0-------0------------------------------|
D  :----0-------0--------------------------|
A  :---------------------------------------|
D  :5-------------(0)--0-------------------|

E  :----10-p7-------7-h10------10-p7-----------|
B  :-----------10---8-----------------10-------|
G  :---------------------------------------0---|
D  :0----------------------0-------------------|
A  :-------------------------------------------|
D  :-------------------------------------------|

E  :----------------------5---5---5---|5-h7--5-------0---0-h2------0-------|
B  :----------------5-h7------7-------|----------7---*---3-----------------|
G  :--------7-------7-----------------|7-----------------------2-----------|
D  :----0-----------0-----------------|----------0-------0-------------0---|
A  :------------0---------------------|------------------------------------|
D  :0---------------------------------|0-----------------------------------|

E  :----------------10---7--------7-h10--|
B  :3----------------8-------10---8------|
G  :0-------0--------0------------0------|
D  :----0-------0------------------------|
A  :-------------------------------------|
D  :5------------------------------------|

E  :----10-p7--------7-h10------10-p7-----------|
B  :-----------10----8-----------------10-------|
G  :-----------------0----------------------0---|
D  :0-----------------------0-------------------|
A  :--------------------------------------------|
D  :----------------(0)-------------------------|

E  :----------------------5---5---5---|
B  :----------------5-/7------7-------|
G  :--------7-------------------------|
D  :----0-----------0-----------------|
A  :------------0---------------------|
D  :0---------------------------------|

E  :5-h7--5-------0---0-h2------2-p0------|
B  :----------7-------3-------------------|
G  :7-------------------------------------|
D  :0---------0-------0-------------------|
A  :--------------------------------------|
D  :--------------------------------------|

E  :------------------------------------|----/3---3---3---3---3---3---3---|
B  :0-h2------------------3-\2------0---|---------------------------------|
G  :2---------2-----------------2---0---|---------------------------------|
D  :2-----2-------2---------------------|---------------------------------|
A  :0-----------------0-----------------|0--------------------------------|
D  :------------------------------------|---------------------------------|

E  :----2---------------------------|--------------------------------|
B  :--------3-------3-------3-----3-|--------3-----3---3-----3-----3-|
G  :----2-----------2-------2---2-2-|*-------0---0-0-0-0-----0---0-0-|
D  :--------0-------0-------0---0---|0-------0---0---0-0-0---0---0---|
A  :------------------------0-------|2-------2-------2---2---2-------|
D  :0-------------------0-----------|--------------------------------|

E  :--------2-----2---------2-----2-|--------2-----0----0------0-------|
B  :--------3---3-3---3-----3---3-3-|--------3---3-3-2--2--2---2-----2-|
G  :*---2---2---2-----2-----2---2---|----2---2---2---2--2--2---2---2-2-|
D  :0---0---0---0---0-0-0---0---0---|0---0---0---0---x--x--x---x---x---|
A  :0-------0-------0---0---0-------|0---0-----------4-(4)-4---4-------|
D  :0-------0-------0---0---0-------|0---------------------------------|

E  :0-------0-----------------------|5-------5---------------5-------|
B  :3-------3---------------3-------|3-------3---------------3-------|
G  :4-------4-----4-4-4-----4-------|0-------0-----0-*-0-----0-------|
D  :4-------4---4-4-4-------4-------|0-------0---0-0-4---0---0-------|
A  :2---2-------2---2---2---2-----0-|x-----------x-x---------x-------|
D  :----------------------------0-0-|5---5-------5-----------5---0---|

E  :2---------------------------------|--------------------------------|
B  :2-h3------3---------------3-------|--------3-----------------------|
G  :2---------2---------------2-------|--------2---------------2-------|
D  :4-------------4-------4-------4---|----4-------4-------4-------4---|
A  :0-----------------0---------------|----------------0---------------|
D  :------0---------------------------|0-------------------------------|

E  :----0---0-h2--0---0-h2--------------|
B  :----------------------------3-------|
G  :--------2---------------2-------2---|
D  :------------------0-----------------|
A  :------------------------------------|
D  :0-----------------------------------|

E  :----0---0-h2--0---0-h2------2-h5--0---|--------------------------------|
B  :------------------------3-------------|--------0---------------0-------|
G  :--------2-------------------2---------|------------6---------------6---|
D  :------------------0-------------------|----7---------------7-----------|
A  :--------------------------------------|0---------------0---------------|
D  :0-------------------------------------|--------------------------------|

E  :--------0-------0-------5*------|--------------------------------|
B  :----------------------------3---|--------------------------------|
G  :----7-------7-------7-----------|--------0---------------0-------|
D  :--------7---------------0-------|----4-------0-------0-------0---|
A  :0---------------0---------------|--------------------------------|
D  :--------------------------------|5---------------5---------------|

E  :--------------------------------------|
B  :----0---0-h3------0-h3------3-p0------|
G  :--------------0---------0---------2---|
D  :--------0-------------------0---------|
A  :--------------------------------------|
D  :5-----------------5-------------------|

E  :----0---0-h2--0---0-h2--------------|
B  :----------------------------3-------|
G  :--------2---------------2-------2---|
D  :------------------0-----------------|
A  :------------------------------------|
D  :0-----------------------------------|

E  :----0---0-h2--0---0-h2------2-h5--0---|--------------------------------|
B  :------------------------3-------------|--------0---------------0-------|
G  :--------2-------------------2---------|------------6---------------6---|
D  :------------------0-------------------|----7---------------7-----------|
A  :--------------------------------------|0---------------0---------------|
D  :0-------------------------------------|--------------------------------|

E  :--------0-------0-------5*------|--------------------------------|
B  :----------------------------3---|--------------------------------|
G  :----7-------7-------7-----------|--------0---------------0-------|
D  :--------7---------------0-------|----4-------0-------0-------0---|
A  :0---------------0---------------|--------------------------------|
D  :--------------------------------|5---------------5---------------|

E  :--------------------------------------|--------------------------------|
B  :----0---0-h3------0-h3------3-p0------|--------3---------------3-------|
G  :--------------0---------0---------2---|------------2---------------2---|
D  :--------0-------------------0---------|----0---------------0-----------|
A  :--------------------------------------|----------------0---------------|
D  :5-----------------5-------------------|0-------------------------------|

E  :----0---0-h2--0---0-h2------2-h5--0---|--------------------------------|
B  :------------------------3-------------|--------0---------------0-------|
G  :--------2-------------------2---------|------------6---------------6---|
D  :------------------0-------------------|----7---------------7-----------|
A  :--------------------------------------|0---------------0---------------|
D  :0-------------------------------------|--------------------------------|

E  :--------0-------0-------5*------|--------------------------------|
B  :----------------------------3---|--------------------------------|
G  :----7-------7-------7-----------|--------0---------------0-------|
D  :--------7---------------0-------|----4-------0-------0-------0---|
A  :0---------------0---------------|--------------------------------|
D  :--------------------------------|5---------------5---------------|

E  :--------------------------------------|2-------2---2-2-2-2-----2-----2-|
B  :----0---0-h3------0-h3------3-p0------|3-------3---3-3-3-3-3---3---3-3-|
G  :--------0---------0---------0-----2---|2-------2---2-2-2-2-2---2---2-2-|
D  :--------0---------0-----0---0---------|0-------0---0---0---0---0---0---|
A  :--------------------------------------|0---------------0---0-----------|
D  :5-------------------------------------|0---------------0---------------|

E  :2-h3-----3---3-3---------3---3-3-|2-*-2---2---2-2---2-2---2-----2-|
B  :3--------3---3-3---3-----3---3-3-|3-*-3---3---3-3-3-3-3---3---3-3-|
G  :2--------2---2-2---2-----2---2-2-|2-------2---2-2-2-2-2---2---2-2-|
D  :0--------0---0---0-0-0---0---0---|0-------0---0---0---0---0---0---|
A  :0----------------0---0-----------|0---------------0---0---0-------|
D  :0----------------0---0-----------|0---------------0---0---0-------|

E  :2-h3-3---3---3-3-3-3-3-3-3-2-0---|
B  :3----3---3---3-3-3-3-3-3-3-3-3-3-|
G  :2----2---2---2---2---2-2-2-2-2-2-|
D  :0--------0---0---0---0---0---0-0-|
A  :---------0-----------------------|
D  :---------------------------------|

E  :----------------------7--------7---------|
B  :(3)*---3----3---/5----8--------8---------|
G  :-x----(0)---0---------0--------0-----(0)*|
D  :------------0---------0--------0---0-----|
A  :---------------------(0)-----------------|
D  :-5---------------------------------------|

E  :(5)*--5---5-----------(5)*--2---0-------|
B  :(3)*--3---3-----------(2)*--2---3---3---|
G  :----------2-------(0)*----------2---*---|
D  :--------------(4)-----------------------|
A  :-2---------------------0----------------|
D  :-----------------------*----------------|

E  :--------------------7--------7---------|
B  :-----3----3---/5----8--------8---------|
G  :----(0)---0---------0--------0-----(0)*|
D  :----------0---------0--------0---0-----|
A  :-------------------(0)-----------------|
D  :5--------------------------------------|

E  :(5)*--5---5-----------(5)*--2---0-------|
B  :(3)*--3---3-----------(2)*--2---3---3---|
G  :----------2-------(0)*----------2---*---|
D  :--------------(4)-----------------------|
A  :-2---------------------0----------------|
D  :-----------------------*----------------|

E  :---------------7---7-------7---------|
B  :-----3----3-/--8---8-------8---------|
G  :----(0)---0--------0-------0-----(0)*|
D  :----------0--------0-------0---0-----|
A  :-------------------------------------|
D  :5------------------------------------|

E  :(5)*--5---5-----------(5)*--2---0-------|
B  :(3)*--3---3-----------(2)*--2---3---3---|
G  :----------2-------(0)*----------2---*---|
D  :--------------(4)---------------0-------|
A  :-2---------------------0----------------|
D  :-----------------------*----------------|

E  :---------------------------------------|
B  :3-----h5-p3-p0-------------------------|
G  :---------------0---------------0-------|
D  :----0--------------0-------0-------0---|
A  :---------------------------------------|
D  :5----------------------5---------------|

E  :---------5---5---5-------0-------|--------0-----0---0-----0-----0-|
B  :----5-/7-------------7-----------|--------7---7-7---7-----7---7-7-|
G  :-----------------------------7---|7-------7---7-7---7-----7---7-7-|
D  :---------------------------------|0-------0---0---0-0-----0---0---|
A  :---------------------------------|0---------------0-------0-------|
D  :5--------------------------------|0---------------0---0---0-------|

E  :----5---(5)-------5-------(x)-------|
B  :--------(7)-----------7---(7)-------|
G  :--------(7)---7-7---------(7)---0---|
D  :--------(0)---------------(0)-------|
A  :------------------------------------|
D  :0-----------------0-----------------|

E  :--------(0)-----0---------(0)-----0-|
B  :--------(5)---5-5---------(5)---5-5-|
G  :6-------(6)---6-----------(6)---6---|
D  :--------(7)-------7-------(7)-------|
A  :0-----------------0-----------------|
D  :----------------------0-*-----------|

E  :----5---(5)-------5-------(0)-------|
B  :--------(5)-----------7---(5)-------|
G  :--------(6)-----6---------(6)-----0-|
D  :--------(7)---7-----------(7)---0---|
A  :0-----------------0-----------------|
D  :------------------------------------|

E  :--------(5)---------------(5)-------|----5---(5)-------5-*-2---0-------|
B  :3-------(3)---------------(3)-------|--------(3)-------------------3---|
G  :--------(0)---0-0---0-----(0)-----0-|--------(0)-----0-----------------|
D  :------0-(0)---0---4-*-0---(0)---0---|--------(0)---0-------------------|
A  :----x---------x---------------------|----------------------------------|
D  :5-----------------------------------|5-----------------5-*-------------|

E  :----0---0-h2--0---0-h2----------------|
B  :------------------------------3-------|
G  :--------2---------2-----(2)-------2---|
D  :--------------------------------------|
A  :--------------------------------------|
D  :0-------------------------------------|

E  :----0---0-h2--0---0-h2------2-h5--0---|--------------------------------|
B  :------------------------3-------------|--------1-----------------------|
G  :--------2-----------------------------|----0-------0-----------0-------|
D  :------------------0-------------------|--------------------2-------2---|
A  :--------------------------------------|0---------------0---------------|
D  :0-------------------------------------|--------------------------------|

E  :--------0-------0---0---3-/5------|--------------------------------|
B  :----3-------3-----------------3---|--------------------------------|
G  :--------0-------------------------|--------0---------------0-------|
D  :----------------------------------|----4-------0-------0-------0---|
A  :0---------------0-----------------|--------------------------------|
D  :----------------------------------|5---------------5---------------|

E  :--------0-------0-------5-------|--------------------------------|
B  :----3-------3-------3-------3---|--------------------------------|
G  :--------------------0-----------|--------3---------------3-------|
D  :--------------------------------|----0-------0-------0-------0---|
A  :--------------------------------|--------------------------------|
D  :5---------------5---------------|5---------------5---------------|

E  :--------0-------0-------5-------|5-------5-----------2-------2---|
B  :----3-------3-------3-----------|3---------------5-------5-------|
G  :--------3-----------3-----------|2-------------------------------|
D  :--------------------------------|0-------------------------------|
A  :--------------------------------|--------------------------------|
D  :5---------------5---------------|--------------------------------|

E  :5-------5-----------2-------2---|5-------5-----------2-------2----|
B  :----------------5-------5-------|----------------5-------5--------|
G  :--------------------------------|----2-------------------2--------|
D  :--------------------------------|0-----------0--------------------|
A  :--------------------------------|----------------4-------------p0-|
D  :--------------------------------|---------------------------------|

E  :5-------5----------0-------0-------|5-------5-----\-------2-------2---|
B  :--------2--------------7-------7---|--------7-----\---5-------5-------|
G  :----2---------4-/6---------6-------|----7---------(0)-*---------------|
D  :------------0----------------------|------------0-----*-------4-------|
A  :*------------------0---------------|------------------2---------------|
D  :4----------------------------------|0---------------------------------|

E  :5-------5--------0-------0-------|--------0---------------0-------|
B  :------------5-/7-----7-------7---|----------7---7-------------7*--|
G  :----2----------------------------|7-----7-------------7-------7*--|
D  :--------2------------------------|----0---------------------------|
A  :-----------------0---------------|----------------4---------------|
D  :4--------------------------------|0-------------------------------|

E  :2----------------5---3---3---2-2-|----------0-2-*-2----------------|
B  :--------2------------------------|--------3---------------2-h3-2---|
G  :------------3-/6-----4---4---2-2-|------2---------------4------2---|
D  :----2----------------------------|----0---------------4------------|
A  :-----------------0---------------|----------------2----------------|
D  :4--------------------------------|0--------------------------------|

E  :---------------------------3------3--------|
B  :--------2-----------2---------------<14>---|
G  :--------2-----(2)------------<14>----------|
D  :----2-------2---------<14>-----------------|
A  :------------------0------------------------|
D  :4------------------------------------------|

E  :--2--------0-2-*---2------------2-2-|
B  :<15>-------3-3-*---2-------3-h5---2-|
G  :---------------0-*-2-----2----------|
D  :---------0-------*-----2------------|
A  :-----------------4------------------|
D  :-------0---------*------------------|

E  :-----------------5-h7-p5-3-3-3-/5-5---|
B  :--------2-----------------------------|
G  :------------3-/6---------4-4-4-/6-----|
D  :----2---------------------------------|
A  :-----------------0--------------------|
D  :4--------------*----------------------|

E  :2---------0-2-*-2----------------|
B  :--------3---------------2-h3-2---|
G  :*-----2---------------4------2---|
D  :----0---------------4------------|
A  :----------------2----------------|
D  :0--------------------------------|

E  :-----------------------------------/--|7-------7-----7-----7-----5-5---|
B  :--------2----x--(2)-2-h3-3-3---2---/--|8-------8-----8-----8-----7-7---|
G  :--------2----x---x--2----2-2---2------|0-------0-----0-----0-------0---|
D  :----2---2---(2)--x--2----2-----2------|*-------0-----0-0---0-------0---|
A  :--------------------0----0------------|*---------------x---------------|
D  :4-------------------------------------|*---0-----------0---------------|

E  :5-----3-----2---5-----------------------|
B  :7-----0-----0---0----*------2-----------|
G  :7-----4-----2---6-------(x)-2-----------|
D  :0-----0-----0---7---(x)-----2-------(x)-|
A  :0--------------------x------0---(x)-----|
D  :0--------------------0--------------/---|

E  :--------------7-------7-----5-5---|
B  :0-------------8-------8-----7-7---|
G  :0-------------0-------0-------0---|
D  :0-----(0)-----0-------0-------0---|
A  :x------x--------------------------|
D  :5---0-/---5-----------------------|

E  :5-----3-----2---5-----------------------|
B  :7-----0-----0---0----*------2-----------|
G  :7-----4-----2---6-------(x)-2-----------|
D  :0-----0-----0---7---(x)-----2-------(x)-|
A  :0--------------------x------0---(x)-----|
D  :0--------------------0--------------/---|

E  :--------------7-------7-----5-5---|
B  :0-------------8-------8-----7-7---|
G  :0-------------0-------0-------0---|
D  :0-----(0)-----0-------0-------0---|
A  :x------x--------------------------|
D  :5---0-/---5-----------------------|

E  :5-----3-----2---5--------------------|
B  :7-----0-----0---0----*----2----------|
G  :7-----4-----2---6---------2----------|
D  :0-----0-----0---7---------2----------|
A  :0-------------------------0----------|
D  :0-------------------(0)-------(0)-/--|

E  :-------------------------------------|
B  :0-------(0)---------------(0)--------|
G  :0---0---(0)---------------(0)--------|
D  :0-----------------2---2---------2-/--|
A  :x------------------------------------|
D  :5-------------4---2------------------|

E  :--------------------------0---------|5-------5-----------2-------2----|
B  :2--------2--------3-------2---------|----------------5-------5--------|
G  :0-----------------4-------3---------|----2---------2---------2--------|
D  :5-------(5)-------5-------5---(0)---|0-----------0--------------------|
A  :----0---------0-------0-------------|----------------4-------------p0-|
D  :------------------------------------|---------------------------------|

E  :5-------5----------0-------0-------|5-------(5)---\--------2-------2---|
B  :--------2--------------7-------7---|--------(7)---\----5-------5-------|
G  :----2---------4-/6---------6-------|----7---(7)---\--------------------|
D  :------------0----------------------|---------------0-----------4-------|
A  :*------------------0---------------|-------------------2---------------|
D  :4----------------------------------|0----------------------------------|

E  :5-------(5)--------0-------0-------|
B  :--------(3)---5-/7-----7-------7---|
G  :----2---(2)--------6-------6-------|
D  :-----------------------------------|
A  :-------------------0---------------|
D  :4----------------------------------|

E  :5-------(5)---\--------2---------2---|
B  :--------(7)---\----5-------(5)-------|
G  :----7---(7)---\------------(2)-------|
D  :--------(0)----0-----------(2)-------|
A  :--------(0)--------4-----------------|
D  :0-------(0)--------------------------|

E  :5-------(5)-------9------10----12---/14-|
B  :--------(3)-----0---10------------------|
G  :----2---(2)------------0----------0-----|
D  :--------------0-------------11----------|
A  :------------------0---------------------|
D  :4---------------------------------------|

E  :14------12---10----------------------5---|
B  :-------------10-----10------10-------5---|
G  :-----14-------------11------11-------7---|
D  :---0------------0---12---12----------7---|
A  :-------------------------12------(0)-0---|
D  :-0---------0-------------------0-----*---|

E  :----5---------0------------------|7-------7-----7-----7-----5-5---|
B  :--5-5-----5---x-7-h8-8-8-8-8-----|8-------8-----8-----8-----7-7---|
G  :7-7-7---7-7-7---9----9-9-9-9-x---|0-------0-----0-----0-------0---|
D  :7---7---7---7---7------7---7---x-|*-------0-----0-0---0-------0---|
A  :----0-----------0--------------x-|*---------------x---------------|
D  :-------------------------------0-|----0-----------0---------------|

E  :5-----3-----2---5-----------------------|
B  :7-----0-----0---0----*------2-----------|
G  :7-----4-----2---6-------(x)-2-----------|
D  :0-----0-----0---7---(x)-----2-------(x)-|
A  :0--------------------x------0---(x)-----|
D  :0--------------------0--------------/---|

E  :--------------7-------7-----5-5---|
B  :0-------------8-------8-----7-7---|
G  :0-------------0-------0-------0---|
D  :0-----(0)-----0-------0-------0---|
A  :x------x--------------------------|
D  :5---0-/---5-----------------------|

E  :5-----3-----2---5-----------------------|
B  :7-----0-----0---0----*------2-----------|
G  :7-----4-----2---6-------(x)-2-----------|
D  :0-----0-----0---7---(x)-----2-------(x)-|
A  :0--------------------x------0---(x)-----|
D  :0--------------------0--------------/---|

E  :--------------7-------7-----5-5---|
B  :0-------------8-------8-----7-7---|
G  :0-------------0-------0-------0---|
D  :0-----(0)-----0-------0-------0---|
A  :x------x------0-------------------|
D  :5---0-/---5-----------------------|

E  :5-----3-----2---5--------------------|
B  :7-----0-----0---0----*----2----------|
G  :7-----4-----2---6---------2----------|
D  :0-----0-----0---7---------2----------|
A  :0-------------------------0----------|
D  :0-------------------(0)-------(0)-/--|

E  :-------------------------------------|
B  :0-------(0)---------------(0)--------|
G  :0---0---(0)---------------(0)--------|
D  :0-----------------2---2---------2-/--|
A  :x------------------------------------|
D  :5-------------4---2------------------|

E  :--------------------------0-------|5-------5-------------2-------2---|
B  :---------2--------3-------2-------|------------------5-------5-------|
G  :--------(0)-------4-------3-------|----2-------(2)-2-----------------|
D  :----5-------------5-------5-------|0-------------------------0-------|
A  :0-------------0-------0-----------|------------------4---------------|
D  :----------------------------------|----------------------------------|

E  :5-------5----------0-------0-------|
B  :--------2--------------7-------7---|
G  :----2---------3-/6---------6-------|
D  :------------0----------------------|
A  :-------------------0---------------|
D  :4----------------------------------|

E  :5-------(5)---\----------2-------2---|5-------5--------0-------0-------|
B  :--------(7)---\------5-------5-------|------------5-/7-----7-------7---|
G  :----7---(7)--------0*----------------|----2--------------------6-------|
D  :--------------(5)\-----------4-------|--------2------------------------|
A  :---------------------2---------------|-----------------0---------------|
D  :0------------------------------------|4--------------------------------|

E  :5-------(5)---\--------2-------2---|
B  :--------(7)---\----5-------5-------|
G  :----7---(7)---\------------2-------|
D  :---------------0---*---------------|
A  :-------------------4---------------|
D  :0----------------------------------|

E  :5-------5------------0-------0-------|
B  :--------2----------------7-------7---|
G  :----2-----------4-/6---------6-------|
D  :------------(2)*---------------------|
A  :---------------------0---------------|
D  :4------------------------------------|

E  :5-------(5)---\--------2-------2---|5-------5--------0-------0-------|
B  :--------(7)---\----5-------5-------|------------5-/7-----7-------7---|
G  :----7---(7)---\--------------------|----2--------------------6-------|
D  :---------------0-----------4-------|--------2------------------------|
A  :-------------------2---------------|-----------------0---------------|
D  :0----------------------------------|4--------------------------------|

E  :--------------------0-------5---|----2---------------0-------4-/5--|
B  :3-----------------------3-------|----------------3-------3---------|
G  :--------4-----------------------|------------0---------------------|
D  :----4-------4-------------------|--------0---------------0---------|
A  :2---------------2---------------|----------------------------------|
D  :--------------------------------|5---------------5-----------------|

E  :----2-------------------0-------|0-h2--2---2---2---0-h2------0-------|
B  :--------------------3-------3---|------------------3-----------------|
G  :------------2-----------0-------|----------2-------------2-----------|
D  :--------0-----------4---*-------|0-----------------------------------|
A  :----------------0---------------|------------------------------------|
D  :0-------------------------------|------------------------------------|

E  :------------------------------------|----/3---3---3---3---3---3---3---|
B  :0-h2------------------3-\2----------|0--------------------------------|
G  :2---------2-----------------2-------|0--------------------------------|
D  :------2-------2-----------------0---|---------------------------------|
A  :0-----------------0-----------------|---------------------------------|
D  :------------------------------------|---------------------------------|

E  :----2-----------------------------|---------3---3---3---3---3---3---|
B  :--------3---------------3-\2------|0--------------------0-------0---|
G  :----2-------2-----------------2---|----2-/4-------------------------|
D  :--------0-----------0-------------|---------------------------------|
A  :----------------------------------|-----------------0---------------|
D  :0---------------0-----------------|---------------------------------|

E  :----2-------------------------------|---------3---3---3---3---3---3---|
B  :--------3---------------2-h3-p2-----|0----------------------------3---|
G  :----2-------2-------------------2---|----2-/4---------4---------------|
D  :--------0-----------0---------------|---------------------------------|
A  :------------------------------------|-----------------0---------------|
D  :0---------------0-------------------|---------------------------------|

E  :----2---------------------------|---------3---3---3---3---3-/5*-3---|
B  :--------3---------------3-------|0----------------------------------|
G  :------------0-------0-------0---|0---2-/4-----------------4-/6*-4---|
D  :--------------------------------|-----------------------------------|
A  :3---------------3---------------|-----------------0-----------------|
D  :--------------------------------|-----------------------------------|

E  :----2-----------------------------|
B  :--------3-----------------3-------|
G  :----2---2---------2-------2-------|
D  :--------2-h4--4-------4-------0---|
A  :0---------------------------------|
D  :--------0-------------------------|

E  :<12>----------<12>----------<12>----------<12>----------|
B  :-------<12>----------<12>----------<12>----------<12>---|
G  :--------------<12>------------------------<12>----------|
D  :--------------------------------------------------------|
A  :------------------------------0-------------------------|
D  :--0-----------------------------------------------------|

E  :------------------------------------------------|
B  :<7>---------<7>---------<7>---------<7>---------|
G  :------<7>---------<7>---------<7>---------<7>---|
D  :------------<7>---------------------<7>---------|
A  :-------------------------0----------------------|
D  :-0----------------------------------------------|

E  :------------<12>------------------------------------|
B  :<5>---<7>----------------<12>-----------------------|
G  :-------------------<7>----------------<12>----------|
D  :--------------------------------<7>-----------------|
A  :(0)------------------------------------------<7>----|
D  :----------------------------------------------------|

E  :----------0---0-h2--0---2-----/5-----|
B  :<7>----------------------------------|
G  :<7>----------------------------------|
D  :<7>----------------------------------|
A  :-------------------------------------|
D  :-0-----------------------------------|

E  :/10---------------2-----------------|-------------------------------*|
B  :------------------3-----------------|-------------------------------*|
G  :------------------2-----------------|-------------------------------*|
D  :------------------2-h4--------------|-------------------------------*|
A  :------------------0-----------------|-------------------------------*|
D  :------------------0-----------------|-------------------------------*|
comments
print report bad tab
1 comment total.
0 reply
d-man1 wrote on September 30 2008, 12:33 pm

Excellent tab really enjoy playing it . great song 5 stars!!!

I want to post or [tab]
guest
You may want to rate the tab now too:
select rating
Please do not post tabs as comments. Select "correction" instead!