Oops, an error
Loading. Please wait.

Jazz In The Box Tab

ver1
ver1

Whole song

Interactive

More versions @911Tabs.com
5,521 views 15 this week
1 commentread comment
1 2 3 4 5
excellent!
x 3
Autoscroll
+/-
esc
set tempo
stop
Hey! There's an official Ultimate Guitar app which is ideal
for learning songs when you're away from computer. Get the app
WARNING: You are trying to view
                                    content from Ultimate-Guitar.com
                                    in an unauthorized application,
                                    which is prohibited.

                                    Please use an official Ultimate
                                    Guitar Tabs application for iPhone,
                                    iPad or Android to access legitimate
                                    chords, guitar, bass, and drum tabs
                                    from Ultimate-Guitar.com database.

                                    Type "ultimate guitar tabs" in Apple
                                    App Store's or Android Market's
                                    search to find the application.
   Jazz In The Box - Doyle Dykes                          


Submitted by: Travis P (guitarfreak111)

Track 1
                                                        
E||-------------------0--|--6--5--3--5--0--4--0--------|
B||----------------0-----|-----------------------3--0--|
G||----------2/-4--------|-----------------------------|
D||----------------------|-----------------------------|
A||----------------------|-----------------------------|
E||----------------------|-----------------------------|


                                                          
-------------------------------|-------------------------|
-------------------------------|-------------------------|
--3-4-3-0----------------------|-------2-----4--------1--|
----------2--0-----------------|-------------------------|
----------------2--1--0--------|-------4-----5--------2--|
-------------------------3--0--|----0-----0-----0--0-----|


                                                      
--------------------------|--------------------------|
-----------------------3--|--------2-----0-----------|
--------2-----4--------4--|--------2-----1-----2--0--|
-----------------------6--|--------2-----0--------0--|
--------4-----5-----------|--------------------4-----|
--0--0-----0-----0--0-----|--0--0-----0-----0--------|


                                                      
-----0-----12-------------|--------------------------|
-----------12-------------|--------------------------|
--1--------------------1--|--------2-----4--------0--|
--------------------------|--------------------------|
-----------------------2--|--------4-----5--------2--|
--0-----0------0----0-----|--0--0-----0-----0--0-----|


                                                      
--------------------------|--------------------------|
-----------------------3--|--------2-----0-----------|
--------2-----4--------4--|--------2-----1-----2--0--|
-----------------------6--|--------2-----0--------0--|
--------4-----5-----------|--------------------4-----|
--0--0-----0-----0--0-----|--0--0-----0-----0--------|


                                                      
-----0-----------0--------|--------------------------|
-----------------------2--|--------3-----5--------2--|
--1--------------------2--|--------2-----6--------2--|
-----------------------2--|--------4-----5--------2--|
--------------------------|--0--0-----0-----0--0-----|
--0-----2--3--4-----0-----|--------------------------|


                                                      
--------------0--2-----3--|-----3--2-----0-----------|
--------3-----0--2-----2--|-----2--2-----0-----3-----|
--------2-----0--2-----4--|-----4--2-----0-----2-----|
--------4-----------------|--------------------4-----|
--0--0-----0--0-----0-----|--0-----0--0-----0-----0--|
--------------------------|--------------------------|


                                                      
--------------0-----0--0--|--------------------------|
--2-----------2-----2--0--|--------------------------|
--2-----------2-----2--0--|--1-----2-----4--------0--|
--2-----------------------|--------------------------|
-----0--1--2-----2--------|--------4-----5--------2--|
--------------------------|--0--0-----0-----0--0-----|


                                                                               
--------------------------|--------------------------|-----0------------------|
-----------------------3--|--------2-----0-----------|-----0----------3-------|
--------2-----4--------4--|--------2-----1-----2--0--|--1--1----------3-------|
-----------------------6--|--------2-----0--------0--|----------0-----2----0--|
--------4-----5-----------|--------------------4-----|-------------3----------|
--0--0-----0-----0--0-----|--0--0-----0-----0--------|--0---------------------|


                                                         
--------------------0--------|--------------0--------0--|
--------3h-0-----3-----------|--3h-0-----3-----0--2-----|
-----2--------2-----------2--|--------2-----------------|
-----------------------------|--------------------------|
--2--------------2-----2-----|--2--------2--------------|
-----------------------------|--------------------------|


                                                                             
---------------------0--|---------------------0--|--------------------------|
---------------0--2-----|---------------0--2-----|-----------------------3--|
----5----5/-4-----------|----3----3/-2-----------|--------2-----4--------4--|
----4----4/-3-----------|----2----2/-1-----------|-----------------------4--|
----5----5/-4-----------|----3----3/-2-----------|--------4-----5-----------|
------------------------|------------------------|--0--0-----0-----0--0-----|


                                                                             
------------------------|------------------------|-----0-------12-----------|
--------2----------0----|------------------------|-------------12-----------|
--------2----------0----|--------2----------0----|--1--------------12-------|
--------2----------0----|--------4----------0----|--------------------------|
------------------------|------------------------|--------------------------|
--0--0-------0--0-------|--0--0-------0--0-------|--0-----0----0-------0----|


                                                                                
------------------------|--12-----------------------|--------------------------|
---------------------7--|-------------12------------|--------------------------|
--13--------------0-----|--------7--------------12--|--------------------------|
------------------------|-----------------7---------|------------12------------|
------------------------|---------------------------|-------7--------7---------|
--0-----0----0-------0--|--0-----0----0------0------|--0----0----0------0--12--|


                                                                            
-----------------------|-----------------------|--12-----------------------|
-----------------------|------------------7----|-------------12------------|
-----------------------|---------------0-------|--------7--------------12--|
-----------------------|-----------------------|-----------------7---------|
-----------------------|-----------------------|---------------------------|
------3--0--5--0--3----|--0----0----0-----0----|--0-----0----0------0------|


                                                   
--------------------------|-----------------------|
--------------------------|-----------------------|
--------------------------|-----------------------|
------------12------------|-----------------------|
-------7--------7---------|-----------------------|
--0----0----0------0--12--|------0----0--0--3--4--|


                                                                                
--------------12-------------|------------------------|------------------------|
------------------12---------|------------------------|------------12----1/-2--|
----------12-------------12--|------------------------|------------12----1/-2--|
-----------------------------|------------------------|------------------------|
--0----0------0-------0------|--0----0----0-----------|--0----0----------------|
-----------------------------|---------------0--3--4--|------------------------|


                                                                              
-------------------------|-----------------------|--12-----------------------|
-------------------------|------------------7----|-------------12------------|
-------2h-3h-2h-0--------|---------------0-------|--------7--------------12--|
-------------------2h-0--|--2--------------------|-----------------7---------|
----0--------------------|-----------------------|---------------------------|
-------------------------|--0----0----0-----0----|--0-----0----0------0------|


                                                                              
--------------------------|------------------------|-----------------0-------|
--------------------------|------------------------|--------3-----3-------3--|
--------------------------|------------------------|--------2-----2-------2--|
------------12------------|------------------------|-----1--------1-------1--|
-------7--------7---------|---------------0--1--2--|--2--------2-------------|
--0----0----0------0--12--|------0--0--3-----------|-------------------------|


                                                   
-------7-----7-----------|------------------------|
----7-----7-----7--------|-----2-------2----------|
-------------------------|-----4-------4----------|
-------------------------|-----5-------5------12--|
-------------------------|--0-------0-------------|
-------------------------|------------------------|


                                                        
-------------------------------|-----------------------|
---------12---12---------------|------------------7----|
----12------7------12----------|---------------0-------|
-------7---------7-------------|-----------------------|
--7-------------------7--------|-----------------------|
-------------------------------|--0----0----0-----0----|


                                                       
--12-----------------------|--------------------------|
-------------12------------|--------------------------|
--------7--------------12--|--------------------------|
-----------------7---------|------------12------------|
---------------------------|-------7--------7---------|
--0-----0----0------0------|--0----0----0------0--12--|


                                                      
-----------------------------|--4----10--------------|
-----------------------------|--5----11b-------------|
-----------------------4--6--|-----------------------|
---------------2----6--------|-----------------------|
---------2--4----------------|-----------------------|
------4----------------------|-------0-----0----0----|


                                                          
-----------------------------|--0-----------0------------|
-----11--10-----10-----8/-9--|--------3/-5--------3--3---|
-------------9------9--------|-----4-----------4-----2h4h|
-----------------------------|---------------------------|
-----------------------------|---------------------------|
--0------0------0------0-----|--0-----0-----0-----0------|


                                                            
--------------------------|--------------------------------|
--------3-----3-----------|--------------------------------|
--2-----2-----0-----------|--------------------------4--6--|
-----2-----2-----2--0--2--|-----------------2--4--6--------|
--------------------------|-----------2--4-----------------|
--0-----0-----0-----0-----|--0--2--4-----------------------|


                                                                            
--4----2----0-----------|--------------------------|-----------------------|
--5----3----0--3--------|--3--------------3--------|--3--------------------|
---------------4--2-----|--0--------------4--2-----|--0--------------------|
---------------------2--|-----2--0--2-----------2--|-----2--0--2-----------|
------------------------|--------------------------|-----------------------|
------------0-----0-----|--0-----0-----0-----0-----|--0-----0---------0----|


                                                                          
-----------------------|----------------0------|-------0-----0-----------|
-----------------------|-----------0-----------|-------2-----------2h-0--|
-----------------------|--0--------------------|-------0-----------------|
-------------2---------|-----2-----------------|-------------------------|
-----0------------4----|--------4--------------|--0----0--0-----0--------|
--5-----5--------------|-----------------------|-------------------------|


                                                                              
--------------------------|------------------------|--5-----3----0-----------|
--------------------------|---------------------0--|-------------------3/-5--|
--------2h-3h-2h-0--------|---------------3/-4-----|-----4----------4--------|
--------------------2h-0--|--2---------------------|-------------------------|
--0--0--------------------|------------------------|-------------------------|
--------------------------|--0----0----0-----0-----|--0-----0----0-----0-----|


                                                      
--0------------------------|-------------------------|
--------3--3---------3-----|--3-------------3--------|
-----4-----2h4h2-----2-----|--0-------------0--------|
------------------2-----2--|-----2h-0--2----2-----0--|
---------------------------|-------------------0-----|
--0-----0------0-----0-----|--0-----0----------------|


                                                                                
--------------------0--------|--------------0------------|-------0-------------|
--------3h-0-----3-----------|--3h-0-----3--0------------|-------0h---2--------|
-----2--------2-----------2--|--2--------2---------------|-------0-------------|
-----------------------------|--------1------------------|---------------------|
--2--------------2-----2-----|--2--------2-----2----1----|--0------------------|
-----------------------------|---------------------------|---------------------|


                                                                               
----0----------------------|------------------------|--5-----3----0-----------|
-------2h-0----------------|---------------------0--|-------------------3/-5--|
-------------2-3-2-0-------|---------------3/-4-----|-----4----------4--------|
---------------------2--0--|--2---------------------|-------------------------|
---------------------------|------------------------|-------------------------|
---------------------------|--0----0----0-----0-----|--0-----0----0-----0-----|


                                                    
--0-----------0------------|-----------------------|
--------3--5--------3--3---|-----------------------|
-----4-----------4-----2h4h|--2--------------------|
---------------------------|-------2--2------------|
---------------------------|-----------------------|
--0-----0-----0-----0------|--0----0-----0----0----|


                                                              
|---12-----------------0-------|--12-----------------0-------|
|---12--11--10------9----------|--12--11--10------9----------|
|*--------------12-------------|--------------12-------------|
|*-----------------------------|-----------------------------|
|------------------------------|-----------------------------|
|---0-------0-------0-----0----|--0-------0-------0-----0----|


                                                          
--12-----------------0--------|--0--------0-------------||
--12--11--10------9--------0--|--------0----------------||
--------------12--------7-----|-----7------------------*||
------------------------------|------------------------*||
------------------------------|-------------------------||
--0-------0-------0-----0-----|--0-----0-----0----0-----||


                                                                              
--0--------0-------------|-----9--------9--9--------|--9-----9--9------------|
--------0----------------|-----8--7-----7--8--7-----|--8-----7--8------------|
-----7-------------------|-----------9-----------9--|-----9------------------|
-------------------------|--------------------------|------------------------|
-------------------------|--0-----0-----0-----0-----|--0-----0-------0-------|
--0-----0-----0--0--3----|--------------------------|-------------------3/---|


                                                      
-----9--------9--9--------|--9-----9--9----------12--|
-----8--7-----7--8--7-----|--8-----7--8----------12--|
-----------9-----------9--|-----9--------------------|
--------------------------|-------------------0------|
--0-----0-----0-----0-----|--0-----0-----0-----------|
--------------------------|--------------------------|


                                                           
--12-----------------0--------|--0-----------0------------|
--12--11--10------9-----8--9--|--------3--5--------3--3---|
--------------12--------------|-----4-----------4-----2h4h|
------------------------------|---------------------------|
------------------------------|---------------------------|
--0-------0-------0-----0-----|--0-----0-----0-----0------|


                                                      
-------------------------|---------------------0--0--|
--3-----3-----3----------|---------------------0--0--|
--2-----0-----0----------|---------------------1--1--|
-----2-----2-----2h-0----|---------------------2--2--|
-------------------------|--2--1--0------------------|
--0-----0-----0-----0----|-----------3--0------------|


                                                            
--------------------0--------|--------------0------------0-|
--------3h-0-----3-----------|--3h-0-----3-------------0---|
-----2--------2-----------2--|--2-----2----------2--4------|
-----------------------------|-----------------------------|
--2--------------2-----2-----|--2--------2-----------------|
-----------------------------|-----------------------------|


                                                              
--6--5--3--5--0--4--0--------|-------------------------------|
-----------------------3--0--|-------------------------------|
-----------------------------|--2-3-2-0----------------------|
-----------------------------|----------2--0-----------------|
-----------------------------|----------------2--1--0--------|
-----------------------------|-------------------------3--0--|


                                                                            
-------------------------|------------------------|------------------------|
----------------------3--|--------2----------0----|------------------------|
-------2-----4--------4--|--------2----------0----|--------2----------0----|
----------------------4--|--------2----------0----|--------4----------0----|
-------4-----5-----------|------------------------|------------------------|
----0-----0-----0--0-----|--0--0-------0--0-------|--0--0-------0--0-------|


                                                          
-----0----------7/-9--9--|--10--10--12-11-9--7--------7--|
----------------7/-9--9--|--9---9---------9--7--------7--|
--1-------------7/-9--9--|--11--11--------9--7--------7--|
-------------------------|-------------------------------|
-------------------------|-------------------------------|
--0-----0----0-----0-----|--0-------------0--0--0--0-----|


                                                                         
-------5----4--------4--|-------2----0--------0--|----0----0----0----0--|
-------5----5--------5--|-------2----0--0--2--5--|----4----3----2----0--|
-------6----4--------4--|-------2----1--------5--|----4----3----2----1--|
------------------------|------------------------|----------------------|
------------------------|---------------------5--|----4----3----2-------|
--0----0----0--0--0-----|--0----0----0-----------|-------------------0--|


                                                                                
-------------------------|--------------------------|--------------------------|
-------------------------|-----------------------3--|--------2-----0-----------|
-------2-----4--------1--|--------2-----4--------4--|--------2-----1-----2--0--|
-------------------------|-----------------------6--|--------2-----0--------0--|
-------4-----5--------2--|--------4-----5-----------|--------------------4-----|
----0-----0-----0--0-----|--0--0-----0-----0--0-----|--0--0-----0-----0--------|


                                                      
-----0-----12-------------|--------------------------|
-----------12-------------|--------------------------|
--1--------------------1--|--------2-----4--------0--|
--------------------------|--------------------------|
-----------------------2--|--------4-----5--------2--|
--0-----0------0----0-----|--0--0-----0-----0--0-----|


                                                      
--------------------------|--------------------------|
-----------------------3--|--------2-----0-----------|
--------2-----4--------4--|--------2-----1-----2--0--|
-----------------------6--|--------2-----0--------0--|
--------4-----5-----------|--------------------4-----|
--0--0-----0-----0--0-----|--0--0-----0-----0--------|


                                                      
-----0-----------0--------|--------------------------|
-----------------------2--|--------3-----5--------2--|
--1--------------------2--|--------2-----6--------2--|
-----------------------2--|--------4-----5--------2--|
--------------------------|--0--0-----0-----0--0-----|
--0-----2--3--4-----0-----|--------------------------|


                                                      
--------------0--2-----3--|-----3--2-----0-----------|
--------3-----0--2-----2--|-----2--2-----0-----3-----|
--------2-----0--2-----4--|-----4--2-----0-----2-----|
--------4-----------------|--------------------4-----|
--0--0-----0--0-----0-----|--0-----0--0-----0-----0--|
--------------------------|--------------------------|


                                                      
--------------0-----0--0--|--------------------------|
--2-----------2-----2--0--|--------------------------|
--2-----------2-----2--0--|--1-----2-----4--------0--|
--2-----------------------|--------------------------|
-----0--1--2-----2--------|--------4-----5--------2--|
--------------------------|--0--0-----0-----0--0-----|


                                                                               
--------------------------|--------------------------|-----0------------------|
-----------------------3--|--------2-----0-----------|-----0----------3-------|
--------2-----4--------4--|--------2-----1-----2--0--|--1--1----------3-------|
-----------------------6--|--------2-----0--------0--|----------0-----2----0--|
--------4-----5-----------|--------------------4-----|-------------3----------|
--0--0-----0-----0--0-----|--0--0-----0-----0--------|--0---------------------|


                                                            
--------------------0--------|--------------0------------0-|
--------3h-0-----3-----------|--3h-0-----3-------------0---|
-----2--------2-----------2--|--2-----2----------2--4------|
-----------------------------|-----------------------------|
--2--------------2-----2-----|--2--------2-----------------|
-----------------------------|-----------------------------|


                                                              
--6--5--3--5--0--4--0--------|-------------------------------|
-----------------------3--0--|-------------------------------|
-----------------------------|--2-3-2-0----------------------|
-----------------------------|----------2--0-----------------|
-----------------------------|----------------2--1--0--------|
-----------------------------|-------------------------3--0--|


                                                                            
-------------------------|------------------------|------------------------|
----------------------3--|--------2----------0----|------------------------|
-------2-----4--------4--|--------2----------0----|--------2----------0----|
----------------------4--|--------2----------0----|--------4----------0----|
-------4-----5-----------|------------------------|--------4---------------|
----0-----0-----0--0-----|--0--0-------0--0-------|--0--0-------0--0-------|


                                                                         
-----0-----12------------|-----------------------|----------------------|
--1--------12------------|---------------0--2----|--3---------2---------|
-------------------------|-----------------------|--4---------2---------|
-------------------------|-----------------------|--4---------2---------|
-------------------------|-----------------------|----------------------|
--0-----0------0----0----|--0----0----0-----0----|--0----0----0----0----|


                                                         
---------------0--------|-----0----------5----6----7----|
--0---------3-----3-----|--0-----0-------5--------------|
--0---------5-----------|--6-------5-6-7-5--------------|
--0---------6-----------|--5----------------------------|
------------------------|--0-------------5--------------|
--0----0----0--------0--|-------------------------------|


                                                                             
--4--5-4-----------0--2--|--2-3-2-0-2-------0--0----|-----------3--0--------|
--5----------0--2--------|------------------2--2----|-----------3--2--------|
--4----------------------|--3---------------2--2----|--------5-----4--------|
-------------------------|--------------------------|-----6--------5--------|
--4----------------------|--3------------2-----2----|--------------0--------|
-------------------------|--------------------------|--0--------------------|


                                                                
-----------0-----5--6--7--|--10-0---0-9-0---0-10-0---0-9-0---0-|
--0-----------8-----------|-------8-------8--------8-------8---|
-----5--6-----------------|------------------------------------|
--------------------------|------------------------------------|
--------------------------|------------------------------------|
--------------------------|------------------------------------|


                                                                      
--8-0---0-7-0---0-6-0---0-5-0---0-|----0-----0-----------------------|
------8-------8-------8-------7---|--8---7---------0-----------------|
----------------------------------|--------8-----7---6-0---0-4-0---0-|
----------------------------------|------------9---------7-------5---|
----------------------------------|----------------------------------|
----------------------------------|----------------------------------|


                                                            
------------------------------|-------3----5/---7--7--7----|
----------------------3-5-3---|--3-------------------------|
--2-3-2-0----0--2--4--------4-|----------------------------|
----------2-------------------|----------------------------|
------------------------------|----------------------------|
------------------------------|----------------------------|


                                                                   
--6-7-6---0----------------------0-0-|--0-------0--------------0--|
--------8---5---0--------------------|----------------------------|
--------------7---6---0----------0-2-|--2-3-2-0-2--------0--1-----|
--------------------7---5---0--------|----------------------------|
--------------------------7---4------|--3-------------2-----------|
-------------------------------------|-------------0--------------|


                                                         
-------10-10---------9-9-----|------7-7---------5-5-----|
-----9-------------9---------|----7-----------5---------|
--11-------------9-----------|--7-----------5-----------|
-----------------------------|--------------------------|
-----------------------------|--------------------------|
-----------------------------|--------------------------|


                         
--------12-------------||
--0--------------------||
--13-------------------||
--12-------------------||
-----------------------||
--------------0--------||

**This song should be it =Þ
comments
We did not receive enough feedback on this tab! Please rate:
print report bad tab
1 2 3 4 5
1 comment total.
0 reply
Tim_Orme_Esq wrote on June 15 2007, 05:46 pm

wow, nice jorb

I want to post or [tab]
guest
You may want to rate the tab now too:
select rating
Please do not post tabs as comments. Select "correction" instead!