Oops, an error
Loading. Please wait.

U2 Medley Tab

ver1
ver1

Whole song

Interactive

More versions @911Tabs.com
42,943 views 48 this week
3 commentsread comments
1 2 3 4 5
excellent!
x 8
add to favorites launch autoscroll
font size
0
reset
Autoscroll
+/-
esc
set tempo
stop
Contributor
Difficulty
intermediate
WARNING: You are trying to view
                                    content from Ultimate-Guitar.com
                                    in an unauthorized application,
                                    which is prohibited.

                                    Please use an official Ultimate
                                    Guitar Tabs application for iPhone,
                                    iPad or Android to access legitimate
                                    chords, guitar, bass, and drum tabs
                                    from Ultimate-Guitar.com database.

                                    Type "ultimate guitar tabs" in Apple
                                    App Store's or Android Market's
                                    search to find the application.
U2 Medley - Doyle Dykes

                              
E  :---------------3-5-|3-h5-p3-5-/7----------|----7-p5-5--/10-----|
B  :---------------3---|----------------------|--------------------|
G  :---------------0---|----------------------|--------------------|
D  :<12>---------------|----------------------|--------------------|
G  :<12>---------------|----------------------|--------------------|
D  :-------------------|----------------------|--------------------|

                                                                       
E  :8-h10-p8-\7----7-h8-p7-\5-7-p5-\3|--------------3-|5---7-----------|
B  :---------------------------------|----------------|----x-----------|
G  :---------------------------------|----------------|----0-----------|
D  :---------------------------------|----------------|----------------|
G  :---------------------------------|----------------|----------------|
D  :---------------------------------|----------------|----------------|

                                                                
E  :------------------|--5-5-7-b8-r7-----5-|--------7-p5-\3-----|
B  :------------------|--------------------|--------------------|
G  :------------------|--------------------|--------------------|
D  :--------<7>-------|--------------------|--------------------|
G  :--------<7>-------|--------------------|--------------------|
D  :------------------|--------------------|--------------------|

                                                                       
E  :----------------|----3---3---3---|----------------|----3---3---3---|
B  :----------------|--1---1---1---0-|----------------|--1---1---1---0-|
G  :----------------|----------------|----0-------0---|----0-------0---|
D  :----------------|----------------|--0---0---0---0-|--0---0---0---0-|
G  :----------------|----------------|0---------------|0---------------|
D  :----------------|----------------|--------0-------|--------0-------|

                                                               
E  :----------------|----3---3---3---|-------------------------|
B  :----------------|--1---1---1---0-|----------------0--------|
G  :----0-------0---|----------------|---------0--------<12>---|
D  :--0---0---0-----|----------------|-----------<12>----------|
G  :0---------------|0---------------|----<12>-----------------|
D  :--------0-------|----------------|-------------------------|

                                                         
E  :-------------3---3-|--3---3---3---3-|----------------|
B  :-----------1---1---|1---1---1---1---|----------------|
G  :-------------------|----------------|----------------|
D  :-------------------|----------------|----------------|
G  :-------------------|----------------|----------------|
D  :<12>---------------|----------------|----------------|

                                                                   
E  :--------------------|--------------------|---------------------|
B  :0---(0)-----0-(0)---|----(0)-0---1-(1)-0-|----(0)-------(0)----|
G  :0---(0)-------(0)-2-|----(2)-------(0)---|--0-(0)-0---0-(0)----|
D  :0---(0)-------(0)---|----(0)-------(0)---|----(2)-------(2)-/--|
G  :0---------0---------|--------------------|---------------------|
D  :--------------------|0---------0---------|2---------2----------|

                                                                    
E  :----------------------|--------------------|--------------------|
B  :----(0)------0-(1)-3~-|----(3)-0-----(0)---|----(0)-1---0-(0)---|
G  :--0-(0)-0------(0)----|--0-(0)-----0-(0)-2-|----(2)-------(2)-0-|
D  :----(5)--------(0)----|----(0)-------(0)---|--0-(0)-------(0)---|
G  :5---------5\----------|0---------0---------|--------------------|
D  :----------------------|--------------------|0---------0---------|

                                                                
E  :--------------------|------------------|--------------------|
B  :----(0)-------(0)---|------------------|----(0)-----0-(1)-0-|
G  :--0-(0)-0---0-(0)---|------------------|----(0)-0-----(0)---|
D  :----(2)-------(2)-2-|/5-5-5-5-5-5-5-/7-|0---(0)-------(0)---|
G  :------------------2-|/5-5-5-5-5-5-5-/7-|0---------0---------|
D  :2---------2---------|------------------|--------------------|

                                                                  
E  :--------------------|--------------------|--------------------|
B  :----(0)-------(0)-0-|----(0)-----1-(1)-0-|----(0)-------(0)---|
G  :--2-(2)-0---2-(2)---|----(0)-------(0)---|--2-(2)-0---2-(2)-0-|
D  :----(0)-------(0)---|--2-(2)-2-----(2)---|----(0)-------(0)---|
G  :--------------------|--------------------|5---------5---------|
D  :0---------0---------|2---------2---------|--------------------|

                                                                    
E  :----------------------|--------------------|--------------------|
B  :----(0)--------(0)-3~-|----(0)-------(0)---|--0-(0)-------(0)---|
G  :--0-(0)-0----0-(0)----|--0-(0)-0-----(0)---|----(0)-0-----(0)---|
D  :----(0)--------(0)----|----(0)-----0-(0)-2-|----(2)-----2-(2)-2-|
G  :----------------------|--------------------|------------------2-|
D  :5---------5\----------|0---------0---------|2---------2---------|

                                                                
E  :------------------|--------------------|--------------------|
B  :------------------|----(0)-----0-(1)-0-|----(0)-------(0)-0-|
G  :------------------|----(0)-0-----(0)---|--2-(2)-0---2-(2)---|
D  :/5-5-5-5-5-5-5-/7-|0---(0)-------(0)---|----(0)-------(0)---|
G  :/5-5-5-5-5-5-5-/7-|0---------0---------|--------------------|
D  :------------------|--------------------|0---------0---------|

                                             134                   
E  :--------------------|--------------------|---------------------|
B  :----(0)-----1-(1)-0-|----(0)-------(0)---|----(0)-------(0)-3~-|
G  :----(0)-------(0)---|--2-(2)-0---2-(2)-0-|--0-(0)-0---0-(0)----|
D  :--2-(2)-2-----(2)---|----(0)-------(0)---|----(0)-------(0)----|
G  :--------------------|5---------5---------|0---------0----------|
D  :2---------2---------|--------------------|---------------------|

                                                                   
E  :--------------------|---------------------|--------------------|
B  :----(3)-------(3)---|--0-(0)-------(0)----|----(0)-------(0)---|
G  :----(0)-------(0)---|----(0)-------(0)----|--0-(0)---0---(0)-2-|
D  :--0-(0)-0---0-(0)-2-|----(2)-2---2-(2)-/--|----(5)-0---0-(0)---|
G  :--------------------|---------------------|5---------5---------|
D  :0---------0---------|2---------2----------|--------------------|

                                                                  
E  :--------------------|--------------------|--------------------|
B  :--0-(0)-------(0)---|----(0)-------(3)---|1---(1)-0-----(0)---|
G  :----(0)-2---0-(0)---|----(0)---2-2-(2)---|2---(2)-0---2-(2)-0-|
D  :----(0)-------(0)-0-|--0-(0)-0-----(0)-0-|----(2)-------(2)---|
G  :0---------0---------|--------------------|--------------------|
D  :--------------------|0---------0---------|2---------2---------|

                                                                  
E  :--------------------|--------------------|--------------------|
B  :----(0)-------(0)-0-|----(0)-------(0)---|----(0)-------(0)---|
G  :----(0)---0-2-(2)-0-|----(0)-------(0)-0-|----(2)---2-2-(2)---|
D  :----(5)-------(0)---|--0-(0)-0---0-(0)---|--0-(0)-0-----(0)-0-|
G  :5-5-------5---------|0---------0---------|--------------------|
D  :--------------------|--------------------|0---------0---------|

                                                              
E  :--------------------|----------------|--3-----------------|
B  :----(0)-------(0)---|----8---8---8-0-|----(0)-------(0)---|
G  :2---(2)-0-----(0)---|--5---5---5-----|----(0)-------(0)-0-|
D  :--2-(2)-----2-(2)-0-|----------------|----(0)-0---0-(0)---|
G  :--------------------|5---------------|0-------------------|
D  :2---------2---------|----------------|----------0---------|

   135                                                          
E  :----3---3---(3)---|--3-----------------|------------------5-|
B  :------1---1-(1)-0-|----(0)-------(0)---|----(8)---8---(8)---|
G  :--0---------(0)---|----(0)-------(0)-0-|--5-(5)-5---7-(7)---|
D  :------------(0)---|----(0)-0---0-(0)---|----(5)-------(5)---|
G  :------------------|--------------------|5---------5---------|
D  :0-------0---------|2---------2---------|--------------------|

                                                                  
E  :--------------------|--------------------|5-------3-3---(3)-0-|
B  :----(8)-8-8---(8)-5-|----(5)-----8-(8)---|----(0)-------(0)---|
G  :----(7)-----7-(7)---|--7-(7)-----7-(7)---|--0-(0)-------(0)---|
D  :--5-(5)-------(5)---|--7-(7)-7-----(5)-0-|----(0)-----0-------|
G  :--------------------|--------------------|--------------------|
D  :5---------5---------|0---------0---------|2---------2---------|

                                                                  
E  :------------3-(3)-5-|------------3-(3)-5-|------------3-(3)---|
B  :--3-(3)-----3-(3)---|----(3)-----3-(3)---|----(3)-----3-(3)---|
G  :----(0)-------(0)---|----(0)-------(0)---|--2-(2)-------(0)---|
D  :----(5)-0-----(0)---|--0-(0)-------(0)---|----(0)-0---------0-|
G  :5---------5---------|0-------0-0---------|--------------------|
D  :--------------------|--------------------|0---------0---------|

                        136                                      
E  :5-------3-3---(3)-0-|-------------------|--------------------|
B  :3---(3)-------(3)---|--3-(3)-----3------|----(0)-----0-(0)---|
G  :--0-(0)-----0-(0)---|----(0)-0----------|----(0)-------(0)-2-|
D  :----(0)-------------|----(0)------------|----(0)-0-----(0)---|
G  :--------------------|5---------5---5-/7-|0---------0---------|
D  :2---------2---------|-------------------|--------------------|

                                                                   
E  :--------------------|--------------------|---------------------|
B  :----(0)-------(0)---|----(0)-----0-(0)---|-----(8)-------(8)---|
G  :----(2)-----2-(0)---|----(0)-0-----(0)---|-----(7)-------(7)---|
D  :--0-(0)-------(0)---|--2-(2)-------(2)-2-|/7-5-(5)-7---5-(5)-0-|
G  :--------------------|--------------------|-5---------5---------|
D  :0-------0-0-------1-|2---------2---------|---------------------|

                                                                   
E  :-------------------0-|--------------------|0-3-(3)-3---0-----5-|
B  :---3-(3)-3---0-(0)---|--3-(3)-----3-(3)---|0-3-(3)-3---0-(5)-5-|
G  :/4---(4)-4---0-(0)---|----(0)-------(0)---|----(0)-------(7)---|
D  :-----(0)-------(0)---|----(0)-0-----(0)-0-|--------------(5)---|
G  :-0---------0---------|--------------------|--------------------|
D  :---------------------|0---------0---------|2---------2---------|

                                                                  
E  :--------------------|5-------3-3---(3)-0-|--------------(3)---|
B  :--8-(8)-------(8)---|3---(3)-----3-(3)---|--3-(3)-----3-(3)---|
G  :----(7)-5---7-(7)---|--0-(0)-------(0)---|----(2)-2-----(2)---|
D  :----(5)-------(5)-0-|----(0)-------------|----(0)-------(0)-0-|
G  :5---------5---------|0---------0---------|--------------------|
D  :--------------------|--------------------|0---------0---------|

   137                                                            
E  :5-------3-3---(3)-0-|------------3-(3)-5-|------------3-(3)-5-|
B  :3---(3)-----3-(3)---|--3-(3)-------(3)---|----(3)-------(3)---|
G  :--0-(0)-------(0)---|----(0)-0-----(0)---|--0-(0)-------(0)---|
D  :----(2)-------------|----(5)-------------|----(0)-------------|
G  :--------------------|5---------5---------|0-------0-0---------|
D  :2---------2---------|--------------------|--------------------|

                        138                                     
E  :------------3-(3)---|5-------3-3---(3)-0-|------------3-3-5-|
B  :--3-(3)-----3-(3)---|3---(3)-----3-(3)---|--3-(3)---3-3-3-8-|
G  :--2-(2)-------(2)---|--0-(0)-----0-(0)---|--0-(0)-0-0-0-0-7-|
D  :----(0)-0---------0-|----(2)-------------|----(5)---5---5---|
G  :--------------------|--------------------|5-----------------|
D  :0---------0---------|2---------2---------|------------------|

                                               139                
E  :-*--7-7-------------|----------------10-*-|-8---*-7-*-3-/5*-3-|
B  :(8)-8-8-------(8)---|----------10-10-10-*-|10---*-8-*-3---*-3-|
G  :(7)-0-0-----0-(0)---|----(7)-7--------7-*-|-7---x-7-*-------0-|
D  :(5)---0-------(0)---|--7-(7)------------*-|-----x-----0-----5-|
G  :----------0-------0-|----(7)------------7-|-9---x-9-*-------5-|
D  :--------------------|0----------0---------|-------------------|

                                                                  
E  :----(5)---3-5-(3)-7-|----(7)-------(7)---|----(5)---5-5-(7)-*-|
B  :----(3)---3-3-(3)-8-|----(8)-------(8)---|----(3)---3---(3)---|
G  :--0-(0)---0-0-(0)---|--0-(0)-----0-(0)---|--2-(2)-2-----(x)---|
D  :--------------------|----(0)-0-----(0)-0-|----(0)---0---(0)-0-|
G  :5-------5-5---------|0---------0---------|--------------------|
D  :--------------------|--------------------|0---------0---------|

                      138                                 
E  :5-------3---3---3-|--3---3---3-3---|7-x----8-x-7-x----|
B  :3-------3---3-3-3-|--3-3-3-3-3-3---|8-x---10-x-8-x-10-|
G  :--0-(0)-0-----0-0-|0-0-0-0-0-0-0---|0-0----0---0----7-|
D  :----(0)---------0-|5-5-5---5---5---|0-0-0----0---0--7-|
G  :----(x)-----------|5---5---5---5-0-|----0----0---0--7-|
D  :2---------2-------|----------------|------------------|

                                                    
E  :---------------------------|10-10-10--8-x-7-x---|
B  :----10----10-10----10-10-*-|-8--8--8-10-x-8-x-8-|
G  :--7--7-h9--9--9-p7--7--7-*-|-0-----0--0---0---5-|
D  :-----7-----7--7-----7--7-*-|-0-----0----0---0-5-|
G  :-----7--------7--------7-9-|------------0---0-5-|
D  :0--------------------------|--------------------|

                           137                                       
E  :--------------------3/-|7-x----8-x-7-x----|--------------7--*--3-|
B  :----8----8-8----8-8-*--|8-x---10-x-8-x-10-|----(10)-----10-(x)---|
G  :--5-5-h7-7-7-p5-5-5-*--|0-0-0--0-0-0-0--7-|--7-(-7)-7------(0)---|
D  :----5----5-5------5-*--|0-0-0--0-0-0-0--7-|----(-7)--------(0)---|
G  :5---5------5------5-0--|----0----0---0--7-|----------------------|
D  :-----------------------|------------------|0----------0----------|

                                                                  
E  :----(3)-------(3)---|--------------------|--------------------|
B  :----(3)-------(3)---|----(3)-------(3)---|--0-(0)-------(3)---|
G  :--0-(0)-0---0-(0)-0-|----(0)---0---(0)-2-|----(0)-------(0)-0-|
D  :--------------------|--0-(0)-0---0-(0)---|----(0)-----0-(0)---|
G  :--------------------|5---------5---------|0-------------------|
D  :2---------2---------|--------------------|--------0-0---------|

                                                                
E  :------3---3---(3)---|--3-----------------|----3---3---(3)---|
B  :(3)-1---1---1-(1)-0-|----(0)-------------|--1---1---1-(1)-0-|
G  :(0)-----------(0)---|----(0)-----0-(0)-2-|------------(0)---|
D  :(0)---0-------(0)---|----(0)-0-----(0)---|----0-------(0)---|
G  :----------2---------|0-------------(0)---|2-------2---------|
D  :--------------------|----------0---------|------------------|

   138                                                                
E  :--------------------------------|---------------------------------|
B  :0-------------------------------|---------------------------3-----|
G  :0-------------------------------|--------------------2-/4-------4-|
D  :0-------------------------------|--------------------0------------|
G  :0---0-0-0---0-0-0---0-0-0---0-0-|0---0-0-0---0-0-0---0----0---0---|
D  :--------------------------------|---------------------------------|

                                                                       
E  :---------------------------------|---------------------------------|
B  :3-------------------3-h5---3-----|---------------------------3-----|
G  :---------------------------------|4-------------------2-/4-------4-|
D  :----0-------0-------0--------0---|----0-------0-------0--------0---|
G  :0-------0-------0--------0-------|0-------0-------0--------0-------|
D  :---------------------------------|---------------------------------|

                                                                        
E  :--------------------0------------|----------------------------------|
B  :3-------------------3-h5---3-----|----------------------------------|
G  :---------------------------------|4---------------2-h4----2---0-----|
D  :----0-------0-------0--------0---|----0-------0---------0-------0---|
G  :0-------0-------0--------0-------|0-------0-------0---------0-------|
D  :---------------------------------|----------------------------------|

                                                                           
E  :-----------------------------------|-----------------------------------|
B  :----------------------0-h1---1---1-|0-h1---1-1-------------------------|
G  :0-h2----0-----0-------0------0-0-0-|0------0-0-------2-/4----2---0-----|
D  :------0-----2-0-------0-h2---2-2-2-|0-h2---2-2---0---------0-------0---|
G  :5---------5-------5---0--------0---|0--------0-------5---------5-------|
D  :-----------------------------------|-----------------------------------|

   1  37                               
E  :-----------------------------------|
B  :----------------------0-h1---1---1-|
G  :3-p2----0-----0-------0------0-0-0-|
D  :------0-----2-0-------0-h2---2-2-2-|
G  :0---------0-------0---0--------0---|
D  :-----------------------------------|

                                                                           
E  :-------------------------------3-----|3-------------------3--5---3-----|
B  :1-h0---0-0--------------1-/3---3---3-|3-------------------3-h5---3-----|
G  :0------0-0---<12>-------2-/4-------4-|---------------------------------|
D  :2-h0---0-0---<12>-------0--------0---|----0-------0-------0--------0---|
G  :0--------0---------------------------|0-------0-------0--------0-------|
D  :--------------------0--------0-------|---------------------------------|

                                                                       
E  :---------------------------3-----|3-------------------3--5---3-----|
B  :3-------------------1-/3---3---3-|3-------------------3-h5---3-----|
G  :4-------------------2-/4-------4-|---------------------------------|
D  :----0-------0-------0--------0---|----0-------0-------0--------0---|
G  :0-------0-------0--------0-------|0-------0-------0--------0-------|
D  :---------------------------------|---------------------------------|

                                                                          
E  :----------------------------------|-----------------------------------|
B  :3---------------0-----------------|----------------------0-h1---1---1-|
G  :4---------------2-/4----2---0-----|0-h2----0-----0-------0------0-0-0-|
D  :----0-------0---------0-------0---|------0-----2-0-------0-h2---2-2-2-|
G  :0-------0-------0---------0-------|5---------5-------5---0--------0---|
D  :----------------------------------|-----------------------------------|

                                       1  37                               
E  :-----------------------------------|-----------------------------------|
B  :0-h1---1-1-------------------------|----------------------0-h1---1---1-|
G  :0------0-0-------0-h4----2---0-----|3-p2----0-----0-------0------0-0-0-|
D  :0-h2---2-2---0---------0-------0---|------0-----2-0-------0-h2---2-2-2-|
G  :0--------0-------5---------5-------|0---------0-------0---0--------0---|
D  :-----------------------------------|-----------------------------------|

   1  38                                                              
E  :------------------------|--------------------|--------------------|
B  :1-h0-0---<12>---------3-|----(3)-----1-(0)---|----(0)-------(3)---|
G  :0----0---<12>-----(0)---|----(0)-------(0)-0-|--0-(0)-------(0)---|
D  :2-h0------------4-(x)---|--0-(0)-0-----------|----(5)-5---2-(0)-2-|
G  :0------0------0---(0)---|--------------------|5-------------------|
D  :------------------------|0---------0---------|----------0---------|

                                                                  
E  :--------------------|--------------------|--------------------|
B  :----(0)-------(0)---|----(3)-----------3-|----(3)-----1-(0)---|
G  :--0-(0)-0-----(0)---|----(0)-----0-(0)---|----(0)-------(0)-0-|
D  :----(0)-----5-(5)---|--0-(0)-0-----(0)---|--0-(0)-0-----(0)---|
G  :0---------0-------0-|0---------0---(0)---|--------------------|
D  :--------------------|--------------------|0---------0---------|

                                                            
E  :--------------------|----------x-x-x-|x-x-x-x-x---------|
B  :----(0)-------------|--0---0---x-x-x-|x-x-x-x-x-0-1-1-0-|
G  :----(0)-----2-(0)-2-|*-0---0---0-0-0-|0-0-0-0-0-0-0-0-0-|
D  :--0-(0)-0---2-(0)-2-|*-0---0-----0---|0---0---0-0-2-2-0-|
G  :5-------------(0)---|--0---0---------|------------0-0-0-|
D  :----------0---------|----------------|------------------|

                                                            
E  :-----------------------------|--------------------------|
B  :-----------------------------|------------------0-1-1-0-|
G  :-----------------------------|------------------0-0-0-0-|
D  :0----------0-----------------|0----------0------0-2-2-0-|
G  :0----0-0-0-0----0-0-0-0-0----|0----0-0-0-0----0---0-0-0-|
D  :3-/5-5-5-5-3-/5-5-5-5-5-5--\3|3-/5-5-5-5-3-/5-5---------|

                                                            
E  :-----------------------------|--------------------------|
B  :-----------------------------|------------------0-0-0-1-|
G  :-----------------------------|------------------0-0-0-0-|
D  :0----------0-----------------|0----------0------0-0-0-2-|
G  :0----0-0-0-0----0-0-0-0-0----|0----0-0-0-0----0---0-0-0-|
D  :3-/5-5-5-5-3-/5-5-5-5-5-5--\3|3-/5-5-5-5-3-/5-5---------|

                                                       
E  :3-3-3-3-3-3-3----3-3-3-3-3-3|3----3-3-3-3----------|
B  :1-1-1-1-1-1-1-h3-3-3-3-3-3-3|1-h3-3-3-3-1--0-0-----|
G  :0---0---0---0------0---0-0--|0------0---0--0-0-----|
D  :2-----------2---------------|2----------2--0-0-0---|
G  :0---------------------------|----------------0-0---|
D  :0---------------------------|------------------0---|

                                 13 9                                     
E  :-----------------------------|--------------------------------10------|
B  :-----------------------------|------------------------8-/12--------12-|
G  :-----------------------------|----------------------------------------|
D  :-----------0-----------------|0-----------------------0----------0----|
G  :---0-0-0-0-0----0-0-0-0-0----|0---------------------------------------|
D  :/5-5-5-5-5-3-/5-5-5-5-5-5--\3|3-/5----\-0---(0)---0---------0---------|

    1 40                                  
E  :10~-------------------10-h12---10-----|
B  :--------------------------------------|
G  :--------------------------------------|
D  :------0-------0--------0----------0---|
G  :-0--------0-------0----------0--------|
D  :--------------------------------------|

                     141                  
E  :------------------------------10------|
B  :12~-------------------8-/12--------12-|
G  :--------------------------------------|
D  :------0-------0-------0----------0----|
G  :-0--------0-------0---------0---------|
D  :--------------------------------------|

                                          
E  :10~-------------------10-h12---10-----|
B  :--------------------------------------|
G  :--------------------------------------|
D  :------0-------0--------0----------0---|
G  :-0--------0-------0----------0--------|
D  :--------------------------------------|

                                                                          
E  :------------------5-h7---5---------|5-----5-h7-----------5-h7---7-7-7-|
B  :12\--------------------------8-----|8------------8-------8------8-8-8-|
G  :---------------------------------5-|-----------5---------5--------5---|
D  :------0-------0--------0-------0---|----5--------5-------5------------|
G  :-0--------0-------0--------0-------|5--------5-------5----------------|
D  :-----------------------------------|----------------------------------|

   14 2                                                                  
E  :5-h7---7-7-------5-h7---5---------|----------------------------------|
B  :8------8-8-----8------------8-----|10-----8-----8-------8------8-8-8-|
G  :5--------5-5--------------------7-|-----------7---------7-p5---5-5-5-|
D  :5------------5--------5-------0---|-----0-------0-------5--------5-5-|
G  :-----------------5--------5-------|-0-------0-------0----------------|
D  :----------------------------------|----------------------------------|

                                           
E  :------x------------------------10------|
B  :0---x-x-----<12>-------8-/12--------12-|
G  :0---0-0-----<12>-----------------------|
D  :0---0------------------0----------0----|
G  :--------0------------------------------|
D  :-------------------0---------0---------|

    1 41.5                                 
E  :10~-------------------b13-r12---10-----|
B  :---------------------------------------|
G  :---------------------------------------|
D  :------0-------0---------0----------0---|
G  :-0--------0-------0-----------0--------|
D  :---------------------------------------|

                                          
E  :------------------------------10------|
B  :12~-------------------8-/12--------12-|
G  :--------------------------------------|
D  :------0-------0-------0----------0----|
G  :-0--------0-------0---------0---------|
D  :--------------------------------------|

                                           
E  :10~-------------------10-h12---10------|
B  :------------------------------------12-|
G  :---------------------------------------|
D  :------0-------0--------0----------0----|
G  :-0--------0-------0----------0---------|
D  :---------------------------------------|

                       14 1                 
E  :--12-----10--------12------10-----------|
B  :------------12--------12--------12\-----|
G  :----------------------------------------|
D  :-----0---------0---------0----------0---|
G  :0---------0---------0---------0---------|
D  :----------------------------------------|

                                                                        
E  :5-------------------5-h7---7-7-7-|5-h7---7-7-------5-h7---5---------|
B  :8-----8-----8-------8------8-8-8-|8------8-8-----8------------8-----|
G  :----------5---------5--------5---|5--------5-5--------------------7-|
D  :----5-------5-------5------------|5------------5--------5-------0---|
G  :5-------5-------5----------------|-----------------5--------5-------|
D  :---------------------------------|----------------------------------|

    140                                                        
E  :----------------------------------|----x----------2-(3)-10-|
B  :10-----8-----8-------8------8-8-8-|0-x-x---<12>-----(3)--8-|
G  :-----------7---------7-p5---5-5-5-|0-0-0---<12>-----(0)----|
D  :-----0-------0-------5--------5-5-|0-0------------0--------|
G  :-0-------0-------0----------------|------0------0----------|
D  :----------------------------------|------------------------|

   138        136     13 4                                         
E  :----(10)-----8-(7)*3-|----(3)-------------|--3-----3-----(3)---|
B  :----(-8)-------(8)*3-|----(3)-----5-(3)-5-|--3-(3)-3-----(3)---|
G  :--7-(-7)-----7-(7)*0-|--0-(0)-----4-(0)-4-|--0-(0)-0---0-(0)-0-|
D  :---------7-----------|--------5-----(0)---|----(0)-------(0)---|
G  :---------------------|5-------------------|0---------0---------|
D  :0----------0---------|----------0---------|--------------------|

             135         136        137        138                
E  :----(3)-----2-(3)-10-|----(10)-----8-(7)*3-|----(3)-----5-3-5-|
B  :----(3)-------(3)--8-|----(-8)-------(8)*3-|----(3)-----7-5-7-|
G  :--0-(0)-0-----(0)----|--7-(-7)-----7-(7)*0-|--0-(0)-----0-0-0-|
D  :---------------------|---------7-----------|----(5)-5-----0---|
G  :0---------0----------|---------------------|5-----------------|
D  :---------------------|0----------0---------|----------0-------|

                                         1  3 7                        
E  :*-7---7---x-x-x-|x-x-x-x-------------|-----------------------------|
B  :*-8---8---x-x-x-|x-x-x-x-0---0-1-1-0-|-----------------------------|
G  :*-0---0---0-0-0-|0-0-0-0-0-0-0-0-0-0-|-----------------------------|
D  :------0-----0---|0---0---0-0-0-2-2-0-|0----------0-----------------|
G  :------0---------|----------0---0-0-0-|0----0-0-0-0----0-0-0-0-0----|
D  :----------------|--------------------|3-/5-5-5-5-3-/5-5-5-5-5-5--\3|

                                                            
E  :--------------------------|-----------------------------|
B  :------------------0-1-1-0-|-----------------------------|
G  :------------------0-0-0-0-|-----------------------------|
D  :0----------0------0-2-2-0-|0----------0-----------------|
G  :0----0-0-0-0----0---0-0-0-|0----0-0-0-0----0-0-0-0-0----|
D  :3-/5-5-5-5-3-/5-5---------|3-/5-5-5-5-3-/5-5-5-5-5-5--\3|

                                                           
E  :--------------------------|3-3-3-3-3-3-3----3-3-3-3-3-3|
B  :------------------0-0-0-1-|1-1-1-1-1-1-1-h3-3-3-3-3-3-3|
G  :------------------0-0-0-0-|0---0---0---0------0---0-0--|
D  :0----------0------0-0-0-2-|2-----------2---------------|
G  :0----0-0-0-0----0---0-0-0-|0---------------------------|
D  :3-/5-5-5-5-3-/5-5---------|0---------------------------|

                                                         
E  :3----3-3-3-3-----------|-----------------------------|
B  :1-h3-3-3-3-1---0-------|-----------------------------|
G  :0------0---0-0-0-0-----|-----------------------------|
D  :2----------2-0-0-0-0---|-----------0-----------------|
G  :-------------0---0-0---|---0-0-0-0-0----0-0-0-0-0----|
D  :-------------------0---|/5-5-5-5-5-3-/5-5-5-5-5-5--\3|

   1  36                                                    
E  :---------------------|3----3-3-3-3-3----3-3-3-3-3----3-3|
B  :-------------0-1-1-0-|1-h3-3-3-3-3-1-h3-3-3-3-3-3-p1-1-1|
G  :-----------0-0-0-0-0-|0----0-0-0-0-0----0-0-0-0-0----0-0|
D  :0--------0-0-0-2-2-0-|0----0---0---0----0---0---0----0--|
G  :0--------0-0---0-0-0-|0------------0------------0-------|
D  :3-/5--\0-------------|----------------------------------|

   1  3 5               134                                  
E  :3----3-3-3-3-3-*---------|3----3-3-3-3-3----3-3-3-3-3----|
B  :1-h3-3-3-3-3-3-*---0-1-0-|1-h3-3-3-3-3-1-h3-3-3-3-3-3----|
G  :0----0-0-0-0-0---0-0-0-0-|0----0-0-0-0-0----0-0-0-0-0---0|
D  :0----0---0---0-0-0-0-2-0-|0----0---0---0----0---0---0-0-0|
G  :0------------0-0---0-0-0-|0------------0------------0-0--|
D  :-------------------------|-------------------------------|

                           133                                            
E  :/7-7-7-7-7-*-----------|----------0-0-0-0-0-2-2-2|2-3-3-3-3-----------|
B  :/8-8-8-8-8-*---0---0-1-|1-1-1-1-1-1-1-1-1-1-1-1-1|1-1-1-1-1-----1-1---|
G  :-0-0-0-0-0---0-0---0-0-|0-0-0-0-0-0-0-0-0-0-0-0-0|0-0-0-0-0---0-0-0-0-|
D  :-0-0-----0-0-0-0-0-2-2-|2-2-2-2-2-2-2---2---2-2--|2-2-----2-0-0-0-2-0-|
G  :---------0-0-----0-0-0-|0-0---0------------------|----------0---0-0-0-|
D  :-----------------------|0------------------------|--------------------|

                                       13 4                                
E  :----10---10-10------10---10-----10|10------10-----*--------------------|
B  :7-7--7-7--7--7-h8-8--8-8--8-8-8--8|-7-h8-8--8-8---*--------0---1---0---|
G  :7-7--7-7--7--7----7--7-7--7-7-7--7|-7----7--7-7----------0-0---0---0---|
D  :0-0--0-0--0--0----0--0-0--0-0-0--0|-0----0--0-0--------0-0-0---2---0---|
G  :0-0----0-----0----0----0----0-0---|-0----0----0---7\---0---0---0---0---|
D  :----------------------------------|------------------------------------|

    13  5                                                
E  :15--------15-----15-15--------15-----15-15--------15-|
B  :13-p12-12-13-p12-12-13-p12-12-13-p12-12-13-p12-12-12-|
G  :-0------0--0------0--0------0--0------0--0------0--0-|
D  :-0------0--0------0--0------0--0------0--0------0--0-|
G  :-0------0------------0------0------------0------0----|
D  :-----------------------------------------------------|

    13  6                                     
E  :15--------15-----15-15\-------------------|
B  :13-p12-12-13-p12-12-13\-------0-0-1---0---|
G  :-0------0--0------0--0------0-0-0-0---0---|
D  :-0------0--0------0--0----0-0-0-0-2---0---|
G  :-0------0------------0----0---0---0---0---|
D  :------------------------------------------|

   137                                                
E  :-------15-----15-15--------15-----15-15--------15-|
B  :----12-13-p12-12-13-p12-12-13-p12-12-13-p12-12-12-|
G  :0----0--0------0--0------0--0------0--0------0--0-|
D  :0----0--0------0--0------0--0------0--0------0--0-|
G  :0----0------------0------0------------0------0----|
D  :0-------------------------------------------------|

                                              
E  :15--------15-----15-15\-------------------|
B  :13-p12-12-13-p12-12-13\-------0---0---1---|
G  :-0------0--0------0--0------0-0---0---0---|
D  :-0------0--0------0--0----0-0-2---2---2---|
G  :-0------0------------0----0---0---0---0---|
D  :------------------------------------------|

                                             
E  :3-------/----15-------15---15-15------15-|
B  :1-------/----12-h13---13---13-13---13-13-|
G  :0-----0----0--0--------0----0--0----0--0-|
D  :2---2-2--0-0--0--------0----0--0----0--0-|
G  :0---0----0----0--------0-------0----0----|
D  :0----------------------------------------|

    13  8                                     
E  :15--------15----15-15---------------------|
B  :12-h13-13-13-13-13-12-h13-----0---1---*---|
G  :-0------0--0--0--0--0-------0-0---0---0---|
D  :-0------0--0--0--0--0-----0-0-0---2---0---|
G  :-0------0-----0-----0-----0---0---0---0---|
D  :--------------------------------------0---|

                                                       
E  :--------15-----15-15--------15-----15-15--------15-|
B  :12---12-13-p12-12-13-p12-12-13-p12-12-13-p12-12-12-|
G  :-0----0--0------0--0------0--0------0--0------0--0-|
D  :-0----0--0------0--0------0--0------0--0------0--0-|
G  :-0----0------------0------0------------0------0----|
D  :---------------------------------------------------|

                           1 3 7        1 36            
E  :15--------15----15---2-(3)-10-|----(10)-----8-(7)*3-|
B  :13-p12-12-13-13-12-----(3)--8-|----(-8)-------(8)*3-|
G  :-0------0--0--0--0-----(0)----|--7-(-7)-----7-(7)*--|
D  :-0------0--0--0--0---0--------|---------7-----------|
G  :-0------0-----0----0----------|---------------------|
D  :------------------------------|0----------0---------|

   135                                       136                     
E  :----(3)-------------|--3-----3-----(3)---|----(3)-------2-(3)-10-|
B  :----(3)-----5-(3)-5-|--3-(3)-3-----(3)---|----(3)---------(3)--8-|
G  :--0-(0)-----4-(0)-4-|--0-(0)-0---0-(0)-0-|--0-(0)-0-(0)---(0)----|
D  :--------5-----(0)---|----(0)-------(0)---|-----------------------|
G  :5-------------------|0---------0---------|0----------------------|
D  :----------0---------|--------------------|-----------------------|

   137                                                       
E  :----(10)-----8-(7)*3-|----(3)-----5-3-5-|*-7---7---x-x-x-|
B  :----(-8)-------(8)*3-|----(3)-----7-5-7-|*-8---8---x-x-x-|
G  :--7-(-7)-----7-(7)*0-|--0-(0)-----0-0-0-|*-0---0---0-0-0-|
D  :---------7-----------|----(5)-5---0-0-0-|--0---0-----0---|
G  :---------------------|5-------------0---|--0---0---------|
D  :0----------0---------|----------0-------|----------------|

                       135                                       
E  :x-x-x-x-x---------|---------------------|--------------------|
B  :x-x-x-x-x-0-1-1-0-|-0---(0)-----0-(0)---|----(0)-0---1-(1)-0-|
G  :0-0-0-0-0-0-0-0-0-|-0---(0)-0-----(0)---|----(2)-------(0)---|
D  :0---0---0-0-2-2-0-|-0-------------(0)---|----(0)-------(0)---|
G  :------------0-0-0-|-0---------0---------|--------------------|
D  :------------------|/5-------------------|0---------0---------|

                                                                    
E  :--------------------|----------------------|--------------------|
B  :----(0)-------(0)---|----(0)------0-(1)-3~-|--------0-----(0)---|
G  :----(0)-0-----(0)---|--0-(0)-0------(0)----|--0-(0)-----0-(0)-2-|
D  :--2-(2)-----2-(2)-0-|----(5)--------(0)----|----(0)-------(0)---|
G  :--------------------|5---------5\----------|0---------0---------|
D  :2---------2---------|----------------------|--------------------|

   135                                               136      
E  :--------------------|--------------------|----------------|
B  :----(0)-1---0-(0)---|----(0)-------(0)---|----8---8---8-0-|
G  :----(2)-------(2)-0-|----(0)-0-----(0)---|--5---5---5-----|
D  :--0-(0)-------(0)---|--2-(2)-----2-(2)-0-|----------------|
G  :--------------------|--------------------|5---------------|
D  :0---------0---------|2---------2---------|----------------|

                                                                
E  :--3-----------------|----3---3---(3)---|--3-----------------|
B  :----(3)-------------|--1---1---1-(1)-0-|----(0)-------(x)---|
G  :----(0)-------(0)-2-|------------(0)---|----(0)-------(x)-0-|
D  :0---(0)-0-----(0)---|------------(0)---|----(0)-0-----(0)---|
G  :0-----------0-------|0-----------------|------------0-------|
D  :----------0---------|--------0---------|2---------2---------|

                                                              
E  :--------------------|--3-----------------|----3---3---3---|
B  :----(8)---8---(8)-0-|----(3)-------(3)---|--1---1---1---0-|
G  :--5-(5)-5---5-(5)---|----(0)-------(0)-2-|----------------|
D  :----(5)-------(5)---|----(0)-0-----(0)---|----0-------0---|
G  :5---------5---------|0-----------0-------|0---------------|
D  :--------------------|----------0---------|--------0-------|

                                                                           
E  :--3-(3)-------------|----3---3---3---|----------------|----3---3---3---|
B  :----(3)-------(3)---|--1---1---1---0-|----------------|--1---1---1---0-|
G  :----(0)-------(0)-0-|----------------|----------------|----------------|
D  :----(0)-0-----(0)---|----0-------0---|----------------|----------------|
G  :0-----------0-------|0---------------|0---------------|0---------------|
D  :----------0---------|--------0-------|--------0-------|--------0-------|

                                                                       
E  :----------------|----3---3---3---|----------------|----3---3---3---|
B  :----------------|--1---1---1---0-|----------------|--1---1---1---1-|
G  :----------------|----------------|----------------|----------------|
D  :----------------|----------------|----------------|----------------|
G  :0---------------|0---------------|----------------|----------------|
D  :--------0-------|----------------|----------------|----------------|

                                                                          
E  :3---3---3---3---|----------------|--------3---------------------------|
B  :--1---1---1---1-|----------------|------3-----------------------------|
G  :----------------|----------------|----0-------------------------------|
D  :----------------|----------------|----0-----------0-----0---0---0---0-|
G  :----------------|----------------|--0---------0---0--0--0-0---0-0-0-0-|
D  :----------------|----------------|5-----------5------5----5---5---5---|

                                                                   
E  :---------------------------------------------------------------|
B  :---------------------------------------------------------------|
G  :----------------------0-------0-------0-------0-------0---0---0|
D  :--0---0---0---0---0-0-0---0---0---0---0---0---0---0-0-0-0-0-0-0|
G  :0-0-0-0-0-0-0-0-0-0-0-0-0-0-0-0-0-0-0-0-0-0-0-0-0-0-0-0-0-0-0-0|
D  :5---5---5---5---5---5---5---5---5---5---5---5---5---5---5---5--|

                                                                   
E  :5-5-5-5-5-5-5-5-5-5-5-5-5-5-5-5-5-5-5-5-5-5-5-5-4-3-2----------|
B  :3-3-3-3-3-3-3-3-3-3-3-3-3-3-3-3-3-3-3-3-3-3-3-3-2-1-0-0--------|
G  :0-0-0-0-0-0-0-0-0-0-0-0-0-0-0-0-0-0-0-0-0-0-0-0-0-0-0-0-0-----0|
D  :0-0---0-0-0---0-0-0---0-0-0---0-0-0---0-0-0---0---0-0-0-0-0-0-0|
G  :0-------0-------0-------0-------0-------0-----------1-2-3-4-5-6|
D  :------------------------------------------------------2-3-4-5-6|

                                                                   
E  :7-7-7-7-7-7-7-7-7-7-7-7-7-7-7-7-7-7-7-7-7-7-7-7-6-5-4-3--------|
B  :8-8-8-8-8-8-8-8-8-8-8-8-8-8-8-8-8-8-8-8-8-8-8-8-7-6-5-4--------|
G  :0-0-0-0-0-0-0-0-0-0-0-0-0-0-0-0-0-0-0-0-0-0-0-0-0-0-0-0-------0|
D  :0-0---0-0-0---0-0-0---0-0-0---0-0-0---0-0-0---0---0-0-0-0---0-0|
G  :0-------0-------0-------0-------0-------0-----------1-2-3-4-5-6|
D  :*-----------------------------------------------------2-3-4-5-6|

                                                                           
E  :10-10-10-10-10-10-10-10-10-10-10-10-10-10-10-10-10-10-10-10-10-10-10-10-
B  :-8--8--8--8--8--8--8--8--8--8--8--8--8--8--8--8--8--8--8--8--8--8--8--8-
G  :-0--0--0--0--0--0--0--0--0--0--0--0--0--0--0--0--0--0--0--0--0--0--0--0-
D  :-0--0-----0--0--0-----0--0--0-----0--0--0-----0--0--0-----0--0--0-----0-
G  :-0-----------0-----------0-----------0-----------0-----------0----------
D  :-*----------------------------------------------------------------------

                           
E  :10-10-10-10-10-10-10-10|
B  :-8--8--8--8--8--8--8--8|
G  :-0--0--0--0--0--0--0--0|
D  :-0--0-----0--0--0-----0|
G  :-0-----------0---------|
D  :-----------------------|

                                                                           
E  :10-10-10-10-10-10-10-10-10-10-10-10-10-10-10-10-9-8-7-6-5---------------
B  :-8--8--8--8--8--8--8--8--8--8--8--8--8--8--8--8-7-6-5-4-3---------------
G  :-0--0--0--0--0--0--0--0--0--0--0--0--0--0--0--0-0-0-0-0-0-0-----------0-
D  :-0--0-----0--0--0-----0--0--0--0-----0--0--0------0-0-0-0-0-0-0---0-0-0-
G  :-0-----------0-----------0--0-----------0-------------1-2-3-4-5-6-7-8-9-
D  :--------------------------------------------------------2-3-4-5-6-7-8-9-

                135                                         
E  :---------11|15-----15-15-15-15---15-15-15-15-15---15-15-|
B  :----9-10-11|12-----12-12-12-12---12-12-12-12-12---12-12-|
G  :-0--0--0--0|-0------0--0--0--0----0--0--0--0--0----0--0-|
D  :-0--0--0--0|-0---------0-----0----0-----0-----0----0----|
G  :10-11-12-13|-0---------------0----------------0---------|
D  :10-11-12-13|-*------------------------------------------|

                                                    
E  :15-----15-15-15-15-15---15-15-15-15-15-15-15-15-|
B  :12-h13-13-13-13-13-13---13-13-13-13-13-13-13-13-|
G  :-0------0--0--0--0--0----0--0--0--0--0--0--0--0-|
D  :-0------0-----0-----0----0-----0-----0-----0----|
G  :-0------------------0----------------0----------|
D  :------------------------------------------------|

                                                   
E  :15-----15-15-15-15-15---15-15-15-15-15---15-15-|
B  :13-p12-12-12-12-12-12---12-12-12-12-12---12-12-|
G  :-0------0--0--0--0--0----0--0--0--0--0----0--0-|
D  :-0------0-----0-----0----0-----0-----0----0----|
G  :-0------------------0----------------0---------|
D  :-----------------------------------------------|

                    1 30                  
E  :15---15-15-15-15-*--------------------|
B  :13---13-13-13-13-*--------1---1---0---|
G  :-0----0--0--0--0--------0-0---0---0---|
D  :-0----0-----0--0------0-0-2---2---0---|
G  :-0----------0----7\---0---0---0---0---|
D  :--------------------------------------|

                                                         
E  :15--------15-----15-15--------15-----15-15--------15-|
B  :13-p12-12-13-p12-12-13-p12-12-13-p12-12-13-p12-12-12-|
G  :-0------0--0------0--0------0--0------0--0------0--0-|
D  :-0------0--0------0--0------0--0------0--0------0--0-|
G  :-0------0------------0------0------------0------0----|
D  :-----------------------------------------------------|

                                            
E  :15-----15-15-15-15-*--------------------|
B  :12-h13-13-13-13-13-*--------0---1---0---|
G  :-0------0--0--0--0--------0-0---0---0---|
D  :-0------0-----0--0------0-0-0---2---0---|
G  :-0------------0----7\---0---0---0---0---|
D  :----------------------------------------|

                                                         
E  :15--------15-----15-15--------15-----15-15--------15-|
B  :13-p12-12-13-p12-12-13-p12-12-13-p12-12-13-p12-12-12-|
G  :-0------0--0------0--0------0--0------0--0------0--0-|
D  :-0------0--0------0--0------0--0------0--0------0--0-|
G  :-0------0------------0------0------------0------0----|
D  :-----------------------------------------------------|

                                            
E  :15-----15-15-15-15-*--------------------|
B  :12-h13-13-13-13-13-*--------0---1---0---|
G  :-0------0--0--0--0--------0-0---0---0---|
D  :-0------0-----0--0------0-0-0---2---0---|
G  :-0------------0----7\---0---0---0---0---|
D  :----------------------------------------|

                                                         
E  :15--------15-----15-15--------15-----15-15--------15-|
B  :13-p12-12-13-p12-12-13-p12-12-13-p12-12-13-p12-12-12-|
G  :-0------0--0------0--0------0--0------0--0------0--0-|
D  :-0------0--0------0--0------0--0------0--0------0--0-|
G  :-0------0------------0------0------------0------0----|
D  :-----------------------------------------------------|

                                           
E  :15-----15---15-15-*--------------------|
B  :12-h13-13---13-13-*--------0---1---0---|
G  :-0------0----0--0--------0-0---0---0---|
D  :-0------0----0--0------0-0-0---2---0---|
G  :-0-----------0----7\---0---0---0---0---|
D  :---------------------------------------|

                                                            
E  :--------3-----------------------------------------------|
B  :------3-------------------------------------------------|
G  :----0---------------------------------------------------|
D  :--0----------------0---0---0---0---0---0---0---0---0---0|
G  :0----------------0-0-0-0-0-0-0-0-0-0-0-0-0-0-0-0-0-0-0-0|
D  :5---------------/5---5---5---5---5---5---5---5---5---5--|

                                                                   
E  :---------------------------------------------------------------|
B  :--------------------------------------------------------------3|
G  :--------------------------------------------------0---0---0-0-0|
D  :--0---0---0---0---0---0---0---0---0---0---0-0-0-0-0-0-0-0-0-0-0|
G  :0-0-0-0-0-0-0-0-0-0-0-0-0-0-0-0-0-0-0-0-0-0-0-0-0-0-0-0-0-0-0-0|
D  :5---5---5---5---5---5---5---5---5---5---5---5---5---5---5---5--|

                                    
E  :3-----*-------------------------|
B  :3-----*-------------------------|
G  :0-----*-------------------------|
D  :0-----*-------------------------|
G  :0-----*-------------------------|
D  :5-----*-------------------------|
comments
print report bad tab
3 comments total.
+1 reply
flan26 wrote on May 17 2009, 08:23 pm

Thanks so much i love this song when played by Sungha Jung. One question though, What do brackets mean?

+2 reply
the ninja leaf wrote on June 7 2009, 06:28 pm

ghost notes (strums not so loud)

+2 reply
josh-josh wrote on March 5 2010, 03:18 pm

thx man, that was confusing me endlessly

I want to post or [tab]
guest
You may want to rate the tab now too:
select rating
Please do not post tabs as comments. Select "correction" instead!