Oops, an error
Loading. Please wait.

While My Guitar Gently Weeps Tab

10,262 views 9 this week
no commentswrite comment
1 2 3 4 5
excellent!
x 3
Autoscroll
+/-
esc
set tempo
stop
Contributor
Difficulty
intermediate
Hey! There's an official Ultimate Guitar app which is ideal
for learning songs when you're away from computer. Get the app
WARNING: You are trying to view
                                    content from Ultimate-Guitar.com
                                    in an unauthorized application,
                                    which is prohibited.

                                    Please use an official Ultimate
                                    Guitar Tabs application for iPhone,
                                    iPad or Android to access legitimate
                                    chords, guitar, bass, and drum tabs
                                    from Ultimate-Guitar.com database.

                                    Type "ultimate guitar tabs" in Apple
                                    App Store's or Android Market's
                                    search to find the application.
While My Guitar Gently Weeps - Doyle Dykes


E  :--------------------------------|--------------------------------|
B  :--------0-----------------------|--------0-------------------0---|
G  :------0---0---------------------|------0---0---------------------|
D  :----4---------------------------|----4---------------------------|
A  :--2---------3-------------------|--2---------3-------------------|
E  :0-------------------------------|0-------------------------------|


E  :0-----0-0-0---0-0-0---0-0-0---2-2-2---2-2-2---3-3-3---3-3-3|
B  :------------0-------------------------------0--------------|
G  :----0---------------0---------------0---------------0------|
D  :----------------------------2------------------------------|
A  :-----------------------------------------------------------|
E  :0----------------------------------------------------------|


E  :--5-5-5---5-5-5---7-7-7---7-7-7---10-10-10---10-10-10---7-7-7---7-7-7|
B  :----------------0-------------------------------------0--------------|
G  :--------0---------------0------------------0------------------0------|
D  :0-------------------------------0------------------------------------|
A  :---------------------------------------------------------------------|
E  :---------------------------------------------------------------------|


E  :--7-7-7---7-7-7---7-7-7---7-7-7---0-0-0---0-0-0---0-0-0---0-0-0|
B  :----------------8-------------------------------8--------------|
G  :--------0---------------0---------------0---------------0------|
D  :---------------------------------------------------------------|
A  :---------------------------------------------------------------|
E  :8-------------------------------8------------------------------|


E  :--7-7-7---7-7-7---7-7-7---7-7-7---0-0-0---0-0-0---0-0-0---0-0-0|
B  :---------------------------------------------------------------|
G  :----------------7-------------------------------6--------------|
D  :--------5---------------5---------------5---------------5------|
A  :0-------------------------------0------------------------------|
E  :---------------------------------------------------------------|


E  :--0-0-0---0-0-0-7-7-7-7---7-7-7---3-3-3---3-3-3---3-3-3-5-/7-7-7|
B  :----------------------------------------------------------------|
G  :------------------------9-----------------------4---------------|
D  :--------9-------------------------------5-----------------------|
A  :----------------------------------------------------------------|
E  :0-------------------------------0-------------------------------|


E  :5-5-5-5---5-5-5---5-5-5---5-5-5---2-2-2---2-2-2----------------|
B  :----------------7---------------------------------3-3-3---3-3-3|
G  :------------------------7---------------2---------------2------|
D  :--------0-----------------------0------------------------------|
A  :------------------------------------------------3--------------|
E  :---------------------------------------------------------------|


E  :--3-3-3---3-3-3---3-3-3---3-3-3---3-3-3---3-3-3---3-3-3---3-3-3|
B  :------------------------3-------1-------1-------0-------0------|
G  :----------------0---------------0---------------0--------------|
D  :--------0-----------------------2---------------0--------------|
A  :2-------------------------------0---------------x--------------|
E  :------------------------------------------------3--------------|


E  :--3-3-3---3-3-3---3-3-3---3-3-3---3-3-3---3-3-3-\2-------|
B  :0---------------0--------------------------------0-------|
G  :2-----------------------2---------------2----------------|
D  :2-------2------------------------------------------------|
A  :x-------------------------------2------------------------|
E  :2--------------------------------------------------------|


E  :----------------|0-----------2-------3-------0---|
B  :--------------0-|--------------------------------|
G  :----------------|--------0-------0-------0-------|
D  :----------------|----2---------------------------|
A  :----------------|--------------------------------|
E  :----------------|0-------------------------------|


E  :------------2-------3-------0---|----------------0---2---3---*---|
B  :--------0---------------0-------|--------0-----------------------|
G  :----0-----------0---------------|------------0-------------------|
D  :0-------------------------------|----2-----------------------0---|
A  :--------------------------------|4-------------------------------|
E  :--------------------------------|--------------------------------|


E  :5-------------------5-----------|--------7---------------0-------|
B  :------------8-----------8-------|----------------8---------------|
G  :--------5-----------------------|--------9-------------------0---|
D  :*---5-----------5-----------5---|------------9-------------------|
A  :--------------------------------|----7---------------------------|
E  :8-------------------------------|0-------------------------------|


E  :0-h2-------------2-p0---------0---|------------0-----------0-------|
B  :---------3-------3--------3-------|------------0-----------0-------|
G  :-----2----------------2-----------|--------2-----------2-----------|
D  :0---------------------------------|----2-----------2---------------|
A  :----------------------------------|0-----------------------2-------|
E  :----------------------------------|--------------------------------|


E  :--------------------------------|0-----------2-------3-------0---|
B  :----------------------------0---|--------------------------------|
G  :--------------------------------|--------0-------0-------0-------|
D  :--------------------------------|----2---------------------------|
A  :--------------------------------|--------------------------------|
E  :--------------------------------|0-------------------------------|


E  :------------2-------3-------2-h3-p2-|p0-------------------2---3-------|
B  :--------0---------------------------|-----------------0---------------|
G  :----0-----------0-------0-----------|-------------0-------------------|
D  :0-----------------------------------|---------2-------------------0---|
A  :------------------------------------|-----4---------------------------|
E  :------------------------------------|---------------------------------|


E  :5-------------------5-----------|--------7---------------0-------|
B  :------------8-----------8-------|----------------8---------------|
G  :--------5-----------------------|--------9-----------9-----------|
D  :*---5-----------5-----------5---|------------9-------------------|
A  :--------------------------------|----7---------------------------|
E  :8-------------------------------|0-------------------------------|


E  :0-h2-------------2-p0------2---3---|------------3---3-------3-------|
B  :---------3-------3-----------------|--------3-------1-------0-------|
G  :-----2-------2---------2-----------|----0-----------0-------0-------|
D  :0----------------------------------|----------------2-------0-------|
A  :-----------------------------------|2---------------0-------x-------|
E  :-----------------------------------|------------------------3-------|


E  :3---------------3-\2--------------|---------------------------------|
B  :0-----------0-------------0-------|---------------------------------|
G  :2-------2-----------------2-------|---------------------------------|
D  :2---2---------------------1-------|---------------------------------|
A  :x---------------------2-----------|------------------------1-/2-----|
E  :2---------------------------------|---------------------------------|

   Mute the   bass with your palm if   you can.
E  :--------2-/4------2---4---*-------|11---------------------------------|
B  :--------5---------5---5---*-------|12-----------14-------12-----------|
G  :--------4---------4---4---*-------|11-----------11-------11-----------|
D  :----------------------------------|-----------------------------------|
A  :----------------------------------|11-----------11-------11-----------|
E  :0---0---0-----0---0---0---0---0---|-----0---0--------0--------0---0---|


E  :---------------------4-------6-/7--|----4-----------------------------|
B  :------------5---h7-----------------|------------4---------------------|
G  :--------4----------------4---------|------------4-h6------4-----------|
D  :----6--------------------6---------|--------4-----------------4-------|
A  :4----------------4-----------------|----------------------------------|
E  :-----------------------------------|4-----------------4-----------0---|


E  :------------2-----------2---5-/7--|------------4---------------2---|
B  :--------------------5---2---------|--------5-----------5---*-------|
G  :2---------------2-----------------|----6---------------------------|
D  :2-------2-------------------------|4---------------4---------------|
A  :----4-----------------------------|--------------------------------|
E  :2---------------------------------|--------------------------------|


E  :------------2-----------2-------|x---0---0---0---0---0---0---0---|
B  :------------5-----------5-------|x---5---4---5---4---5---4---2---|
G  :--------2-----------2-----------|x-----------6---4---6---4---2---|
D  :----4---------------------------|--------------------7---6---4---|
A  :2---------------2---------------|x-------------------------------|
E  :--------------------------------|--------------------------------|


E  :0-------2-/4------2---4---*-------|11---------------------------------|
B  :0-------5---------5---5---*-------|12-----------14-------12-----------|
G  :1-------4---------4---4---*-------|11-----------11-------11-----------|
D  :2---------------------------------|-----------------------------------|
A  :----------------------------------|11-----------11-------11-----------|
E  :----0---0-----0---0---0---0---0---|-----0---0--------0--------0---0---|

       m i t m i t m i t...
E  :4---*-----------------------4-5-|7---4-------------------------------|
B  :5---*-----------------4-5-7-*---|------------4---------4-------------|
G  :4---*-----------4-5-6-*---------|------------4-h6------6-p4----------|
D  :6---*-----4-5-6-*---------------|----------------------------6-------|
A  :4---4-6-7-*---------------------|------------------------------------|
E  :*-------------------------------|--------4-----------------------0---|


E  :------------2-----------2---5-/7--|------------7-p4--------------2---|
B  :--------------------5-------------|--------5-------------5---*-------|
G  :2-------2-------2-----------------|----6-----------------------------|
D  :2---------------------------------|4---------------------------------|
A  :----4-----------------------------|----------------------------------|
E  :2---------------------------------|----------------------------------|


E  :------------2---2-h4-*---2-h4-*---|2-------------------------------|
B  :--------5-------5----*---5----*---|4---------------------------0---|
G  :----------------2----*---2----*---|2-------------------------------|
D  :----4-----------------------------|--------------------------------|
A  :2---------------2----*---2----*---|2-------------------------------|
E  :----------------------------------|--------------------------------|


E  :0-----------2-------3-------0---|------------2-------3-------0---|
B  :--------------------------------|--------0---------------0-------|
G  :--------0-------0-------0-------|----0-----------0---------------|
D  :----2---------------------------|0-------------------------------|
A  :--------------------------------|--------------------------------|
E  :0-------------------------------|--------------------------------|


E  :----------------0---2---3-*-----|5-------------------5-----------|
B  :------------0-------------------|------------8-----------8-------|
G  :--------0-----------------------|--------5-----------------------|
D  :----2-----------------------0---|*---5-----------5-----------5---|
A  :4-------------------------------|--------------------------------|
E  :--------------------------------|8-------------------------------|


E  :--------7----------------0-------|0-h2-------------2-p0----------0---|
B  :----------------8----------------|---------3-------3---------3-------|
G  :--------9-----------9-\------0---|-----2-------2---------2-----------|
D  :------------9--------------------|0----------------------------------|
A  :----7----------------------------|-----------------------------------|
E  :0--------------------------------|-----------------------------------|


E  :------------0-----------0-------|----0-------0-------0---0-------|
B  :------------0-----------0-------|----0-------0-------0---0---0---|
G  :--------2---------------x-------|----x-------x-----------x-------|
D  :----2---------------2---2-------|------------2-----------2-------|
A  :0---------------0-------2-------|------------------------2-------|
E  :--------------------------------|--------------------------------|


E  :0-------(0)---2-------3---(3)---0---|
B  :--------(0)---------------(0)-------|
G  :--------(0)---------------(0)-------|
D  :----2-------------------------------|
A  :------------------------------------|
E  :0-----------------0-----------------|


E  :--------(0)---2-------3---(3)---0---|
B  :----0---(0)-----------0---(0)-------|
G  :--------(0)---------------(0)-------|
D  :0-----------------------------------|
A  :------------------------------------|
E  :------------------0-----------------|


E  :--------(0)---2-------3-*-------5---|
B  :----0---(0)---------------(0)-------|
G  :--------(0)---------------(0)-------|
D  :------------------------------------|
A  :4-----------------------------------|
E  :------------------0-----------------|


E  :--------------5---------------------|--------(7)-----------0-----------|
B  :----8---(8)-----------8---(8)-------|--------(8)---8-----------x---3---|
G  :--------(5)---------------(5)---0---|--------(9)---------------x---2---|
D  :--------(5)---------------(5)-------|----9---(9)---9-----------x-------|
A  :------------------------------------|----------------------------------|
E  :8-----------------8-----------------|0-----------------0---------------|


E  :0-h2-----(2)---0-------2---(2)---2-2-|3-------3-------3---3---3---3---|
B  :-----3---(3)---3-------3---(3)---3-3-|3-------3-------3---3---3---3---|
G  :---------(2)---------------(2)---2---|0-------0-------0---0---0-------|
D  :0--------------------------------0---|0-------0-------0-------0-------|
A  :-------------------0-----------------|2-------2---------------2-------|
E  :-------------------------------------|3-------3-----------------------|


E  :3---3---3---3---2---2---2----0---|--------10-------10---10---*---10---|
B  :0---0---0---0---0---0---0----0---|-----------------10----8---*----8---|
G  :2-------2-------2-------2--------|---------------------------9----*---|
D  :1---------------1-------1---/----|------------------------------------|
A  :2--------------------------------|------------------------------------|
E  :---------------------------------|0---0----0---0----0----0---0--------|


E  :10--------10-------10---10---*---10~---|
B  :10---p8------------10----8---*----8~---|
G  :-----------------------------9----*----|
D  :-0----0----0---0----0----0---0----0----|
A  :---------------------------------------|
E  :-*-------------------------------------|


E  :--------10-------10---10---*---10---|
B  :-----------------10----8---*----8---|
G  :---------------------------9----*---|
D  :*-----------------------------------|
A  :------------------------------------|
E  :9---9----9---9----9----9---9--------|


E  :10--------10---------------------------|
B  :10---p8------------10---8---10---/12---|
G  :---------------------------------------|
D  :---------------------------------------|
A  :---------------------------------------|
E  :-8----8----8---8----8---8----*-----0---|


E  :12----*---10----*---------0----0---0---|
B  :-*---12----*---12---\10---8---10---8---|
G  :---------------------------------------|
D  :---------------------------------------|
A  :---------------------------------------|
E  :-0----0----0----0-----0---0----0---0---|


E  :-----0---(0)---0-------0---(0)-------|
B  :-*---7---(7)---8-------7---(7)---8---|
G  :11---*---(7)---------------(7)---9---|
D  :-0-----------------0-----------------|
A  :-------------------------------------|
E  :-*-----------------------------------|


E  :------0---(-0)---0--------0---(0)---0---|
B  :/14-------(12)-------10-------(8)-------|
G  :/14-------(12)-------11-------(9)-------|
D  :----------------------------------------|
A  :--0---------0---------0--------0--------|
E  :----------------------------------------|


E  :----0---(0)---0-------0---(0)-------|
B  :7-------(5)-------3-------(2)---0---|
G  :7-------(6)-------4-------(2)-------|
D  :------------------------------------|
A  :0--------0--------0--------0--------|
E  :------------------------------------|


E  :0-------(0)---2-------3---(3)---0---|
B  :--------(0)---------------(0)-------|
G  :--------(0)---------------(0)-------|
D  :----2-------------------------------|
A  :*-----------------------------------|
E  :0-----------------0-----------------|


E  :--------(0)---2-------3---(3)---0---|
B  :----0---(0)---------------(0)-------|
G  :--------(0)---------------(0)-------|
D  :0-----------------------------------|
A  :------------------------------------|
E  :------------------0-----------------|


E  :--------------0---2---3-*-------5---|
B  :--------(0)---------------(0)-------|
G  :--------(0)---------------(0)-------|
D  :----2-------------------------------|
A  :4-----------------------------------|
E  :------------------0-----------------|


E  :----------------------5-------------|
B  :----8---(8)---------------(8)-------|
G  :----5---(5)---5-----------(5)---0---|
D  :--------(5)---5-----------(5)-------|
A  :------------------------------------|
E  :8-----------------8-----------------|


E  :--------(7)------------0---(0)-------|
B  :--------(8)---8-------\----(0)---3---|
G  :*-------(9)---9-------\----------2---|
D  :----9---(9)--------------------------|
A  :----7--------------------------------|
E  :0-----------------0------------------|


E  :0-h2-----(2)---0-------2---(2)---2-2-|3-------3-----------3---3---3---|
B  :-----3---(3)---3-------3---(3)---3-3-|3-------3-----------3---3---3---|
G  :---------(2)---------------(2)---2---|0-------0-----------0---0-------|
D  :0--------------------------------0---|0-------0---------------0-------|
A  :-------------------0-----------------|2-------2---------------2-------|
E  :-------------------------------------|3-------3-------3---------------|


E  :3---3-3-3---3---2---2---2----0---|
B  :0---0-0-0---0---0---0---0----0---|
G  :2---2---2-------2-------2--------|
D  :1---1-----------1-------1---/----|
A  :2---------------2----------------|
E  :---------------------------------|


E  :0-*-12-12-12---12---12---12---12---12-12-|
B  :0-*--x--x--x----x----x----x----x----x--x-|
G  :0-*--9--9--9----9----9----9----9----9--9-|
D  :2-*--x--x--x----x----x----x----x----x--x-|
A  :x------------------------------x---------|
E  :0----*-------------------------0---------|


E  :12---12---12---12---12---12---12---12-12-|
B  :-x----x----x----x----x----x----x----x--x-|
G  :-9----9----9----9----9----9----9----9--9-|
D  :-x----x----x----x----x----x----x----x--x-|
A  :-x-------------------0----x----x---------|
E  :10----*------------------10---10----*----|


E  :12---12---12---12---12---12---12---12-12-|
B  :-x----x----x----x----x----x----x----x--x-|
G  :-9----9----9----9----9----9----9----9--9-|
D  :-x----x----x----x----x----x----x----x--x-|
A  :-x---------0--------------x----x---------|
E  :-9----*-------------------9----9----*----|


E  :12---12---12---12---12---12---12---12---|
B  :-x----x----x----x----x----x----x----x---|
G  :-9----9----9----9----9----9----9----9---|
D  :-x----x----x----x----x----x----x----x---|
A  :-x----x----x----x----x----x----x--------|
E  :-8----8----8----8----8----8----8--------|


E  :12---/14---14---15---15-*-14---14-*-12---|
B  :-x-----x----x----x----x----x----x----x---|
G  :-9---/11---11---12---12-*-11---11-*--9---|
D  :-----------------------------------------|
A  :-----------------------------------------|
E  :-0----------*----------------------------|


E  :12---\10---10---10---\7---7---7-------|7-----------7---7---*---7-------|
B  :-x-----x----x----x----x---x---x-------|5-------5---5---5---*---5-------|
G  :-9---\-7----7----7---\4---4---4---0---|6-------6---6---6---*---6-------|
D  :-0--------------------0---------------|7-------7-------7---*---7-------|
A  :--------------------------------------|0---------------0---*---x-------|
E  :--------------------------------------|--------------------7---7-------|


E  :----7-------7---7---7---7---*---|7~-----------7-----------7-------|
B  :----5-------5---5---5---5---0---|8~-----------8-----------8-------|
G  :----6-------6---6---6---6---0---|9~-----------9-------9-------9---|
D  :7---7-----------7-------7---*---|9~-------------------------------|
A  :x---------------x-------x-------|*--------------------------------|
E  :7---------------7-----------*---|0--------0-------0-------0-------|


E  :----7-----------7---------------|7-----------7-----------7-------|
B  :----8-----------8---------------|8-----------8-----------8-------|
G  :----9-------9-------9-------9---|----9-------9-------9-------9---|
D  :0-------0-------0-------0-------|*-------------------------------|
A  :--------------------------------|--------------------------------|
E  :*-------------------------------|9-------9-------9-------9-------|


E  :----7-----------7-----------7---|--------7-----------0---(0)-------|
B  :----8-----------8-----------8---|------------8-----------(3)-------|
G  :----9-------9-------9-----------|----9-------------------(2)---2---|
D  :--------------------------------|----9---9-------------------------|
A  :--------------------------------|----------------------------------|
E  :8-------8-------8-------8-------|0---------------0-----------------|


E  :0-h2-----(2)---2-p0------------------|--------------------------------|
B  :-----3---(3)---3---------3---x---0---|x-------------------------------|
G  :---------(2)-------------2---x---2---|x-------2-------x-------2-------|
D  :0--------(0)-----------------x---2---|x-------2-------x-------2-------|
A  :---------(0)---------0-------0-------|x-------0-------x-------0-------|
E  :-------------------------------------|----3---*-----------3---*-------|


E  :----------------------------0---|--------7---(7)-----------0-------|
B  :----------------------------0---|------------(8)---8---------------|
G  :x-------2---*---2---0-----------|*-------9-------------9-------0---|
D  :x-------2---*---2---0-----------|*---9-----------------------------|
A  :x-------0---*---0---*-----------|----------------------------------|
E  :----3---*---3---*---3-----------|0---------------------------------|


E  :0-h2-------------2-p0----------0---|----0-------------------0-------|
B  :---------3-------3---------3-------|--------2-------0---------------|
G  :-----2-------2---------2-----------|----------------0-----------2---|
D  :0----------------------------------|------------2-------------------|
A  :-----------------------------------|0-------------------------------|
E  :-----------------------------------|--------------------------------|


E  :----0-------------------0-------|----0-------------------0-------|
B  :--------2-------0---------------|--------2-------0-----------2---|
G  :----------------0---------------|----------------0---------------|
D  :------------2---------------2---|------------2-------2-----------|
A  :0-------------------------------|0-------------------------------|
E  :--------------------------------|--------------------------------|


E  :----0-------------------0-------|----------7----------------0-------|
B  :--------2-------0---------------|------------------8----------------|
G  :----------------0-----------0---|--------9-------------9---\----0---|
D  :------------2-------2-----------|------9-------9--------------------|
A  :0-------------------------------|-----------------------------------|
E  :--------------------------------|0----------------------------------|


E  :0-h2-------------2-p0----------0---|---------------------------------|
B  :3------------3-------------3-------|---------------------------------|
G  :---------2-------2-----------------|2------------------------2---0---|
D  :0----------------------------------|2--------------------2---*-------|
A  :-----------------------------------|0-----------3---h4---*-----------|
E  :-----------------------------------|---------------------------------|


E  :--------------------------------|----------7----------------0-------|
B  :--------------------------------|------------------8----------------|
G  :--------*---4-----------0---2---|*-------9-------------9---\----0---|
D  :--------2---*-------2---*-------|------9-------9--------------------|
A  :--------------------------------|-----------------------------------|
E  :--------------------------------|0----------------------------------|


E  :0-h2-------------2-p0----------0---|
B  :---------3-----------------3---*---|
G  :-----2-------2---------2-----------|
D  :0----------------------------------|
A  :-----------------------------------|
E  :-----------------------------------|


E  :---------7-/9-------7---9------------|
B  :----10---------10---------------10---|
G  :---------9----------9---9--------9---|
D  :-------------------------------------|
A  :0------------------------------------|
E  :-------------------------------------|


E  :--------9-*-7---*-----------------|----------------|
B  :--------------------10~-----------|----------------|
G  :----9-------7---*-----------------|----------------|
D  :--------------------11~-----------|----------------|
A  :---------------------0------------|----------------|
E  :----------------------------------|----------------|


E  :----------7-----------------3-3-3---3-3-3---0-0-0--------|
B  :--------8---------8-------------------------------5-5-5-5|
G  :------9-----------------------------------4--------------|
D  :----------------------------------5----------------------|
A  :---------------------------------------------------------|
E  :0-------------------------0------------------------------|


E  :---5-5-5---5-5-5---5-5-5---5-5-5---2-2-2---2-2-2----------------|
B  :/7---------------7---------------------------------3-3-3---3-3-3|
G  :---------7---------------7---------------2---------------2------|
D  :-0-------------------------------0------------------------------|
A  :-------------------------------------------------3--------------|
E  :----------------------------------------------------------------|


E  :--3-3-3---3-3-3---3-3-3---3-3-3---3-3-3---3-3-3---3-3-3---3-3-3|
B  :------------------------3-------1---------------0--------------|
G  :----------------0---------------0-------2-------0-------0------|
D  :--------0-----------------------2---------------0--------------|
A  :2-------------------------------0---------------x--------------|
E  :------------------------------------------------3--------------|


E  :--3-3-3---3-3-3---3-3-3---3-3-3---3-3-3---3-3-3---2-2-2---2-2-2|
B  :0-----------------------0-----------------------0--------------|
G  :2---------------2----------------------------------------------|
D  :2-------2-------------------------------1----------------------|
A  :x-------------------------------2-----------------------2------|
E  :2--------------------------------------------------------------|


E  :--0-0-0---0-0-0---0-0-0---0-0-0---2-2-2---2-2-2---3-3-3---3-3-3|
B  :----------------0-----------------------0---------------0------|
G  :------------------------0--------------------------------------|
D  :--------2-----------------------2---------------2--------------|
A  :---------------------------------------------------------------|
E  :0--------------------------------------------------------------|


E  :--5-5-5---5-5-5---7-7-7---7-7-7---10-10-10---10-10-10---7-7-7---7-7-7|
B  :----------------0-------------------------------------0--------------|
G  :--------0---------------0------------------0------------------0------|
D  :0-------------------------------0------------------------------------|
A  :---------------------------------------------------------------------|
E  :---------------------------------------------------------------------|


E  :--7-7-7---7-7-7---7-7-7---7-7-7---0-0-0---0-0-0---0-0-0---0-0-0|
B  :----------------8-------------------------------8--------------|
G  :--------0---------------0---------------0---------------0------|
D  :---------------------------------------------------------------|
A  :---------------------------------------------------------------|
E  :8-------------------------------8------------------------------|


E  :--7-7-7---7-7-7---7-7-7---7-7-7---0-0-0---0-0-0---0-0-0---0-0-0|
B  :------------------------------------------------0--------------|
G  :----------------7---------------------------------------6------|
D  :--------5---------------5---------------5----------------------|
A  :0-------------------------------0------------------------------|
E  :---------------------------------------------------------------|


E  :--0-0-0----0-0-0---7-7-7---7-7-7---3-3-3---3-3-3---0-0-0--------|
B  :--------12-------8---------------------------------------5-5-5-5|
G  :-------------------------9-----------------------4--------------|
D  :-----------------------------------------5----------------------|
A  :----------------------------------------------------------------|
E  :0--------------------------------0------------------------------|


E  :---5-5-5---5-5-5---5-5-5---5-5-5---2-2-2---2-2-2----------------|
B  :/7---------------7---------------------------------3-3-3---3-3-3|
G  :---------7---------------7---------------2---------------2------|
D  :-0-------------------------------0------------------------------|
A  :-------------------------------------------------3--------------|
E  :----------------------------------------------------------------|


E  :--3-3-3---3-3-3---3-3-3---3-3-3---3-3-3-3-3-3-3---3-3-3-3-3-3-3|
B  :------------------------3-------1---------------0--------------|
G  :----------------0---------------0---------------0--------------|
D  :--------0-----------------------2---------------0--------------|
A  :2-------------------------------0---------------x--------------|
E  :------------------------------------------------3--------------|


E  :--3-3-3---3-3-3---3-3-3---3-3-3---3-3-3---3-3-3---2-2-2---2-2-2|
B  :0---------------0-------------------------------0--------------|
G  :2-----------------------2-------------------------------2------|
D  :2-------2-------------------------------1----------------------|
A  :x-------------------------------2------------------------------|
E  :2--------------------------------------------------------------|

   J u s t   w i g g l e   y o u r   f i n g e r    a n d   m o v e
E  :--0-0-0---0-0-0---0-0-0---0-0-0---0-0-0---0-2-0-h2-0-2-3---3-2-3|
B  :------------------------0--------------------------------0------|
G  :--------------------------------0----------------0--------------|
D  :----------------2-----------------------2-----------------------|
A  :--------2-------------------------------------------------------|
E  :0---------------------------------------------------------------|

     u p   d u r i n g   t  h i s    p a r t .   D o y l e   h a s
E  :--3-3-3---3-3-3---3-2-3-p2-3-2-3-/5-5-5-5---5-5-5---5-5-5---5-3-5|
B  :----------------0---------------------------------0--------------|
G  :--------0----------------0----------------0---------------0------|
D  :0---------------------------------0------------------------------|
A  :-----------------------------------------------------------------|
E  :-----------------------------------------------------------------|

    n e v e r   h i  t   t h   e     s  a   m  e
E  :/7-7-7-7---7-5-7-/8-8-7-8-/10-10-10-10-----10-10-----10-10-----10-10-|
B  :------------------0----------------------------------------<12>------|
G  :---------0---------------------------------------<12>----------------|
D  :-0-------------------------------------<12>--------------------------|
A  :---------------------------------------------------------------------|
E  :----------------------------0----------------------------------------|


E  :----10-10-----10-8-\7|
B  :----------<12>-------|
G  :<12>-----------------|
D  :---------------------|
A  :---------------------|
E  :--------------------0|
comments
We did not receive enough feedback on this tab! Please rate:
print report bad tab
1 2 3 4 5
I want to post or [tab]
guest
You may want to rate the tab now too:
select rating
Please do not post tabs as comments. Select "correction" instead!