Oops, an error
Loading. Please wait.

Black Fire Bass Tab

ver1
ver1

Whole song

More versions @911Tabs.com
2,388 views 1 this week
no commentswrite comment
1 2 3 4 5
excellent!
x 1
Autoscroll
+/-
esc
set tempo
stop
Contributor
WARNING: You are trying to view
                                    content from Ultimate-Guitar.com
                                    in an unauthorized application,
                                    which is prohibited.

                                    Please use an official Ultimate
                                    Guitar Tabs application for iPhone,
                                    iPad or Android to access legitimate
                                    chords, guitar, bass, and drum tabs
                                    from Ultimate-Guitar.com database.

                                    Type "ultimate guitar tabs" in Apple
                                    App Store's or Android Market's
                                    search to find the application.
G  :---------------------------|--------------------------|
D  :---------------------------|--------------------------|
A  :5-5-5-5-5-5-5-5-5-5-5-5-5-5|5-5-5-5-5-5-5-5-5-5-5-3-0-|
E  :---------------------------|--------------------------|

G  :-----------------------------|-------------------------------|
D  :-----------------------------|-------------------------------|
A  :5-5-5-5-5-5-5-5-5-5-5-5-5-5-5|5-5-5-5-5-5-5-5-5-5-5-5-5-5-5-5|
E  :-----------------------------|-------------------------------|

G  :-----------------------------|--------------------------|
D  :-----------------------------|--------------------------|
A  :5-5-5-5-5-5-5-5-5-5-5-5-5-5-5|5-5-5-5-5-5-5-5-5-5-5-3-0-|
E  :-----------------------------|--------------------------|

G  :------------------|------------------|-----------------------------|
D  :------------------|------------------|-----------------------------|
A  :1-1-1-1-1-1-1-1-1-|3-3-3-3-3-3-3-3-3-|5-5-5-5-5-5-5-5-5-5-5-5-5-5-5|
E  :------------------|------------------|-----------------------------|

G  :--------------------------|-----------------------------|
D  :--------------------------|-----------------------------|
A  :5-5-5-5-5-5-5-5-5-5-5-3-0-|5-5-5-5-5-5-5-5-5-5-5-5-5-5-5|
E  :--------------------------|-----------------------------|

G  :-------------------------------|-----------------------------|
D  :-------------------------------|-----------------------------|
A  :5-5-5-5-5-5-5-5-5-5-5-5-5-5-5-5|5-5-5-5-5-5-5-5-5-5-5-5-5-5-5|
E  :-------------------------------|-----------------------------|

G  :--------------------------|------------------|------------------|
D  :--------------------------|------------------|------------------|
A  :5-5-5-5-5-5-5-5-5-5-5-3-0-|1-1-1-1-1-1-1-1-1-|3-3-3-3-3-3-3-3-3-|
E  :--------------------------|------------------|------------------|

G  :----------------|----------------|
D  :----------------|----5---5---7---|
A  :----------------|----------------|
E  :5-5-5-5-5-5-5-5-|5-5-------------|

G  :-----------------------------|-----------------------------|
D  :-----------------------------|-----------------------------|
A  :5-5-5-5-5-5-5-5-5-5-5-5-5-5-5|3-5-5-5-5-5-5-5-5-5-5-5-5-5-5|
E  :-----------------------------|-----------------------------|

G  :--------------------|--------------------|-----------------------------|
D  :--------------------|--------------------|-----------------------------|
A  :3-3---1-3-3-3-3-3-3-|1-3-3-3-1-3-3-3-1-3-|5-5-5-5-5-5-5-5-5-5-5-5-5-5-5|
E  :--------------------|--------------------|-----------------------------|

G  :----------------------------|--------------------|3-5-5-5-5-5-5-2-----|
D  :--------------3-3-5-5-3-3---|----------3-5-5-5-5-|----------------5-3-|
A  :3-5-5-5-5-5-5-------------5-|1-3-3-3-3-----------|--------------------|
E  :----------------------------|--------------------|--------------------|

G  :-----------------------------|-----------------------------|
D  :-----------------------------|-----------------------------|
A  :5-5-5-5-5-5-5-5-5-5-5-5-5-5-5|3-5-5-5-5-5-5-5-5-5-5-5-5-5-5|
E  :-----------------------------|-----------------------------|

G  :--------------------|--------------------|-----------------------------|
D  :--------------------|--------------------|-----------------------------|
A  :3-3---1-3-3-3-3-3-3-|1-3-3-3-1-3-3-3-1-3-|5-5-5-5-5-5-5-5-5-5-5-5-5-5-5|
E  :--------------------|--------------------|-----------------------------|

G  :----------------------------|--------------------|3-5-5-5-5-5-5-2-----|
D  :--------------3-3-5-5-3-3---|----------3-5-5-5-5-|----------------5-3-|
A  :3-5-5-5-5-5-5-------------5-|1-3-3-3-3-----------|--------------------|
E  :----------------------------|--------------------|--------------------|

G  :------------------|----------------3-|7-7-7-7-7-7-7-7-7-7-7-7-7-7-7|
D  :------------------|--------------3---|-----------------------------|
A  :1-1-1-1-1-1-1-1-1-|1-1-1-1-1-1-1-----|-----------------------------|
E  :------------------|------------------|-----------------------------|

G  :7-7-7-7-7-7-7-7-7-7-7-7-7---|------------------|------------------|
D  :----------------------------|------------------|------------------|
A  :----------------------------|1-1-1-1-1-1-1-1-1-|1-1-1-1-1-1-5-3-1-|
E  :----------------------------|------------------|------------------|

G  :----------------|2-2-0-0---------|
D  :--------2-2-2-2-|--------3-3-2-2-|
A  :0-0-0-0---------|----------------|
E  :----------------|----------------|

G  :-----------------------------|-----------------------------|
D  :-----------------------------|-----------------------------|
A  :5-5-5-5-5-5-5-5-5-5-5-5-5-5-5|3-5-5-5-5-5-5-5-5-5-5-5-5-5-5|
E  :-----------------------------|-----------------------------|

G  :--------------------|--------------------|-----------------------------|
D  :--------------------|--------------------|-----------------------------|
A  :3-3---1-3-3-3-3-3-3-|1-3-3-3-1-3-3-3-1-3-|5-5-5-5-5-5-5-5-5-5-5-5-5-5-5|
E  :--------------------|--------------------|-----------------------------|

G  :----------------------------|--------------------|3-5-5-3-2-0-------|
D  :--------------3-3-5-5-3-3---|----------3-5-5-5-5-|------------3-2-0-|
A  :3-5-5-5-5-5-5-------------5-|1-3-3-3-3-----------|------------------|
E  :----------------------------|--------------------|------------------|

G  :------------------|----------------3-|7-7-7-7-7-7-7-7-7-7-7-7-7-7-7|
D  :------------------|--------------3---|-----------------------------|
A  :1-1-1-1-1-1-1-1-1-|1-1-1-1-1-1-1-----|-----------------------------|
E  :------------------|------------------|-----------------------------|

G  :7-7-7-7-7-7-7-7-7-7-7-7-7---|------------------|------------------|
D  :----------------------------|------------------|------------------|
A  :----------------------------|1-1-1-1-1-1-1-1-1-|1-1-1-1-1-1-5-3-1-|
E  :----------------------------|------------------|------------------|

G  :----------------|2-2-0-0---------|
D  :--------2-2-2-2-|--------3-3-2-2-|
A  :0-0-0-0---------|----------------|
E  :----------------|----------------|

G  :-----------------------------|-------------------------------|
D  :-----------------------------|-------------------------------|
A  :5-5-5-5-5-5-5-5-5-5-5-5-5-5-5|5-5-5-5-5-5-5-5-5-5-5-5-5-5-5-5|
E  :-----------------------------|-------------------------------|

G  :------------------|------------------|-----------------------------|
D  :------------------|------------------|-----------------------------|
A  :1-1-1-1-1-1-1-1-1-|3-3-3-3-3-3-3-1-3-|5-5-5-5-5-5-5-5-5-5-5-5-5-5-5|
E  :------------------|------------------|-----------------------------|

G  :-----------------------------|------------------|------------------|
D  :-----------------------------|3-3-3-3-3-3-5-3-0-|------------------|
A  :3-5-5-5-5-5-5-5-5-5-5-5-5-5-5|------------------|3-3-3-3-3-3-3-3-3-|
E  :-----------------------------|------------------|------------------|

G  :------------------|------------------|------------------|
D  :------------------|------------------|------------------|
A  :----------------1-|5-5-5-5-5-5-5-5-5-|3-3-3-3-3-3-3-3---|
E  :3-3-3-3-3-3-3-3---|------------------|----------------3-|

G  :------------------|-------------------------|--------------------|
D  :------------------|-------------------------|--------------------|
A  :------------------|1-1-1-1-1-1-1-1-1-1-1-1-1|1-1-1-1-1-1-1-5-3-1-|
E  :1-1-1-1-1-1-1-1-1-|-------------------------|--------------------|

G  :-----------------------------|----------------|
D  :-----------------------------|----------------|
A  :0-0-0-0-0-0-0-0-0-0-0-0-0-0-0|0-*-------------|
E  :-----------------------------|----------------|

G  :-----------------------------|-------------------------------|
D  :-----------------------------|-------------------------------|
A  :5-5-5-5-5-5-5-5-5-5-5-5-5-5-5|5-5-5-5-5-5-5-5-5-5-5-5-5-5-5-5|
E  :-----------------------------|-------------------------------|

G  :------------------|------------------|-----------------------------|
D  :------------------|------------------|-----------------------------|
A  :1-1-1-1-1-1-1-0-1-|3-3-3-3-3-3-3-0-3-|5-5-5-5-5-5-5-5-5-5-5-5-5-5-5|
E  :------------------|------------------|-----------------------------|

G  :-------------------------------|------------------|------------------|
D  :-------------------------------|------------------|------------------|
A  :5-5-5-5-5-5-5-5-5-5-5-5-5-5-5-5|1-1-1-1-1-1-1-0-1-|3-3-3-3-3-3-3-0-3-|
E  :-------------------------------|------------------|------------------|

G  :-----------------------------|-----------------------------|
D  :-----------------------------|-----------------------------|
A  :5-5-5-5-5-5-5-5-5-5-5-5-5-5-5|3-5-5-5-5-5-5-5-5-5-5-5-5-5-5|
E  :-----------------------------|-----------------------------|

G  :--------------------|--------------------|-----------------------------|
D  :--------------------|--------------------|-----------------------------|
A  :3-3---1-3-3-3-3-3-3-|1-3-3-3-1-3-3-3-1-3-|5-5-5-5-5-5-5-5-5-5-5-5-5-5-5|
E  :--------------------|--------------------|-----------------------------|

G  :----------------------------|--------------------|3-5-5-3-2-0-------|
D  :--------------3-3-5-5-3-3---|----------3-5-5-5-5-|------------3-2-0-|
A  :3-5-5-5-5-5-5-------------5-|1-3-3-3-3-----------|------------------|
E  :----------------------------|--------------------|------------------|

G  :------------------|----------------3-|7-7-7-7-7-5-7-7-7-7-7-7-7-7|
D  :------------------|--------------3---|---------------------------|
A  :1-1-1-1-1-1-1-1-1-|1-1-1-1-1-1-1-----|---------------------------|
E  :------------------|------------------|---------------------------|

G  :5-7-7-7-7-5-7-7-7-7-7---|------------------|------------------|
D  :------------------------|------------------|------------------|
A  :------------------------|1-1-1-1-1-1-1-1-1-|1-1-1-1-1-1-5-3-1-|
E  :------------------------|------------------|------------------|

G  :----------------|2-2-2-2-2-2-0-----|
D  :--------2-2-2-2-|--------------3-2-|
A  :0-0-0-0---------|------------------|
E  :----------------|------------------|

G  :-----------------------------|-------------------------------|
D  :-----------------------------|-------------------------------|
A  :5-5-5-5-5-5-5-5-5-5-5-5-5-5-5|5-5-5-5-5-5-5-5-5-5-5-5-5-5-5-5|
E  :-----------------------------|-------------------------------|

G  :------------------|------------------|-----------------------------|
D  :------------------|------------------|-----------------------------|
A  :1-1-1-1-1-1-1-0-1-|3-3-3-3-3-3-3-1-3-|5-5-5-5-5-5-5-5-5-5-5-5-5-5-5|
E  :------------------|------------------|-----------------------------|

G  :-----------------------------|------------------|------------------|
D  :-----------------------------|3-3-3-3-3-3-5-3-0-|------------------|
A  :3-5-5-5-5-5-5-5-5-5-5-5-5-5-5|------------------|3-3-3-3-3-3-3-3-3-|
E  :-----------------------------|------------------|------------------|

G  :------------------|------------------|------------------|
D  :------------------|------------------|------------------|
A  :----------------1-|5-5-5-5-5-5-5-5-5-|3-3-3-3-3-3-3-3---|
E  :3-3-3-3-3-3-3-3---|------------------|----------------3-|

G  :------------------|-------------------------|--------------------|
D  :------------------|-------------------------|--------------------|
A  :------------------|1-1-1-1-1-1-1-1-1-1-1-1-1|1-1-1-1-1-1-1-5-3-1-|
E  :1-1-1-1-1-1-1-1-1-|-------------------------|--------------------|

G  :-----------------------------|----------------|
D  :-----------------------------|----------------|
A  :0-0-0-0-0-0-0-0-0-0-0-0-0-0-0|0---*-----------|
E  :-----------------------------|----------------|

G  :-----------------------------|-------------------------------|
D  :-----------------------------|-------------------------------|
A  :5-5-5-5-5-5-5-5-5-5-5-5-5-5-5|5-5-5-5-5-5-5-5-5-5-5-5-5-5-5-5|
E  :-----------------------------|-------------------------------|

G  :------------------|------------------|-----------------------------|
D  :------------------|------------------|-----------------------------|
A  :1-1-1-1-1-1-1-0-1-|3-3-3-3-3-3-3-0-3-|5-5-5-5-5-5-5-5-5-5-5-5-5-5-5|
E  :------------------|------------------|-----------------------------|

G  :-------------------------------|------------------|------------------|
D  :-------------------------------|------------------|------------------|
A  :5-5-5-5-5-5-5-5-5-5-5-5-5-5-5-5|1-1-1-1-1-1-1-0-1-|3-3-3-3-3-3-3-0-3-|
E  :-------------------------------|------------------|------------------|

G  :---------------------------|---------------------------|
D  :---------------------------|---------------------------|
A  :3-5-5-5-5-3-3-3-5-5-5-5-3-3|3-5-5-5-5-3-3-3-5-5-5-5-3-3|
E  :---------------------------|---------------------------|

G  :---------------------------|7-7-7-7-7-5-5-------|
D  :---------------------------|--------------7-5-3-|
A  :3-5-5-5-5-3-3-3-5-5-5-5-3-3|--------------------|
E  :---------------------------|--------------------|

G  :---------------------------|---------------------------|
D  :---------------------------|---------------------------|
A  :3-5-5-5-5-3-3-3-5-5-5-5-3-3|3-5-5-5-5-3-3-3-5-5-5-5-3-3|
E  :---------------------------|---------------------------|

G  :---------------------------|---------------------------|
D  :---------------------------|---------------------------|
A  :3-5-5-5-5-3-3-3-5-5-5-5-3-3|3-5-5-5-5-3-3-3-5-5-5-5-3-3|
E  :---------------------------|---------------------------|

G  :5-7-7-7-7-5-5-5-7-7-7-7-5-5|5-7-7-7-7-5-5-5-7-7-7-7-5-7|
D  :---------------------------|---------------------------|
A  :---------------------------|---------------------------|
E  :---------------------------|---------------------------|

G  :5-7-7-7-7-5-5-5-7-7-7-7-5-5|5-7-7-7-7-5-5-5-7-7-7-7-5---5|
D  :---------------------------|--------------------------7--|
A  :---------------------------|-----------------------------|
E  :---------------------------|-----------------------------|

G  :5-7-7-7-7-5-5-5-7-7-7-7-5-5|5-7-7-7-7-5-5-----5-7-----5-7|
D  :---------------------------|--------------5-7-----5-7----|
A  :---------------------------|-----------------------------|
E  :---------------------------|-----------------------------|

G  :5-7-7-7-7-5-5-5-7-7-7-7-5-5|5-7-7-7-7-5-5-7-5---5--------|
D  :---------------------------|------------------7---7-3-5-3|
A  :---------------------------|-----------------------------|
E  :---------------------------|-----------------------------|

G  :5-7-7-7-7-5-5-5-7-7-7-7-5-5|5-7-7-7-7-5-5-----5-7-----5-7|
D  :---------------------------|--------------5-7-----5-7----|
A  :---------------------------|-----------------------------|
E  :---------------------------|-----------------------------|

G  :5-7-7-7-7-5-5-5-7-7-7-7-5-5|5-7-7-7-7-5-5-7-5---5--------|
D  :---------------------------|------------------7---7-3-5-3|
A  :---------------------------|-----------------------------|
E  :---------------------------|-----------------------------|

G  :----------------|5---------------|----------------|--------------7-5---|
D  :----------------|--------7-----5-|3-------3-5-3-0-|------------7-----7-|
A  :5---------------|----------------|----------------|3-----3-3-5---------|
E  :----------------|----------------|----------------|--------------------|

G  :------------------|----------------|
D  :----------7-5-3-2-|3---5-7---5-3-2-|
A  :5-----------------|----------------|
E  :------------------|----------------|

G  :-------------------------|-------------------------|
D  :-------------------------|-------------------------|
A  :1-1-1-1-1-1-1-1-1-1-1-1-1|1-1-1-1-1-1-1-1-1-1-1-1-1|
E  :-------------------------|-------------------------|

G  :---------------------------|----------------|
D  :5-7-7-7-7-7-7-7-7-7-7-7-7-7|7---*-----------|
A  :---------------------------|----------------|
E  :---------------------------|----------------|

G  :-----------------------------|-----------------------------|
D  :-----------------------------|-----------------------------|
A  :5-5-5-5-5-5-5-5-5-5-5-5-5-5-5|3-5-5-5-5-5-5-5-5-5-5-5-5-5-5|
E  :-----------------------------|-----------------------------|

G  :--------------------|--------------------|-----------------------------|
D  :--------------------|--------------------|-----------------------------|
A  :3-3---1-3-3-3-3-3-3-|1-3-3-3-1-3-3-3-1-3-|5-5-5-5-5-5-5-5-5-5-5-5-5-5-5|
E  :--------------------|--------------------|-----------------------------|

G  :----------------------------|--------------------|3-5-5-3-2-0-------|
D  :--------------3-3-5-5-3-3---|----------3-5-5-5-5-|------------3-2-0-|
A  :3-5-5-5-5-5-5-------------5-|1-3-3-3-3-----------|------------------|
E  :----------------------------|--------------------|------------------|

G  :------------------|----------------3-|7-7-7-7-7-7-7-7-7-7-7-7-7-7-7|
D  :------------------|--------------3---|-----------------------------|
A  :1-1-1-1-1-1-1-1-1-|1-1-1-1-1-1-1-----|-----------------------------|
E  :------------------|------------------|-----------------------------|

G  :7-7-7-7-7-7-7-7-7-7-7-7-7---|------------------|------------------|
D  :----------------------------|------------------|------------------|
A  :----------------------------|1-1-1-1-1-1-1-1-1-|1-1-1-1-1-1-5-3-1-|
E  :----------------------------|------------------|------------------|

G  :----------------|2-2-2-2-5-2-0-----|
D  :--------2-2-2-2-|--------------3-2-|
A  :0-0-0-0---------|------------------|
E  :----------------|------------------|

G  :------------------|------------------|------------------|
D  :------------------|------------------|------------------|
A  :5-5-5-5-5-5-5-5-5-|3-3-3-3-3-3-3-3-3-|------------------|
E  :------------------|------------------|1-1-1-1-1-1-3-1-3-|

G  :------------------|------------------|------------------|
D  :------------------|------------------|--------------0-3-|
A  :------------------|1-1-1-1-1-1-5-3-1-|0-0-0-0-0-0-0-----|
E  :3-3-3-3-3-3-3-3-5-|------------------|------------------|

G  :------------------|------------------|------------------|
D  :5-5-5-5-5-5-3-2-0-|------------------|------------------|
A  :------------------|3-3-3-3-3-3-1-0---|1-1-1-1-3---1-3-5-|
E  :------------------|----------------3-|------------------|

G  :-----------------------|------------------|---------------------------|
D  :-----------------------|------------------|---------------------------|
A  :----5-5-5-5-5-5-5-5-5-5|1-1-1-1-3---1-3-5-|--5-5-5-5-5-5-5-5-5-5-5-5-5|
E  :-----------------------|------------------|---------------------------|

G  :------5-----5-7-|--7-7-7-7-7-7-7-------|----------------7-5-|
D  :8---8-----8-----|----------------8-7-5-|--5-5-5-5-5-5-8-----|
A  :--8-------------|----------------------|--------------------|
E  :----------------|----------------------|--------------------|

G  :--5-5-5-5-5-------|
D  :------------5-----|
A  :--------------3-1-|
E  :------------------|

G  :------------------|----------------3-|7-7-7-7-7-7-7-7-7-7-7-7-7-7-7|
D  :------------------|--------------3---|-----------------------------|
A  :1-1-1-1-1-1-1-1-1-|1-1-1-1-1-1-1-----|-----------------------------|
E  :------------------|------------------|-----------------------------|

G  :7-7-7-7-7-7-7-7-7-7-7-7-7---|------------------|------------------|
D  :----------------------------|------------------|------------------|
A  :----------------------------|1-1-1-1-1-1-1-1-1-|1-1-1-1-1-1-5-3-1-|
E  :----------------------------|------------------|------------------|

G  :--------------------|2-2-2-2-2-2-0-----|
D  :----------2-2-2-2-2-|--------------3-2-|
A  :0-0-0-0-0-----------|------------------|
E  :--------------------|------------------|

G  :-----------------------------|-------------------------------|
D  :-----------------------------|-------------------------------|
A  :5-5-5-5-5-5-5-5-5-5-5-5-5-5-5|5-5-5-5-5-5-5-5-5-5-5-5-5-5-5-5|
E  :-----------------------------|-------------------------------|

G  :------------------|------------------|-----------------------------|
D  :------------------|------------------|-----------------------------|
A  :1-1-1-1-1-1-1-0-1-|3-3-3-3-3-3-3-0-3-|5-5-5-5-5-5-5-5-5-5-5-5-5-5-5|
E  :------------------|------------------|-----------------------------|

G  :-------------------------------|------------------|------------------|
D  :-------------------------------|3-3-3-3-3-3-5-3-0-|------------------|
A  :5-5-5-5-5-5-5-5-5-5-5-5-5-5-5-5|------------------|3-3-3-3-3-3-3-0-3-|
E  :-------------------------------|------------------|------------------|

G  :------------------|------------------|------------------|
D  :------------------|------------------|------------------|
A  :----------------1-|5-5-5-5-5-5-5-5-5-|3-3-3-3-3-3-3-3-3-|
E  :3-3-3-3-3-3-3-3---|------------------|------------------|

G  :------------------|---------------------------|--------------------|
D  :3-3-3-3-3-3-3-3-3-|---------------------------|--------------------|
A  :------------------|1-1-1-1-1-1-1-1-1-1-1-1-1-1|1-1-1-1-1-1-1-5-3-1-|
E  :------------------|---------------------------|--------------------|

G  :-------------------------|-------------------------|
D  :-------------------------|-------------------------|
A  :0-0-0-0-0-0-0-0-0-0-0-0-0|0-0-0-0-0-0-0-0-0-0-0-0-0|
E  :-------------------------|-------------------------|

G  :------------------|--------------------|------------------|
D  :------------------|--------------------|3-3-3-3-3-3-3-3-3-|
A  :5-5-5-5-5-5-5-5-5-|3-5-5-5-3-5-5-5-5-5-|------------------|
E  :------------------|--------------------|------------------|

G  :--------------------|------------------|--------------------|
D  :3-3-3-3-3-3-3-3-3-3-|------------------|--------------------|
A  :--------------------|3-3-3-3-3-3-3-3-3-|0-3-3-3-3-3-3-3-0-3-|
E  :--------------------|------------------|--------------------|

G  :--------------5---|----5-----------|------------------|
D  :----------5-7---7-|5-7---7-5-3-----|------------------|
A  :5-5-5-5-5---------|------------7-5-|5-5-5-5-5-5-5-5-5-|
E  :------------------|----------------|------------------|

G  :------------------|------------------|--------------0-2-|
D  :------------------|3-3-3-3-3-3-3-3-3-|3-3-3-3-3-3-3-----|
A  :5-5-5-5-5-5-5-5-5-|------------------|------------------|
E  :------------------|------------------|------------------|

G  :3-3-3-3-3-3-3-3-3-|5-7-5-3---------|--------------------|
D  :------------------|--------7-5-3---|----------3-5-5-5-5-|
A  :------------------|--------------7-|3-3-3-3-3-----------|
E  :------------------|----------------|--------------------|

G  :3-5-5-5-5-5-3-----|
D  :--------------5-3-|
A  :------------------|
E  :------------------|

G  :------------------|----------------3-|7-7-7-7-7-5-7-7-7-7-7-7-7-7|
D  :------------------|--------------3---|---------------------------|
A  :1-1-1-1-1-1-1-1-1-|1-1-1-1-1-1-1-----|---------------------------|
E  :------------------|------------------|---------------------------|

G  :5-7-7-7-7-5-7-7-7-7-7---|------------------|------------------|
D  :------------------------|------------------|------------------|
A  :------------------------|1-1-1-1-1-1-1-1-1-|1-1-1-1-1-1-5-3-1-|
E  :------------------------|------------------|------------------|

G  :----------------|2-2-2-2-2-2-0-----|
D  :--------2-2-2-2-|--------------3-2-|
A  :0-0-0-0---------|------------------|
E  :----------------|------------------|

G  :-----------------------------|-------------------------------|
D  :-----------------------------|-------------------------------|
A  :5-5-5-5-5-5-5-5-5-5-5-5-5-5-5|5-5-5-5-5-5-5-5-5-5-5-5-5-5-5-5|
E  :-----------------------------|-------------------------------|

G  :------------------|------------------|-----------------------------|
D  :------------------|------------------|-----------------------------|
A  :1-1-1-1-1-1-1-0-1-|3-3-3-3-3-3-3-1-3-|5-5-5-5-5-5-5-5-5-5-5-5-5-5-5|
E  :------------------|------------------|-----------------------------|

G  :-----------------------------|------------------|------------------|
D  :-----------------------------|3-3-3-3-3-3-5-3-0-|------------------|
A  :3-5-5-5-5-5-5-5-5-5-5-3-3-5-5|------------------|3-3-3-3-3-3-3-3-3-|
E  :-----------------------------|------------------|------------------|

G  :------------------|------------------|------------------|
D  :------------------|------------------|------------------|
A  :----------------1-|5-5-5-5-5-5-5-5-5-|3-3-3-3-3-3-3-3---|
E  :3-3-3-3-3-3-3-3---|------------------|----------------3-|

G  :------------------|-------------------------|--------------------|
D  :------------------|-------------------------|--------------------|
A  :------------------|1-1-1-1-1-1-1-1-1-1-1-1-1|1-1-1-1-1-1-1-5-3-1-|
E  :1-1-1-1-1-1-1-1-1-|-------------------------|--------------------|

G  :-----------------------------|-------------------------------|
D  :-----------------------------|-------------------------------|
A  :0-0-0-0-0-0-0-0-0-0-0-0-0-0-0|0-0-0-0-0-0-0-0-0-0-0-0-0-0-0-0|
E  :-----------------------------|-------------------------------|

G  :-----------------------------|--------------------------|
D  :-----------------------------|--------------------------|
A  :5-5-5-5-5-5-5-5-5-5-5-5-5-5-5|5-5-5-5-5-5-5-5-5-5-5-3-0-|
E  :-----------------------------|--------------------------|

G  :-----------------------------|-------------------------------|
D  :-----------------------------|-------------------------------|
A  :5-5-5-5-5-5-5-5-5-5-5-5-5-5-5|5-5-5-5-5-5-5-5-5-5-5-5-5-5-5-5|
E  :-----------------------------|-------------------------------|

G  :-----------------------------|--------------------------|
D  :-----------------------------|--------------------------|
A  :5-5-5-5-5-5-5-5-5-5-5-5-5-5-5|5-5-5-5-5-5-5-5-5-5-5-3-0-|
E  :-----------------------------|--------------------------|

G  :------------------|------------------|-----------------------------|
D  :------------------|------------------|-----------------------------|
A  :1-1-1-1-1-1-1-1-1-|3-3-3-3-3-3-3-3-3-|5-5-5-5-5-5-5-5-5-5-5-5-5-5-5|
E  :------------------|------------------|-----------------------------|

G  :--------------------------|-----------------------------|
D  :--------------------------|-----------------------------|
A  :5-5-5-5-5-5-5-5-5-5-5-3-0-|5-5-5-5-5-5-5-5-5-5-5-5-5-5-5|
E  :--------------------------|-----------------------------|

G  :-------------------------------|-----------------------------|
D  :-------------------------------|-----------------------------|
A  :5-5-5-5-5-5-5-5-5-5-5-5-5-5-5-5|5-5-5-5-5-5-5-5-5-5-5-5-5-5-5|
E  :-------------------------------|-----------------------------|

G  :--------------------------|------------------|------------------|
D  :--------------------------|------------------|------------------|
A  :5-5-5-5-5-5-5-5-5-5-5-3-0-|1-1-1-1-1-1-1-1-1-|3-3-3-3-3-3-3-3-3-|
E  :--------------------------|------------------|------------------|

G  :----------------|----------------|--------------------|----------------|
D  :----------------|----5---5---7---|12-12---10-12-------|0---*-----------|
A  :----------------|----------------|--------------------|----------------|
E  :5-5-5-5-5-5-5-5-|5-5-------------|--------------------|----------------|
comments
We did not receive enough feedback on this tab! Please rate:
print report bad tab
1 2 3 4 5
I want to post or [tab]
guest
You may want to rate the tab now too:
select rating
Please do not post tabs as comments. Select "correction" instead!