Oops, an error
Loading. Please wait.

Black Winter Night Bass Tab

ver2
ver2

Whole song

More versions @911Tabs.com
382 views 1 this week
no commentswrite comment
1 2 3 4 5
please rate
Autoscroll
+/-
esc
set tempo
stop
Contributor
WARNING: You are trying to view
                                    content from Ultimate-Guitar.com
                                    in an unauthorized application,
                                    which is prohibited.

                                    Please use an official Ultimate
                                    Guitar Tabs application for iPhone,
                                    iPad or Android to access legitimate
                                    chords, guitar, bass, and drum tabs
                                    from Ultimate-Guitar.com database.

                                    Type "ultimate guitar tabs" in Apple
                                    App Store's or Android Market's
                                    search to find the application.
#----------------------------------PLEASE NOTE---------------------------------#
#This file is the author's own work and represents their interpretation of the #
#song. You may only use this file for private study, scholarship, or research. #
#------------------------------------------------------------------------------#

BLACK WINTER NIGHT (Bassline)
As recorded by DragonForce
(From the 2003 Album VALLEY OF THE DAMNED)

Transcribed by Knightrider of Doom
	



Gtr I (E A D G) - 'Bass'
Gtr II (E A D G B E) - 'Keyboard 1'
Gtr III (E A D G B E) - 'Keyboard 2'

 Intro
  Q=100
 4/4
  Gtr I
   W                    H.             Q
|-------------------|----------------------|
|-------------------|----------------------|
|-------------------|----------------------|
|--0----------------|---0--------------0---|
|
| Gtr II
|  E.  E.  E  H         E.  E.  E  Q   Q
|-24--23--24-19-----|--24--23--24-19--17---|
|-17--16--17-12-----|--17--16--17-12--10---|
|-------------------|----------------------|
|-------------------|----------------------|
|-------------------|----------------------|
|-------------------|----------------------|
|
| Gtr III
|  W                   +W
|-12----------------|-(12)-----------------|
|-------------------|----------------------|
|--9----------------|--(9)-----------------|
|-------------------|----------------------|
|--7----------------|--(7)-----------------|
|--0----------------|--(0)-----------------|


   W                    Q      Q     E   S  S   +Q
|-------------------|----------2S===14--14-14--(14)\----|
|-------------------|-----------------------------------|
|--0----------------|---0-------------------------------|
|-------------------|-----------------------------------|
|
|  E.  E.  E  H         E.  E.    E  E.     E.        E
|-17--19--21-24-----|--17--19----21-17-----16--------14-|
|-10--12--14-17-----|--10--12----14-10------9---------7-|
|-------------------|-----------------------------------|
|-------------------|-----------------------------------|
|-------------------|-----------------------------------|
|-------------------|-----------------------------------|
|
|  W                   +W
|-12----------------|-(12)------------------------------|
|-10----------------|-(10)------------------------------|
|-------------------|-----------------------------------|
|--7----------------|--(7)------------------------------|
|-------------------|-----------------------------------|
|--5----------------|--(5)------------------------------|


   E  S  S  E  E  E E E E     E  S  S  E  E  E E   Q
|-------------------------|--------------------------------|
|-------------------------|--------------------------------|
|-------------------------|--------------------------------|
|--0--0--0--0--0--0-0-0-0-|---0--0--0--0--0--0-0---0S======|
|
|  E.    E.    E  H           E.    E.    E  Q     E    E
|-24----23----24-19-------|--24----23----24-19---[14]-[16]-|
|-17----16----17-12-------|--17----16----17-12----[7]--[9]-|
|-------------------------|--------------------------------|
|-------------------------|--------------------------------|
|-------------------------|--------------------------------|
|-------------------------|--------------------------------|
|
|  W                         +W
|-12----------------------|-(12)---------------------------|
|-------------------------|--------------------------------|
|--9----------------------|--(9)---------------------------|
|-------------------------|--------------------------------|
|--7----------------------|--(7)---------------------------|
|--0----------------------|--(0)---------------------------|


    E  S   S  E   E    E  E E E     E  S   S  E   E    E  E      E  E
|-------------------------------|--------------------------------------|
|-------------------------------|--------------------------------------|
|-------------------------------|--------------------------------------|
|---5--5---5--5---5----5--5-5S0S|===5--5---5--5---5----5--5------5--5--|
|
|   E.     E.     E    H            E.     E.     E    E.     E.    E
|-[17]---[16]---[14]-[12]-------|-[17]---[16]---[14]-[12]---[11]---[9]-|
|-[10]----[9]----[7]--[5]-------|-[10]----[9]----[7]--[5]----[4]---[2]-|
|-------------------------------|--------------------------------------|
|-------------------------------|--------------------------------------|
|-------------------------------|--------------------------------------|
|-------------------------------|--------------------------------------|
|
|   W                              +W
|--12---------------------------|-(12)---------------------------------|
|--10---------------------------|-(10)---------------------------------|
|-------------------------------|--------------------------------------|
|---7---------------------------|--(7)---------------------------------|
|-------------------------------|--------------------------------------|
|---5---------------------------|--(5)---------------------------------|


   E  E     E  S S  E E E E    E  E     E  S S  E E  E E
|---------------------------|----------------------------|
|---------------------------|----------------------------|
|---------------------------|----------------------------|
|--9--9-----9--9S0S=5-5-5-5-|--9--9-----9--9S0S=5-5--5-5-|
|
|  E.    E.    E    H          E.    E.    E    Q    Q
|-21----21----24---17-------|-21----21----24---19---17---|
|-17----14----17---10-------|-17----14----17---12---10---|
|---------------------------|----------------------------|
|---------------------------|----------------------------|
|---------------------------|----------------------------|
|---------------------------|----------------------------|
|
|  H                H          H                H
|-12------------------------|-12-------------------------|
|---------------------------|----------------------------|
|--6------------------------|--6-------------------------|
|-------------------7-------|-------------------7--------|
|---------------------------|----------------------------|
|--9----------------5-------|--9----------------5--------|


   E  E     E  S S  S S S S  S S S S    S S S S S S S S E Q.
|------------------------------------|-------------------------|
|------------------------------------|-------------------------|
|------------------------------------|-------------------------|
|--9--9-----9--9S0S=5-5-5-5--5-5-5-5-|--7-7-7-7-7-7-7-7-7------|
|
|  E.    E.    E    Q        Q          H               H
|-21----21----24---19-------17-------|-14----------------------|
|-17----14----17---12-------10-------|--7----------------------|
|------------------------------------|-------------------------|
|------------------------------------|-------------------------|
|------------------------------------|-------------------------|
|------------------------------------|-------------------------|
|
|  H                H                   H               H
|-12---------------------------------|--7----------------------|
|------------------------------------|-------------------------|
|--6---------------------------------|-------------------------|
|-------------------7----------------|--9----------------------|
|------------------------------------|-------------------------|
|--9----------------5----------------|--7----------------------|


  Q=101
   S  T T  T T  S  T T  T T  T T  T T  S  T T  T T  S  T T  T T  T T  T T
|-------------------------------------------------------------------------|
|-------------------------------------------------------------------------|
|--7--7-7--7-7--7--7-7--7-7--7-7--7-7--7--7-7--7-7--7--7-7--7-7--7-7--7-7-|
|-------------------------------------------------------------------------|
|
|  S  S    S    S  S    S    S    S    S  S    S    S  S    S    S    S
|-24-19---12---24-19---12---24---19---21-17---12---21-17---12---21---17---|
|-------------------------------------------------------------------------|
|-------------------------------------------------------------------------|
|-------------------------------------------------------------------------|
|-------------------------------------------------------------------------|
|-------------------------------------------------------------------------|
|
|  H                                   H
|--4-----------------------------------5----------------------------------|
|--5-----------------------------------7----------------------------------|
|-------------------------------------------------------------------------|
|-------------------------------------------------------------------------|
|--7----------------------------------------------------------------------|
|-------------------------------------------------------------------------|


   S  T T  T T  S  T T  T T  T T  T T  S  T T  T T  S  T T  T T  E
|---------------------------------------------------------------------|
|---------------------------------------------------------------------|
|--7--7-7--7-7--7--7-7--7-7--7-7--7-7--7--7-7--7-7--7--7-7--7-7-------|
|----------------------------------------------------------------0S===|
|
|  S  S    S    S  S    S    S    S    S  S    S    S  S    S    S  S
|-24-19---12---24-19---12---24---19---21-17---12---21-17---12---21-17-|
|---------------------------------------------------------------------|
|---------------------------------------------------------------------|
|---------------------------------------------------------------------|
|---------------------------------------------------------------------|
|---------------------------------------------------------------------|
|
|  H                                   H
|--4-----------------------------------5------------------------------|
|--5-----------------------------------7------------------------------|
|---------------------------------------------------------------------|
|---------------------------------------------------------------------|
|--7------------------------------------------------------------------|
|---------------------------------------------------------------------|


   S  T T  T T  S  T T  T T  T T  T T  S  T T  T T  S  T T  T T  T T  T T
|-------------------------------------------------------------------------|
|-------------------------------------------------------------------------|
|-------------------------------------------------------------------------|
|--5--5-5--5-5--5--5-5--5-5--5-5--5-5--5--5-5--5-5--5--5-5--5-5--5-5--5-5-|
|
|  S  S    S    S  S    S    S    S    S  S    S    S  S    S    S    S
|-24-19---12---24-19---12---24---19---21-17---12---21-17---12---21---17---|
|-------------------------------------------------------------------------|
|-------------------------------------------------------------------------|
|-------------------------------------------------------------------------|
|-------------------------------------------------------------------------|
|-------------------------------------------------------------------------|
|
|  H                                   H
|--4-----------------------------------5----------------------------------|
|--5-----------------------------------7----------------------------------|
|-------------------------------------------------------------------------|
|--7----------------------------------------------------------------------|
|-------------------------------------------------------------------------|
|-------------------------------------------------------------------------|


   S  T T  T T  S  T T  T T  T T  T T  S  T T  T T  S  T T  T T  T T  T T
|-------------------------------------------------------------------------|
|-------------------------------------------------------------------------|
|-------------------------------------------------------------------------|
|--5--5-5--5-5--5--5-5--5-5--5-5--5-5--5--5-5--5-5--5--5-5--5-5--5-5--5-5-|
|
|  S  S    S    S  S    S    S    S    S  S    S    S  S    S    S    S
|-24-19---12---24-19---12---24---19---21-17---12---21-17---12---21---17---|
|-------------------------------------------------------------------------|
|-------------------------------------------------------------------------|
|-------------------------------------------------------------------------|
|-------------------------------------------------------------------------|
|-------------------------------------------------------------------------|
|
|  H                                   H
|--4-----------------------------------5----------------------------------|
|--5-----------------------------------7----------------------------------|
|-------------------------------------------------------------------------|
|--7----------------------------------------------------------------------|
|-------------------------------------------------------------------------|
|-------------------------------------------------------------------------|


   S  T T  T T  S  T T  T T  T T  T T  S  T T  T T  S  T T  T T  T T  T T
|-------------------------------------------------------------------------|
|-------------------------------------------------------------------------|
|--7--7-7--7-7--7--7-7--7-7--7-7--7-7--7--7-7--7-7--7--7-7--7-7--7-7--7-7-|
|-------------------------------------------------------------------------|
|
|  S  S    S    S  S    S    S    S    S  S    S    S  S    S    S    S
|-24-19---12---24-19---12---24---19---21-17---12---21-17---12---21---17---|
|-------------------------------------------------------------------------|
|-------------------------------------------------------------------------|
|-------------------------------------------------------------------------|
|-------------------------------------------------------------------------|
|-------------------------------------------------------------------------|
|
|  H                                   H
|--4-----------------------------------5----------------------------------|
|--5-----------------------------------7----------------------------------|
|-------------------------------------------------------------------------|
|-------------------------------------------------------------------------|
|--7----------------------------------------------------------------------|
|-------------------------------------------------------------------------|


   S  T T  T T  S  T T  T T  T T  T T  S  T T  T T  S  T T  T T  E
|---------------------------------------------------------------------|
|---------------------------------------------------------------------|
|--7--7-7--7-7--7--7-7--7-7--7-7--7-7--7--7-7--7-7--7--7-7--7-7-------|
|----------------------------------------------------------------0S===|
|
|  S  S    S    S  S    S    S    S    S  S    S    S  S    S    S  S
|-24-19---12---24-19---12---24---19---21-17---12---21-17---12---21-17-|
|---------------------------------------------------------------------|
|---------------------------------------------------------------------|
|---------------------------------------------------------------------|
|---------------------------------------------------------------------|
|---------------------------------------------------------------------|
|
|  H                                   H
|--4-----------------------------------5------------------------------|
|--5-----------------------------------7------------------------------|
|---------------------------------------------------------------------|
|---------------------------------------------------------------------|
|--7------------------------------------------------------------------|
|---------------------------------------------------------------------|


   S  T T  T T  S  T T  T T  T T  T T  S  T T  T T  S  T T  T T  T T  T T
|-------------------------------------------------------------------------|
|-------------------------------------------------------------------------|
|-------------------------------------------------------------------------|
|--5--5-5--5-5--5--5-5--5-5--5-5--5-5--5--5-5--5-5--5--5-5--5-5--5-5--5-5-|
|
|  S  S    S    S  S    S    S    S    S  S    S    S  S    S    S    S
|-24-19---12---24-19---12---24---19---21-17---12---21-17---12---21---17---|
|-------------------------------------------------------------------------|
|-------------------------------------------------------------------------|
|-------------------------------------------------------------------------|
|-------------------------------------------------------------------------|
|-------------------------------------------------------------------------|
|
|  H                                   H
|--4-----------------------------------5----------------------------------|
|--5-----------------------------------7----------------------------------|
|-------------------------------------------------------------------------|
|--7----------------------------------------------------------------------|
|-------------------------------------------------------------------------|
|-------------------------------------------------------------------------|


   S  T T  T T  S  T T  T T  T T  T T  S  T T  T T  S  T T  T T  T T  T T
|-------------------------------------------------------------------------|
|-------------------------------------------------------------------------|
|-------------------------------------------------------------------------|
|--0--5-5--5-5--5--5-5--5-5--5-5--5-5--5--5-5--5-5--5--5-5--5-5--0-0--0-0-|
|
|  S  S    S    S  S    S    S    S    S  S    S    S  S    S    S    S
|-24-19---12---24-19---12---24---19---21-17---12---21-17---12---21---17---|
|-------------------------------------------------------------------------|
|-------------------------------------------------------------------------|
|-------------------------------------------------------------------------|
|-------------------------------------------------------------------------|
|-------------------------------------------------------------------------|
|
|  H                                   H
|--4-----------------------------------5----------------------------------|
|--5-----------------------------------7----------------------------------|
|-------------------------------------------------------------------------|
|--7----------------------------------------------------------------------|
|-------------------------------------------------------------------------|
|-------------------------------------------------------------------------|


  Q=99
   S  S S  S  S S  S S  S S S S S S S S
|---------------------------------------|
|---------------------------------------|
|--4--4-4--4--4-4--4-4--4S0-0-0-0-0-0-0-|
|---------------------------------------|
|
|  E.      E.      E    H
|-21------21------24---17---------------|
|-17------14------17---10---------------|
|---------------------------------------|
|---------------------------------------|
|---------------------------------------|
|---------------------------------------|
|
|  H                    H
|-12------------------------------------|
|---------------------------------------|
|--6------------------------------------|
|-----------------------7---------------|
|---------------------------------------|
|--9--------------------5---------------|


   S  S S  S  S S  S S  S S S S  S S S S
|-----------------------------------------|
|-----------------------------------------|
|--4--4-4--4--4-4--4-4--4S0-0-0--0-0-0-0--|
|-----------------------------------------|
|
|  E.      E.      E    Q        Q
|-21------21------24---19-------17--------|
|-17------14------17---12-------10--------|
|-----------------------------------------|
|-----------------------------------------|
|-----------------------------------------|
|-----------------------------------------|
|
|  H                    H
|-12--------------------------------------|
|-----------------------------------------|
|--6--------------------------------------|
|-----------------------7-----------------|
|-----------------------------------------|
|--9--------------------5-----------------|


   S  S S  S  S S  S S  S S S S  S S S S    S S S S S S S S S S S S S S S S
|----------------------------------------|-----------------------------------||
|----------------------------------------|-----------------------------------||
|--4--4-4--4--4-4--4-4--4S0-0-0--0-0-0-0-|--2-2-2-2-2-2-2-2-2-2-2-2-2-2-2-2--||
|----------------------------------------|-----------------------------------||
|
|  E.      E.      E    Q        Q          W
|-21------21------24---19-------17-------|-14--------------------------------||
|-17------14------17---12-------10-------|--7--------------------------------||
|----------------------------------------|--4--------------------------------||
|----------------------------------------|-----------------------------------||
|----------------------------------------|-----------------------------------||
|----------------------------------------|-----------------------------------||
|
|  H                    H                   W
|-12-------------------------------------|--7--------------------------------||
|----------------------------------------|-----------------------------------||
|--6-------------------------------------|-----------------------------------||
|-----------------------7----------------|--9--------------------------------||
|----------------------------------------|-----------------------------------||
|--9--------------------5----------------|--7--------------------------------||


 Verse 1
   S T T T T S T T T T T T T T T T T T T T T T T T T T T T T T
|--------------------------------------------------------------|
|--------------------------------------------------------------|
|--4-4-4-4-4-4-4-4-4-4-4-4-4-4-4-4-4-4-4-4-4-4-4-4-4-4-4-4-4-4-|
|--------------------------------------------------------------|
|
|  W
|--------------------------------------------------------------|
|-14-----------------------------------------------------------|
|-13-----------------------------------------------------------|
|-11-----------------------------------------------------------|
|--------------------------------------------------------------|
|--------------------------------------------------------------|


   S T T T T S T T T T T T T T T T T T T T T T T T T T T T T T
|--------------------------------------------------------------|
|--------------------------------------------------------------|
|--7-7-7-7-7-7-7-7-7-7-7-7-7-7-7-7-7-7-7-7-7-7-7-7-7-7-7-7-7-7-|
|--------------------------------------------------------------|
|
|  W
|--------------------------------------------------------------|
|-12-----------------------------------------------------------|
|--9-----------------------------------------------------------|
|--9-----------------------------------------------------------|
|--------------------------------------------------------------|
|--------------------------------------------------------------|


   S T T T T S T T T T T T T T T T T T T T T T T T T T T T T T
|--------------------------------------------------------------|
|--7-7-7-7-7-7-7-7-7-7-7-7-7-7-7-7-7-7-7-7-7-7-7-7-7-7-7-7-7-7-|
|--------------------------------------------------------------|
|--------------------------------------------------------------|
|
|  W
|--------------------------------------------------------------|
|-14-----------------------------------------------------------|
|-14-----------------------------------------------------------|
|--7-----------------------------------------------------------|
|--------------------------------------------------------------|
|--------------------------------------------------------------|


   S T T T T S T T T T T T T T S T T T T S S S E
|------------------------------8S9-9-9-9-9-9-9-9-|
|------------------------------------------------|
|--7-7-7-7-7-7-7-7-7-7-7-7-7-7-------------------|
|------------------------------------------------|
|
|  W
|------------------------------------------------|
|-12---------------------------------------------|
|--9---------------------------------------------|
|--9---------------------------------------------|
|------------------------------------------------|
|------------------------------------------------|


   S T T T T S T T T T T T T T S T T T T S T T T T S T T
|--------------------------------------------------------|
|--------------------------------------------------------|
|--4-4-4-4-4-4-4-4-4-4-4-4-4-4-4-4-4-4-4-4-4-4-4-4-4-4-4-|
|--------------------------------------------------------|
|
|  W
|--------------------------------------------------------|
|-14-----------------------------------------------------|
|-13-----------------------------------------------------|
|-11-----------------------------------------------------|
|--------------------------------------------------------|
|--------------------------------------------------------|


   S T T T T S T T T T T T T T S T T T T S T T T T S T T
|--------------------------------------------------------|
|--------------------------------------------------------|
|--------------------------------------------------------|
|--0-0-0-0-0-0-0-0-0-0-0-0-0-0-0-0-0-0-0-0-0-0-0-0-0-0-0-|
|
|  W
|--------------------------------------------------------|
|-12-----------------------------------------------------|
|--9-----------------------------------------------------|
|--9-----------------------------------------------------|
|--------------------------------------------------------|
|--------------------------------------------------------|


   S T T T T S T T T T T T T T S T T T T S T T T T S T T
|--------------------------------------------------------|
|--------------------------------------------------------|
|--------------------------------------------------------|
|--5-5-5-5-5-5-5-5-5-5-5-5-5-5-5-5-5-5-5-5-5-5-5-5-5-5-5-|
|
|  W
|--------------------------------------------------------|
|-14-----------------------------------------------------|
|-14-----------------------------------------------------|
|--7-----------------------------------------------------|
|--------------------------------------------------------|
|--------------------------------------------------------|


   S T T T T S T T T T T T T T S T T T T T T E E
|------------------------------------------------||
|------------------------------------------------||
|------------------------------------------------||
|--0-0-0-0-0-0-0-0-0-0-0-0-0-0-0-0-0-0-0-0-0-0-0-||
|
|  W
|------------------------------------------------||
|-12---------------------------------------------||
|--9---------------------------------------------||
|--9---------------------------------------------||
|------------------------------------------------||
|------------------------------------------------||


 Bridge
  S S S S S S S S  S S S S S S S S   S S S S S S S S S S S S S S S S
|----------------------------------|----------------------------------|
|----------------------------------|----------------------------------|
|-4-----4-----4----7-----7-----7---|-7-7-7-7-7-7-7-7-7-7-7-7-7-7-7-7--|
|---4-4---4-4---4----5-5---5-5---5-|----------------------------------|
|
| H                H                 W
|-7----------------9---------------|-7--------------------------------|
|-9---------------10---------------|-9--------------------------------|
|----------------------------------|----------------------------------|
|-9---------------11---------------|-9--------------------------------|
|----------------------------------|----------------------------------|
|----------------------------------|----------------------------------|


   S S S S S S S S S S S S S S S S   S S S S S S S S S S S S S S S S
|----------------------------------|----------------------------------|
|----------------------------------|----------------------------------|
|----------------------------------|----------------------------------|
|--2-2-2-2-2-2-2-2-5-5-5-5-5-5-5-5-|-7-7-7-7-7-7-7-7-7-7-7-7-7-7-7-7--|
|
|  W                                 W
|--9-------------------------------|-7--------------------------------|
|-10-------------------------------|-7--------------------------------|
|----------------------------------|----------------------------------|
|-11-------------------------------|-9--------------------------------|
|----------------------------------|----------------------------------|
|----------------------------------|----------------------------------|


   S T T T T T T T T T T T T T T  E  S  S  +Q
|-----------------------------------------------|
|-----------------------------------------------|
|--7-7-7-7-7-7-7-7-7-7-7-7-7-7-7--7--6--7--(7)--|
|-----------------------------------------------|
|
| Gtrs II, III
|  H                              E  S  S  +Q
|-----------------------------------------------|
|-17-----------------------------17-16-17-(17)--|
|-16-----------------------------16-13-16-(16)--|
|-14-----------------------------14-13-14-(14)--|
|-----------------------------------------------|
|-----------------------------------------------|


   S T T T T T T T T T T T T T T  E  S  S  +Q
|-----------------------------------------------|
|-----------------------------------------------|
|--6S7-7-7-7-7-7-7-7-7-7-7-7-7-7--7--6--7--(7)--|
|-----------------------------------------------|
|
|  H                              E  S  S  +Q
|--------------------------------16-14-16-(16)--|
|-17-----------------------------17-16-17-(17)--|
|-16-----------------------------16-13-16-(16)--|
|-14-----------------------------14-13-14-(14)--|
|-----------------------------------------------|
|-----------------------------------------------|


   S S S S S S S S S S S S S S S S    S S S S S S S S S S S S S S S S
|----------------------------------|-----------------------------------||
|----------------------------------|-----------------------------------||
|----------------------------------|-----------------------------------||
|--5-5-5-5-5-5-5-5-5-5-5-5-5-5-5-5-|--5-5-5-5-5-5-5-5-5-5-5-5-5-5-5-5--||
|
|  W                                  W
|--9-------------------------------|--9--------------------------------||
|-10-------------------------------|-10--------------------------------||
|--9-------------------------------|--9--------------------------------||
|--7-------------------------------|--7--------------------------------||
|----------------------------------|-----------------------------------||
|----------------------------------|-----------------------------------||


 Verse 2
  Q=101
   S T T T T S T T T T T T T T T T T T T T T T T T T T T T T T
|--------------------------------------------------------------|
|--------------------------------------------------------------|
|--4-4-4-4-4-4-4-4-4-4-4-4-4-4-4-4-4-4-4-4-4-4-4-4-4-4-4-4-4-4-|
|--------------------------------------------------------------|
|
|  W
|--------------------------------------------------------------|
|-14-----------------------------------------------------------|
|-13-----------------------------------------------------------|
|-11-----------------------------------------------------------|
|--------------------------------------------------------------|
|--------------------------------------------------------------|


   S T T T T S T T T T T T T T T T T T T T T T T T T T T T T T
|--------------------------------------------------------------|
|--------------------------------------------------------------|
|--7-7-7-7-7-7-7-7-7-7-7-7-7-7-7-7-7-7-7-7-7-7-7-7-7-7-7-7-7-7-|
|--------------------------------------------------------------|
|
|  W
|--------------------------------------------------------------|
|-12-----------------------------------------------------------|
|--9-----------------------------------------------------------|
|--9-----------------------------------------------------------|
|--------------------------------------------------------------|
|--------------------------------------------------------------|


   S T T T T S T T T T T T T T T T T T T T T T T T T T T T T T
|--------------------------------------------------------------|
|--7-7-7-7-7-7-7-7-7-7-7-7-7-7-7-7-7-7-7-7-7-7-7-7-7-7-7-7-7-7-|
|--------------------------------------------------------------|
|--------------------------------------------------------------|
|
|  W
|--------------------------------------------------------------|
|-14-----------------------------------------------------------|
|-14-----------------------------------------------------------|
|--7-----------------------------------------------------------|
|--------------------------------------------------------------|
|--------------------------------------------------------------|


   S T T T T S T T T T T T T T S T T T T S S S S S
|------------------------------8S9-9-9-9-9-9-9-----|
|--7-7-7-7-7-7-7-7-7-7-7-7-7-7-----------------9---|
|------------------------------------------------9-|
|--------------------------------------------------|
|
|  W
|--------------------------------------------------|
|-12-----------------------------------------------|
|--9-----------------------------------------------|
|--9-----------------------------------------------|
|--------------------------------------------------|
|--------------------------------------------------|


    S  T T T T S T T T T   T  T T T   S  T T T T S T T T T   S  T T
|-------------------------------------------------------------------|
|-------------------------------------------------------------------|
|---4--4-4-4-4-4-4-4-4-4---4--4-4-4---4--4-4-4-4-4-4-4-4-4---4--4-4-|
|-------------------------------------------------------------------|
|
|   Q.                     E          Q.                     E
|-[16]-------------------[12]-------[16]-------------------[14]-----|
|--[9]--------------------[5]--------[9]--------------------[7]-----|
|-------------------------------------------------------------------|
|-------------------------------------------------------------------|
|-------------------------------------------------------------------|
|-------------------------------------------------------------------|
|
| Gtr III
|   W
|-------------------------------------------------------------------|
|--14---------------------------------------------------------------|
|--13---------------------------------------------------------------|
|--11---------------------------------------------------------------|
|-------------------------------------------------------------------|
|-------------------------------------------------------------------|


    S  T T T T S T T T T   T  T T T  S  T T T T S T T T T  S  T T
|-----------------------------------------------------------------|
|-----------------------------------------------------------------|
|-----------------------------------------------------------------|
|---0--0-0-0-0-0-0-0-0-0---0--0-0-0--0--0-0-0-0-0-0-0-0-0--0--0-0-|
|
|   Q.                     E         Q.                    E
|-[12]-------------------[11]-------[7]-------------------[4]-----|
|--[5]--------------------[4]-------[0]---------------------------|
|---------------------------------------------------------[1]-----|
|-----------------------------------------------------------------|
|-----------------------------------------------------------------|
|-----------------------------------------------------------------|
|
|   W
|-----------------------------------------------------------------|
|--12-------------------------------------------------------------|
|---9-------------------------------------------------------------|
|---9-------------------------------------------------------------|
|-----------------------------------------------------------------|
|-----------------------------------------------------------------|


   S  T T T T S T T T T  T  T T T  S  T T T T S  T  T T T  S  T T
|-----------------------------------------------------------------|
|-----------------------------------------------------------------|
|-----------------------------------------------------------------|
|--5--5-5-5-5-5-5-5-5-5--5--5-5-5--5--5-5-5-5-5--5--5-5-5--5--5-5-|
|
|  Q.                    E         Q             E         E
|-[5]-------------------[7]-------[9]-----------[7]-------[5]-----|
|-----------------------[0]-------[2]-----------[0]---------------|
|-[2]-----------------------------------------------------[2]-----|
|-----------------------------------------------------------------|
|-----------------------------------------------------------------|
|-----------------------------------------------------------------|
|
|  W
|-----------------------------------------------------------------|
|-14--------------------------------------------------------------|
|-14--------------------------------------------------------------|
|--7--------------------------------------------------------------|
|-----------------------------------------------------------------|
|-----------------------------------------------------------------|


   S  T T T T S T T T T  T T T T  S T T T T T T E E
|---------------------------------------------------||
|---------------------------------------------------||
|---------------------------------------------------||
|--0--0-0-0-0-0-0-0-0-0--0-0-0-0--0-0-0-0-0-0-0-0-0-||
|
|  Q.                    E        H
|-[4]-------------------14-------12-----------------||
|------------------------7--------5-----------------||
|-[1]-----------------------------------------------||
|---------------------------------------------------||
|---------------------------------------------------||
|---------------------------------------------------||
|
|  W
|---------------------------------------------------||
|-12------------------------------------------------||
|--9------------------------------------------------||
|--9------------------------------------------------||
|---------------------------------------------------||
|---------------------------------------------------||


 Bridge
  S S S S S S S S  S S S S S S S S   S S S S S S S S S S S S S S S S
|----------------------------------|----------------------------------|
|----------------------------------|----------------------------------|
|-4-----4-----4----7-----7-----7---|-7-7-7-7-7-7-7-7-7-7-7-7-7-7-7-7--|
|---4-4---4-4---4----5-5---5-5---5-|----------------------------------|
|
| H                H                 W
|-7----------------9---------------|-7--------------------------------|
|-9---------------10---------------|-9--------------------------------|
|----------------------------------|----------------------------------|
|-9---------------11---------------|-9--------------------------------|
|----------------------------------|----------------------------------|
|----------------------------------|----------------------------------|


   S S S S S S S S S S S S S S S S   S S S S S S S S S S S S S S S S
|----------------------------------|----------------------------------||
|----------------------------------|----------------------------------||
|----------------------------------|----------------------------------||
|--2-2-2-2-2-2-2-2-5-5-5-5-5-5-5-5-|-7-7-7-7-7-7-7-7-7-7-7-7-7-7-7-7--||
|
|  W                                 W
|--9-------------------------------|-7--------------------------------||
|-10-------------------------------|-7--------------------------------||
|----------------------------------|----------------------------------||
|-11-------------------------------|-9--------------------------------||
|----------------------------------|----------------------------------||
|----------------------------------|----------------------------------||


 Pre-Chorus
   S T T  S  S  S S  S S  S  T T S  S  S S  S S
|-----------------------------------------------|
|-----------------------------------------------|
|--4-4-4--4--4--4-4--4-4------------------------|
|-------------------------5--5-5-5--5--5-5--5-5-|
|
|  H                      H
|-16---------------------12---------------------|
|-14---------------------10---------------------|
|-----------------------------------------------|
|-11----------------------7---------------------|
|-----------------------------------------------|
|-----------------------------------------------|
|
| Gtr III
|  E      S  S  E    E    E.        E.      E
|--9-----16-14-16---12----9--------11------12---|
|-----------------------------------------------|
|--6-----13-11-13----9----6---------8-------9---|
|-----------------------------------------------|
|-----------------------------------------------|
|-----------------------------------------------|


   S  T T S S S S S S  S T T S S  S  S S S
|-------------------------------------------|
|-------------------------------------------|
|--7--7-7-7-7-7-7-7-7-----------------------|
|----------------------7-7-7-7-7--7--7-7-7--|
|
|  H                   H
|-12------------------14--------------------|
|-12------------------12--------------------|
|-------------------------------------------|
|-14-------------------9--------------------|
|-------------------------------------------|
|-------------------------------------------|
|
|  H.                            +E    E
|--7-----------------------------(7)--------|
|-------------------------------------------|
|--4-----------------------------(4)--------|
|-------------------------------------------|
|-------------------------------------------|
|-------------------------------------------|


   S T T  S  S  S S  S S  S  T T S  S  S S  S S
|-----------------------------------------------|
|-----------------------------------------------|
|--4-4-4--4--4--4-4--4-4------------------------|
|-------------------------5--5-5-5--5--5-5--5-5-|
|
|  H                      H
|-16---------------------12---------------------|
|-14---------------------10---------------------|
|-----------------------------------------------|
|-11----------------------7---------------------|
|-----------------------------------------------|
|-----------------------------------------------|
|
|  E      S  S  E    E    E.        E.      E
|--9-----16-14-16---12----9--------11------12---|
|-----------------------------------------------|
|--6-----13-11-13----9----6---------8-------9---|
|-----------------------------------------------|
|-----------------------------------------------|
|-----------------------------------------------|


   S  T T S  S  S S  S S  S T T S S S S S S
|--------------------------------------------|
|--------------------------------------------|
|--7--7-7-7--7--7-7--7-7---------------------|
|-------------------------7-7-7-7-7-7-7-7-7--|
|
|  H                      H
|-12---------------------14------------------|
|-12---------------------12------------------|
|--------------------------------------------|
|-14----------------------9------------------|
|--------------------------------------------|
|--------------------------------------------|
|
|  E.        E.      E    H
|-16--------17------16---14------------------|
|--------------------------------------------|
|-13--------14------13---11------------------|
|--------------------------------------------|
|--------------------------------------------|
|--------------------------------------------|


   S T T  S  S  S S  S S  S  T T S  S  S S  S S
|-----------------------------------------------|
|-----------------------------------------------|
|--4-4-4--4--4--4-4--4-4------------------------|
|-------------------------5--5-5-5--5--5-5--5-5-|
|
|  H                      H
|-16---------------------12---------------------|
|-14---------------------10---------------------|
|-----------------------------------------------|
|-11----------------------7---------------------|
|-----------------------------------------------|
|-----------------------------------------------|
|
|  E      S  S  E    E    E.        E.      E
|--9-----16-14-16---12----9--------11------12---|
|-----------------------------------------------|
|--6-----13-11-13----9----6---------8-------9---|
|-----------------------------------------------|
|-----------------------------------------------|
|-----------------------------------------------|


   S  T T S S S S S S  S T T S S  S  S S S
|-------------------------------------------|
|-------------------------------------------|
|--7--7-7-7-7-7-7-7-7-----------------------|
|----------------------7-7-7-7-7--7--7-7-7--|
|
|  H                   H
|-12------------------14--------------------|
|-12------------------12--------------------|
|-------------------------------------------|
|-14-------------------9--------------------|
|-------------------------------------------|
|-------------------------------------------|
|
|  H.                            +S  S E
|--7-----------------------------(7)---7----|
|-------------------------------------------|
|--4-----------------------------(4)---4----|
|-------------------------------------------|
|-------------------------------------------|
|-------------------------------------------|


   S  T T T T  S  T T T T  S T T  S  T T T T  S  T T T T  S T T
|---------------------------------------------------------------|
|---------------------------------------------------------------|
|---------------------------------------------------------------|
|--5--5-5-5-5--5--5-5-5-5--5-5-5--5--5-5-5-5--5--5-5-5-5--5-5-5-|
|
|  W
|-12------------------------------------------------------------|
|-10------------------------------------------------------------|
|---------------------------------------------------------------|
|--7------------------------------------------------------------|
|---------------------------------------------------------------|
|---------------------------------------------------------------|
|
|  E.          E.          E      E.          E.          E
|--9----------11----------12-----12----------14----------16-----|
|--9----------12----------14-----14----------16----------17-----|
|--6-----------8-----------9------9----------11----------13-----|
|---------------------------------------------------------------|
|---------------------------------------------------------------|
|---------------------------------------------------------------|


   S T T T T S T T T T S T T T Q.   S.
|--------------------------------------||
|--------------------------------------||
|--------------------------------------||
|--7-7-7-7-7-7-7-7-7-7-7-7-7-7---------||
|
|  H                         H
|-14-----------------------------------||
|-12-----------------------------------||
|--------------------------------------||
|--9-----------------------------------||
|--------------------------------------||
|--------------------------------------||
|
|  H                         H
|-19-----------------------------------||
|-16-----------------------------------||
|-16-----------------------------------||
|--------------------------------------||
|--------------------------------------||
|--------------------------------------||


 Chorus
   S S S S S S S S S S S S S S S S    S S  S  S   S  S S S  S S S S  S S S S
|----------------------------------|-----------------------------------------|
|----------------------------------|-----------------------------------------|
|----------------------------------|--4-4--4--4---4--4-4-4--4-4-4-4--4-4-4-4-|
|--2-2-2-2-2-2-2-2-2-2-2-2-2-2-2-2-|-----------------------------------------|
|
|  W                                  W
|-14-------------------------------|-13--------------------------------------|
|--7-------------------------------|--6--------------------------------------|
|----------------------------------|-----------------------------------------|
|--4-------------------------------|--3--------------------------------------|
|----------------------------------|-----------------------------------------|
|----------------------------------|-----------------------------------------|
|
|  W                                  E    S  S  +Q         Q        Q
|-14-------------------------------|-16---16-16-(16)-------13--------9-------|
|-14-------------------------------|-14---14-14-(14)-------14-------11-------|
|-11-------------------------------|-13---13-13-(13)-------10--------6-------|
|----------------------------------|-----------------------------------------|
|----------------------------------|-----------------------------------------|
|----------------------------------|-----------------------------------------|


   S  T T T T S T T T T T T T T S T T T T S   T  T T T   T  T T T
|------------------------------------------------------------------|
|------------------------------------------------------------------|
|--6--6-6-6-6-6-6-6-6-6-6-6-6-6-6-6-6-6-6-6---6--6-6-6---6--6-6-6--|
|------------------------------------------------------------------|
|
|  W
|-11---------------------------------------------------------------|
|--4---------------------------------------------------------------|
|------------------------------------------------------------------|
|--1---------------------------------------------------------------|
|------------------------------------------------------------------|
|------------------------------------------------------------------|
|
|  H.                                        +E          E
|-14----------------------------------------(14)-------(14)--------|
|-16----------------------------------------(16)--------16---------|
|-11----------------------------------------(11)--------11---------|
|------------------------------------------------------------------|
|------------------------------------------------------------------|
|------------------------------------------------------------------|


   S  S S  S  S S  S S  S  S S  S  S S  S S    S S S S S S S S S S S S S S S S
|-------------------------------------------|----------------------------------|
|-------------------------------------------|----------------------------------|
|--2--2-2--2--2-2--2-2--4--4-4--4--4-4--4-4-|----------------------------------|
|-------------------------------------------|--2-2-2-2-2-2-2-2-2-2-2-2-2-2-2-2-|
|
|  H                    H                      W
|--7--------------------9-------------------|-14-------------------------------|
|--0--------------------2-------------------|--7-------------------------------|
|-------------------------------------------|----------------------------------|
|-------------------------------------------|--4-------------------------------|
|--2--------------------4-------------------|----------------------------------|
|-------------------------------------------|----------------------------------|
|
|  E.      E.      E    E.      E.      E      W
|-11------13------14---13------16-----------|-14-------------------------------|
|-12------14------16---14------14------14---|-14-------------------------------|
|--8------10------11---10------13-------6---|-11-------------------------------|
|-------------------------------------------|----------------------------------|
|-------------------------------------------|----------------------------------|
|-------------------------------------------|----------------------------------|


   S S  S  S  S S  S S  S S S S  S S S S
|----------------------------------------|
|----------------------------------------|
|--4-4--4--4--4-4--4-4--1S4-4-4--4-4-4-4-|
|----------------------------------------|
|
|  W
|-13-------------------------------------|
|--6-------------------------------------|
|----------------------------------------|
|----------------------------------------|
|--4-------------------------------------|
|----------------------------------------|
|
|  E    S  E.      E    Q        Q
|-16---16-16------14---13--------9-------|
|-14---14-14------11----9-------11-------|
|-13---13-13------11---10-------11-------|
|----------------------------------------|
|----------------------------------------|
|----------------------------------------|


   S  T T T T S T T T T T T T T S T T T T S   T  T T T   T  T T T
|-----------------------------------------------------------------|
|-----------------------------------------------------------------|
|--6--6-6-6-6-6-6-6-6-6-6-6-6-6-4S6-6-6-6-6---6--6-6-6---6--6-6-6-|
|-----------------------------------------------------------------|
|
|  W
|-11--------------------------------------------------------------|
|--4--------------------------------------------------------------|
|-----------------------------------------------------------------|
|--1--------------------------------------------------------------|
|-----------------------------------------------------------------|
|-----------------------------------------------------------------|
|
|  H.                                        +E          E
|-14----------------------------------------(14)-------(14)-------|
|-16----------------------------------------(16)--------16--------|
|-11----------------------------------------(11)--------11--------|
|-----------------------------------------------------------------|
|-----------------------------------------------------------------|
|-----------------------------------------------------------------|


   S  S S  S  S S  S S  S Q    E.    T T S T T S T T S T T S T T S T T S E E
|----------------------------------|------------------------------------------|
|----------------------------------|------------------------------------------|
|--2--2-2--2--2-2--2-2--2----------|------------------------------------------|
|----------------------------------|-2-2-2-2-2-2-2-2-2-2-2-2-2-2-2-2-2-2-2-1--|
|
|  H                    E   Q.
|--7--------------------9----------|------------------------------------------|
|--0--------------------2----------|------------------------------------------|
|----------------------------------|------------------------------------------|
|----------------------------------|------------------------------------------|
|--2--------------------4----------|------------------------------------------|
|----------------------------------|------------------------------------------|
|
|  E.      E.      E    E   Q.       W
|-11------13------14---13----------|------------------------------------------|
|-12------14------16---14----------|------------------------------------------|
|--8------10------11---10----------|------------------------------------------|
|----------------------------------|------------------------------------------|
|----------------------------------|------------------------------------------|
|----------------------------------|------------------------------------------|


   S T T T T T T T T T T T T T T  E  S  S  +Q
|-----------------------------------------------|
|-----------------------------------------------|
|--7-7-7-7-7-7-7-7-7-7-7-7-7-7-7--7--6--7--(7)--|
|-----------------------------------------------|
|
| Gtrs II, III
|  H                              E  S  S  +Q
|-----------------------------------------------|
|-17-----------------------------17-16-17-(17)--|
|-16-----------------------------16-13-16-(16)--|
|-14-----------------------------14-13-14-(14)--|
|-----------------------------------------------|
|-----------------------------------------------|


   S T T T T T T T T T T T T T T  E  S  S  +Q
|------------------------------------------------|
|------------------------------------------------|
|--6S7-7-7-7-7-7-7-7-7-7-7-7-7-7--7--6--7--(7)---|
|------------------------------------------------|
|
|  H                              E  S  S  +Q
|--------------------------------16-14-16-(16)---|
|-17-----------------------------17-16-17-(17)---|
|-16-----------------------------16-13-16-(16)---|
|-14-----------------------------14-13-14-(14)---|
|------------------------------------------------|
|------------------------------------------------|


   S S S S S S S S S S S S S S S S    S S S S S S S S S S S S S S S S
|----------------------------------|-----------------------------------||
|----------------------------------|-----------------------------------||
|----------------------------------|-----------------------------------||
|--5-5-5-5-5-5-5-5-5-5-5-5-5-5-5-5-|--5-5-5-5-5-5-5-5-5-5-5-5-5-5-5-5--||
|
| Gtr II
|  W                                  W
|--9-------------------------------|--9--------------------------------||
|-10-------------------------------|-10--------------------------------||
|--9-------------------------------|--9--------------------------------||
|--7-------------------------------|--7--------------------------------||
|----------------------------------|-----------------------------------||
|----------------------------------|-----------------------------------||


 Verse 3
   S T T T T T T T T T T T T T T  E  S  S  +Q
|-----------------------------------------------|
|-----------------------------------------------|
|--7-7-7-7-7-7-7-7-7-7-7-7-7-7-7--7--6--7--(7)--|
|-----------------------------------------------|
|
| Gtrs II, III
|  H                              E  S  S  +Q
|-----------------------------------------------|
|-17-----------------------------17-16-17-(17)--|
|-16-----------------------------16-13-16-(16)--|
|-----------------------------------------------|
|-----------------------------------------------|
|-----------------------------------------------|


   S T T T T T T T T T T T T T T  E  S  S  +Q
|------------------------------------------------|
|------------------------------------------------|
|--6S7-7-7-7-7-7-7-7-7-7-7-7-7-7--7--6--7--(7)---|
|------------------------------------------------|
|
|  H                              E  S  S  +Q
|------------------------------------------------|
|-17-----------------------------17-16-17-(17)---|
|-16-----------------------------16-13-16-(16)---|
|------------------------------------------------|
|------------------------------------------------|
|------------------------------------------------|


   S T T T T T T T T T T T T T T T T T T T T T T T T T T T T T T
|-----------------------------------------------------------------|
|-----------------------------------------------------------------|
|-----------------------------------------------------------------|
|--5-5-5-5-5-5-5-5-5-5-5-5-5-5-5-5-5-5-5-5-5-5-5-5-5-5-5-5-5-5-5--|
|
| Gtr II
|  W
|--9--------------------------------------------------------------|
|-10--------------------------------------------------------------|
|--9--------------------------------------------------------------|
|--7--------------------------------------------------------------|
|-----------------------------------------------------------------|
|-----------------------------------------------------------------|


   S T T T T T T T T T T T T T T T T T T T T T T T T T T T T T T
|-----------------------------------------------------------------||
|-----------------------------------------------------------------||
|-----------------------------------------------------------------||
|--5-5-5-5-5-5-5-5-5-5-5-5-5-5-5-5-5-5-5-5-5-5-5-5-5-5-5-5-5-5-5--||
|
|  W
|--9--------------------------------------------------------------||
|-10--------------------------------------------------------------||
|--9--------------------------------------------------------------||
|--7--------------------------------------------------------------||
|-----------------------------------------------------------------||
|-----------------------------------------------------------------||


 Bridge
  S S S S S S S S  S S S S S S S S   S S S S S S S S S S S S S S S S
|----------------------------------|----------------------------------|
|----------------------------------|----------------------------------|
|-4-----4-----4----7-----7-----7---|-7-7-7-7-7-7-7-7-7-7-7-7-7-7-7-7--|
|---4-4---4-4---4----5-5---5-5---5-|----------------------------------|
|
| H                H                 W
|-7----------------9---------------|-7--------------------------------|
|-9---------------10---------------|-9--------------------------------|
|----------------------------------|----------------------------------|
|-9---------------11---------------|-9--------------------------------|
|----------------------------------|----------------------------------|
|----------------------------------|----------------------------------|


   S S S S S S S S S S S S S S S S   S S S S S S S S S S S S S S S S
|----------------------------------|----------------------------------||
|----------------------------------|----------------------------------||
|----------------------------------|----------------------------------||
|--2-2-2-2-2-2-2-2-5-5-5-5-5-5-5-5-|-7-7-7-7-7-7-7-7-7-7-7-7-7-7-7-7--||
|
|  W                                 W
|--9-------------------------------|-7--------------------------------||
|-10-------------------------------|-7--------------------------------||
|----------------------------------|----------------------------------||
|-11-------------------------------|-9--------------------------------||
|----------------------------------|----------------------------------||
|----------------------------------|----------------------------------||


 Pre-Chorus
   S T T  S  S  S S  S S  S  T T S  S  S S  S S
|-----------------------------------------------|
|-----------------------------------------------|
|--4-4-4--4--4--4-4--4-4------------------------|
|-------------------------5--5-5-5--5--5-5--5-5-|
|
|  H                      H
|-16---------------------12---------------------|
|-14---------------------10---------------------|
|-----------------------------------------------|
|-11----------------------7---------------------|
|-----------------------------------------------|
|-----------------------------------------------|
|
| Gtr III
|  E      S  S  E    E    E.        E.      E
|--9-----16-14-16---12----9--------11------12---|
|-----------------------------------------------|
|--6-----13-11-13----9----6---------8-------9---|
|-----------------------------------------------|
|-----------------------------------------------|
|-----------------------------------------------|


   S  T T S S S S S S  S T T S S  S  S S S
|-------------------------------------------|
|-------------------------------------------|
|--7--7-7-7-7-7-7-7-7-----------------------|
|----------------------7-7-7-7-7--7--7-7-7--|
|
|  H                   H
|-12------------------14--------------------|
|-12------------------12--------------------|
|-------------------------------------------|
|-14-------------------9--------------------|
|-------------------------------------------|
|-------------------------------------------|
|
|  H.                            +E    E
|--7-----------------------------(7)--------|
|-------------------------------------------|
|--4-----------------------------(4)--------|
|-------------------------------------------|
|-------------------------------------------|
|-------------------------------------------|


   S T T  S  S  S S  S S  S  T T S  S  S S  S S    S  T T S  S  S S  S S  H
|-----------------------------------------------|------------------------------|
|-----------------------------------------------|------------------------------|
|--4-4-4--4--4--4-4--4-4------------------------|--7--7-7-7--7--7-7--7-7-------|
|-------------------------5--5-5-5--5--5-5--5-5-|-------------------------7----|
|
|  H                      H                        H                      H
|-16---------------------12---------------------|-12---------------------14----|
|-14---------------------10---------------------|-12---------------------12----|
|-----------------------------------------------|------------------------------|
|-11----------------------7---------------------|-14----------------------9----|
|-----------------------------------------------|------------------------------|
|-----------------------------------------------|------------------------------|
|
|  E      S  S  E    E    E.        E.      E      E.        E.      E    H
|--9-----16-14-16---12----9--------11------12---|-16--------17------16---14----|
|-----------------------------------------------|------------------------------|
|--6-----13-11-13----9----6---------8-------9---|-13--------14------13---11----|
|-----------------------------------------------|------------------------------|
|-----------------------------------------------|------------------------------|
|-----------------------------------------------|------------------------------|


   S T T  S  S  S S  S S  S  T T S  S  S S  S S
|-----------------------------------------------|
|-----------------------------------------------|
|--4-4-4--4--4--4-4--4-4------------------------|
|-------------------------5--5-5-5--5--5-5--5-5-|
|
|  H                      H
|-16---------------------12---------------------|
|-14---------------------10---------------------|
|-----------------------------------------------|
|-11----------------------7---------------------|
|-----------------------------------------------|
|-----------------------------------------------|
|
|  E      S  S  E    E    E.        E.      E
|--9-----16-14-16---12----9--------11------12---|
|-----------------------------------------------|
|--6-----13-11-13----9----6---------8-------9---|
|-----------------------------------------------|
|-----------------------------------------------|
|-----------------------------------------------|


   S  T T S S S S S S  S T T S S  S  S S S
|-------------------------------------------|
|-------------------------------------------|
|--7--7-7-7-7-7-7-7-7-----------------------|
|----------------------7-7-7-7-7--7--7-7-7--|
|
|  H                   H
|-12------------------14--------------------|
|-12------------------12--------------------|
|-------------------------------------------|
|-14-------------------9--------------------|
|-------------------------------------------|
|-------------------------------------------|
|
|  H.                            +S  S E
|--7-----------------------------(7)---7----|
|-------------------------------------------|
|--4-----------------------------(4)---4----|
|-------------------------------------------|
|-------------------------------------------|
|-------------------------------------------|


   S  T T T T  S  T T T T  S T T  S  T T T T  S  T T T T  S T T
|---------------------------------------------------------------|
|---------------------------------------------------------------|
|---------------------------------------------------------------|
|--5--5-5-5-5--5--5-5-5-5--5-5-5--5--5-5-5-5--5--5-5-5-5--5-5-5-|
|
|  W
|-12------------------------------------------------------------|
|-10------------------------------------------------------------|
|---------------------------------------------------------------|
|--7------------------------------------------------------------|
|---------------------------------------------------------------|
|---------------------------------------------------------------|
|
|  E.          E.          E      E.          E.          E
|--9----------11----------12-----12----------14----------16-----|
|--9----------12----------14-----14----------16----------17-----|
|--6-----------8-----------9------9----------11----------13-----|
|---------------------------------------------------------------|
|---------------------------------------------------------------|
|---------------------------------------------------------------|


   S T T T T S T T T T S T T T Q.   S.
|--------------------------------------||
|--------------------------------------||
|--------------------------------------||
|--7-7-7-7-7-7-7-7-7-7-7-7-7-7---------||
|
|  H                         H
|-14-----------------------------------||
|-12-----------------------------------||
|--------------------------------------||
|--9-----------------------------------||
|--------------------------------------||
|--------------------------------------||
|
|  H                         H
|-19-----------------------------------||
|-16-----------------------------------||
|-16-----------------------------------||
|--------------------------------------||
|--------------------------------------||
|--------------------------------------||


 Chorus
   S S S S S S S S S S S S S S S S    S S  S  S   S  S S S  S S S S  S S S S
|----------------------------------|-----------------------------------------|
|----------------------------------|-----------------------------------------|
|----------------------------------|--4-4--4--4---4--4-4-4--4-4-4-4--4-4-4-4-|
|--2-2-2-2-2-2-2-2-2-2-2-2-2-2-2-2-|-----------------------------------------|
|
|  W                                  W
|-14-------------------------------|-13--------------------------------------|
|--7-------------------------------|--6--------------------------------------|
|----------------------------------|-----------------------------------------|
|--4-------------------------------|--3--------------------------------------|
|----------------------------------|-----------------------------------------|
|----------------------------------|-----------------------------------------|
|
|  W                                  E    S  S  +Q         Q        Q
|-14-------------------------------|-16---16-16-(16)-------13--------9-------|
|-14-------------------------------|-14---14-14-(14)-------14-------11-------|
|-11-------------------------------|-13---13-13-(13)-------10--------6-------|
|----------------------------------|-----------------------------------------|
|----------------------------------|-----------------------------------------|
|----------------------------------|-----------------------------------------|


   S  T T T T S T T T T T T T T S T T T T S   T  T T T   T  T T T
|------------------------------------------------------------------|
|------------------------------------------------------------------|
|--6--6-6-6-6-6-6-6-6-6-6-6-6-6-6-6-6-6-6-6---6--6-6-6---6--6-6-6--|
|------------------------------------------------------------------|
|
|  W
|-11---------------------------------------------------------------|
|--4---------------------------------------------------------------|
|------------------------------------------------------------------|
|--1---------------------------------------------------------------|
|------------------------------------------------------------------|
|------------------------------------------------------------------|
|
|  H.                                        +E          E
|-14----------------------------------------(14)-------(14)--------|
|-16----------------------------------------(16)--------16---------|
|-11----------------------------------------(11)--------11---------|
|------------------------------------------------------------------|
|------------------------------------------------------------------|
|------------------------------------------------------------------|


   S  S S  S  S S  S S  S  S S  S  S S  S S    S S S S S S S S S S S S S S S S
|-------------------------------------------|----------------------------------|
|-------------------------------------------|----------------------------------|
|--2--2-2--2--2-2--2-2--4--4-4--4--4-4--4-4-|----------------------------------|
|-------------------------------------------|--2-2-2-2-2-2-2-2-2-2-2-2-2-2-2-2-|
|
|  H                    H                      W
|--7--------------------9-------------------|-14-------------------------------|
|--0--------------------2-------------------|--7-------------------------------|
|-------------------------------------------|----------------------------------|
|-------------------------------------------|--4-------------------------------|
|--2--------------------4-------------------|----------------------------------|
|-------------------------------------------|----------------------------------|
|
|  E.      E.      E    E.      E.      E      W
|-11------13------14---13------16-----------|-14-------------------------------|
|-12------14------16---14------14------14---|-14-------------------------------|
|--8------10------11---10------13-------6---|-11-------------------------------|
|-------------------------------------------|----------------------------------|
|-------------------------------------------|----------------------------------|
|-------------------------------------------|----------------------------------|


   S S  S  S  S S  S S  S S S S  S S S S
|----------------------------------------|
|----------------------------------------|
|--4-4--4--4--4-4--4-4--1S4-4-4--4-4-4-4-|
|----------------------------------------|
|
|  W
|-13-------------------------------------|
|--6-------------------------------------|
|----------------------------------------|
|----------------------------------------|
|--4-------------------------------------|
|----------------------------------------|
|
|  E    S  E.      E    Q        Q
|-16---16-16------14---13--------9-------|
|-14---14-14------11----9-------11-------|
|-13---13-13------11---10-------11-------|
|----------------------------------------|
|----------------------------------------|
|----------------------------------------|


   S  T T T T S T T T T T T T T S T T T T S   T  T T T   T  T T T
|-----------------------------------------------------------------|
|-----------------------------------------------------------------|
|--6--6-6-6-6-6-6-6-6-6-6-6-6-6-4S6-6-6-6-6---6--6-6-6---6--6-6-6-|
|-----------------------------------------------------------------|
|
|  W
|-11--------------------------------------------------------------|
|--4--------------------------------------------------------------|
|-----------------------------------------------------------------|
|--1--------------------------------------------------------------|
|-----------------------------------------------------------------|
|-----------------------------------------------------------------|
|
|  H.                                        +E          E
|-14----------------------------------------(14)-------(14)-------|
|-16----------------------------------------(16)--------16--------|
|-11----------------------------------------(11)--------11--------|
|-----------------------------------------------------------------|
|-----------------------------------------------------------------|
|-----------------------------------------------------------------|


   S  S S  S  S S  S S  S Q.     S
|----------------------------------|
|----------------------------------|
|--2--2-2--2--2-2--2-2--4----------|
|----------------------------------|
|
|  H                    E    Q.
|--7--------------------9----------|
|--0--------------------2----------|
|----------------------------------|
|----------------------------------|
|--2--------------------4----------|
|----------------------------------|
|
|  E.      E.      E    E    Q.
|-11------13------14---13----------|
|-12------14------16---14----------|
|--8------10------11---10----------|
|----------------------------------|
|----------------------------------|
|----------------------------------|


   T  T S S T T S S T T S T T S S T T  E  E
|-------------------------------------------||
|-------------------------------------------||
|-------------------------------------------||
|--2--2-2-2-2-2-2-2-2-2-2-2-2-2-2-2-2--2--1-||
|
|  H.                                  E  E
|-------------------------------------------||
|-11----------------------------------11-10-||
|-18----------------------------------18-17-||
|-16----------------------------------16-15-||
|-------------------------------------------||
|-------------------------------------------||
|
|  W
|-------------------------------------------||
|-------------------------------------------||
|-------------------------------------------||
|-------------------------------------------||
|-------------------------------------------||
|-------------------------------------------||


 Guitar Solo
  Q=99
   W                    W
|-------------------|----------------------|
|-------------------|----------------------|
|-------------------|----------------------|
|--0----------------|---0------------------|
|
|  E.  E.  E  H         E.  E.  E  Q   Q
|-24--23--24-19-----|--24--23--24-19--17---|
|-17--16--17-12-----|--17--16--17-12--10---|
|-------------------|----------------------|
|-------------------|----------------------|
|-------------------|----------------------|
|-------------------|----------------------|
|
|  W                   +W
|-12----------------|-(12)-----------------|
|-------------------|----------------------|
|--9----------------|--(9)-----------------|
|-------------------|----------------------|
|--7----------------|--(7)-----------------|
|--0----------------|--(0)-----------------|


   W                    Q.     +S  S  E   S   E   E     S
|-------------------|---------------------------------------|
|-------------------|---------------------------------------|
|--0----------------|---0------(0)-0S12--(0)S12--12S===(0)--|
|-------------------|-----------------------------------0S==|
|
|  E.  E.  E  H         E.  E.  E     E.      E.     E
|-17--19--21-24-----|--17--19--21----17------16-----14------|
|-10--12--14-17-----|--10--12--14----10-------9------7------|
|-------------------|---------------------------------------|
|-------------------|---------------------------------------|
|-------------------|---------------------------------------|
|-------------------|---------------------------------------|
|
|  W                   +W
|-12----------------|-(12)----------------------------------|
|-10----------------|-(10)----------------------------------|
|-------------------|---------------------------------------|
|--7----------------|--(7)----------------------------------|
|-------------------|---------------------------------------|
|--5----------------|--(5)----------------------------------|


   E  S  S  E  S S  E S S E E     E  S  S  E  S S  E S S   E    E
|-----------------------------|------------------------------------|
|-----------------------------|------------------------------------|
|-----------------------------|------------------------------------|
|-12--0--0--0--0-0--0-0-0-0-0S|==12--0--0--0--0-0--0-0-0---0----0S=|
|
|  E.    E.    E    H             E.    E.    E    Q       E    E
|-24----23----24---19---------|--24----23----24---19-----[14]-[16]-|
|-17----16----17---12---------|--17----16----17---12------[7]--[9]-|
|-----------------------------|------------------------------------|
|-----------------------------|------------------------------------|
|-----------------------------|------------------------------------|
|-----------------------------|------------------------------------|
|
|  W                             +W
|-12--------------------------|-(12)-------------------------------|
|-----------------------------|------------------------------------|
|--9--------------------------|--(9)-------------------------------|
|-----------------------------|------------------------------------|
|--7--------------------------|--(7)-------------------------------|
|--0--------------------------|--(0)-------------------------------|


    E  S   S  E   S  S   E  S S E E     E  S   S  E   S  S   E  S   S  E  E
|-----------------------------------|----------------------------------------|
|-----------------------------------|----------------------------------------|
|-----------------------------------|----------------------------------------|
|---5--5---5--5---5--5---5--5-5-5-0S|===5--5---5--5---5--5---5--5---5--5--0--|
|
|   E.     E.     E      H              E.     E.     E      E.     E.    E
|-[17]---[16]---[14]---[12]---------|-[17]---[16]---[14]---[12]---[11]---[9]-|

|-[10]----[9]----[7]----[5]---------|-[10]----[9]----[7]----[5]----[4]---[2]-|
|-----------------------------------|----------------------------------------|
|-----------------------------------|----------------------------------------|
|-----------------------------------|----------------------------------------|
|-----------------------------------|----------------------------------------|
|
|   W                                  +W
|--12-------------------------------|-(12)-----------------------------------|
|--10-------------------------------|-(10)-----------------------------------|
|-----------------------------------|----------------------------------------|
|---7-------------------------------|--(7)-----------------------------------|
|-----------------------------------|----------------------------------------|
|---5-------------------------------|--(5)-----------------------------------|


   E  E     E  S S  E E E E    E  E     E  S S  E E  E E
|---------------------------|----------------------------|
|---------------------------|----------------------------|
|---------------------------|----------------------------|
|--9--9-----9--9S0S=5-5-5-5-|--9--9-----9--9S0S=5-5--5-5-|
|
|  E.    E.    E    H          E.    E.    E    Q    Q
|-21----21----24---17-------|-21----21----24---19---17---|
|-17----14----17---10-------|-17----14----17---12---10---|
|---------------------------|----------------------------|
|---------------------------|----------------------------|
|---------------------------|----------------------------|
|---------------------------|----------------------------|
|
|  H                H          H                H
|-12------------------------|-12-------------------------|
|---------------------------|----------------------------|
|--6------------------------|--6-------------------------|
|-------------------7-------|-------------------7--------|
|---------------------------|----------------------------|
|--9----------------5-------|--9----------------5--------|


   E  E     E  S S  S S S S  S S S S    S S S S S S S S E Q.
|------------------------------------|-------------------------|
|------------------------------------|-------------------------|
|------------------------------------|-------------------------|
|--9--9-----9--9S0S=5-5-5-5--5-5-5-5-|--7-7-7-7-7-7-7-7-7------|
|
|  E.    E.    E    Q        Q          H               H
|-21----21----24---19-------17-------|-14----------------------|
|-17----14----17---12-------10-------|--7----------------------|
|------------------------------------|-------------------------|
|------------------------------------|-------------------------|
|------------------------------------|-------------------------|
|------------------------------------|-------------------------|
|
|  H                H                   H               H
|-12---------------------------------|--7----------------------|
|------------------------------------|-------------------------|
|--6---------------------------------|-------------------------|
|-------------------7----------------|--9----------------------|
|------------------------------------|-------------------------|
|--9----------------5----------------|--7----------------------|


   S T T T T S T T T T T T T T S T T T T S T T T T T T T T
|----------------------------------------------------------|
|----------------------------------------------------------|
|--4-4-4-4-4-4-4-4-4-4-4-4-4-4-4-4-4-4-4-4-4-4-4-4-4-4-4-4-|
|----------------------------------------------------------|
|
| Gtr III
|  W
|----------------------------------------------------------|
|-14-------------------------------------------------------|
|-13-------------------------------------------------------|
|-11-------------------------------------------------------|
|----------------------------------------------------------|
|----------------------------------------------------------|


   S T T T T S T T T T T T T T S T T T T E S E
|----------------------------------------------|
|----------------------------------------------|
|--7-7-7-7-7-7-7-7-7-7-7-7-7-7-7-7-7-7-7-7-7-7-|
|----------------------------------------------|
|
|  W
|----------------------------------------------|
|-12-------------------------------------------|
|--9-------------------------------------------|
|--9-------------------------------------------|
|----------------------------------------------|
|----------------------------------------------|


   S T T T T S T T T T S T T S T T T T S T T T T S T T
|------------------------------------------------------|
|------------------------------------------------------|
|------------------------------------------------------|
|--5-5-5-5-5-5-5-5-5-5-5-5-5-5-5-5-5-5-5-5-5-5-5-5-5-5-|
|
|  W
|------------------------------------------------------|
|-14---------------------------------------------------|
|-14---------------------------------------------------|
|--7---------------------------------------------------|
|------------------------------------------------------|
|------------------------------------------------------|


   S S S S S S S S S S S S S S S S
|----------------------------------|
|----------------------------------|
|--7-7-7-7-7-7-7-7-7-7-7-7-7-7-7-7-|
|----------------------------------|
|
|  W
|----------------------------------|
|-12-------------------------------|
|--9-------------------------------|
|--9-------------------------------|
|----------------------------------|
|----------------------------------|


   S T T T T S T T T T T T T T S T T T T S T T T T T T T T
|----------------------------------------------------------|
|----------------------------------------------------------|
|--4-4-4-4-4-4-4-4-4-4-4-4-4-4-4-4-4-4-4-4-4-4-4-4-4-4-4-4-|
|----------------------------------------------------------|
|
|  W
|----------------------------------------------------------|
|-14-------------------------------------------------------|
|-13-------------------------------------------------------|
|-11-------------------------------------------------------|
|----------------------------------------------------------|
|----------------------------------------------------------|


   S T T T T S T T T T T T T T S T T T T E S E
|----------------------------------------------|
|----------------------------------------------|
|--7-7-7-7-7-7-7-7-7-7-7-7-7-7-7-7-7-7-7-7-7-7-|
|----------------------------------------------|
|
|  W
|----------------------------------------------|
|-12-------------------------------------------|
|--9-------------------------------------------|
|--9-------------------------------------------|
|----------------------------------------------|
|----------------------------------------------|


   S T T T T S T T T T S T T S T T T T S T T T T S T T
|------------------------------------------------------|
|------------------------------------------------------|
|------------------------------------------------------|
|--5-5-5-5-5-5-5-5-5-5-5-5-5-5-5-5-5-5-5-5-5-5-5-5-5-5-|
|
|  W
|------------------------------------------------------|
|-14---------------------------------------------------|
|-14---------------------------------------------------|
|--7---------------------------------------------------|
|------------------------------------------------------|
|------------------------------------------------------|


   S T T T T S S S T T T T S S S S S S S S
|------------------------------------------|
|------------------------------------------|
|--7-7-7-7-7-7-7-7-7-7-7-7-7-7-7-7-7-7-7-7-|
|------------------------------------------|
|
|  W
|------------------------------------------|
|-12---------------------------------------|
|--9---------------------------------------|
|--9---------------------------------------|
|------------------------------------------|
|------------------------------------------|


  S S S S S S S S  S S S S S S S S   S T T T T S S S S S S T T T T S S S S S
|----------------------------------|------------------------------------------|
|----------------------------------|------------------------------------------|
|-------6----------------7---------|-7-7-7-7-7-7-7-7-7-7-7-7-7-7-7-7-7-7-7-7--|
|-4-4-4---4-4-4-4--5-5-5---5-5-5-5-|------------------------------------------|
|
| H                H                 W
|-7----------------9---------------|-7----------------------------------------|
|-9---------------10---------------|-9----------------------------------------|
|----------------------------------|------------------------------------------|
|-9---------------11---------------|-9----------------------------------------|
|----------------------------------|------------------------------------------|
|----------------------------------|------------------------------------------|


   S S S S S S S S   S  S S S S S S S
|-------------------------------------|
|-------------------------------------|
|--------4------------------7---------|
|--2-2-2---2-2-2-2---5--5-5---5-5-5-5-|
|
|  H                 H
|--9----------------(9)---------------|
|--7----------------10----------------|
|-------------------------------------|
|-11---------------(11)---------------|
|-------------------------------------|
|-------------------------------------|


  S T T T T S S S S S S T T T T S S S S S
|------------------------------------------|
|------------------------------------------|
|------------------------------------------|
|-7-7-7-7-7-7-7-7-7-7-7-7-7-7-7-7-7-7-7-7--|
|
| W
|-7----------------------------------------|
|-7----------------------------------------|
|------------------------------------------|
|-9----------------------------------------|
|------------------------------------------|
|------------------------------------------|


   S S S S S S S S  S S S S S S S S    S S S S S S S S  S S S S S S S S
|-----------------------------------|------------------------------------|
|-----------------------------------|------------------------------------|
|--4-4-4-4-4-4-4-4------------------|--7-7-7-7-7-7-7-7-------------------|
|-------------------5-5-5-5-5-5-5-5-|-------------------7-7-7-7-7-7-7-7--|
|
|  H                H                  H                H
|-16---------------12---------------|-12---------------14----------------|
|-14---------------10---------------|-12---------------12----------------|
|-----------------------------------|------------------------------------|
|-11----------------7---------------|-14----------------9----------------|
|-----------------------------------|------------------------------------|
|-----------------------------------|------------------------------------|


   S S S S S S S S  S S S S S S S S    S S S S S S S S  S S S S S S S S
|-----------------------------------|------------------------------------|
|-----------------------------------|------------------------------------|
|--4-4-4-4-4-4-4-4------------------|--7-7-7-7-7-7-7-7-------------------|
|-------------------5-5-5-5-5-5-5-5-|-------------------7-7-7-7-7-7-7-7--|
|
|  H                H                  H                H
|-16---------------12---------------|-12---------------14----------------|
|-14---------------10---------------|-12---------------12----------------|
|-----------------------------------|------------------------------------|
|-11----------------7---------------|-14----------------9----------------|
|-----------------------------------|------------------------------------|
|-----------------------------------|------------------------------------|


   S S S S S S S S  S S S S S S S S    S S S S S S S S  S S S S S S S S
|-----------------------------------|------------------------------------|
|-----------------------------------|------------------------------------|
|--4-4-4-4-4-4-4-4------------------|--7-7-7-7-7-7-7-7-------------------|
|-------------------5-5-5-5-5-5-5-5-|-------------------7-7-7-7-7-7-7-7--|
|
|  H                H                  H                H
|-16---------------12---------------|-12---------------14----------------|
|-14---------------10---------------|-12---------------12----------------|
|-----------------------------------|------------------------------------|
|-11----------------7---------------|-14----------------9----------------|
|-----------------------------------|------------------------------------|
|-----------------------------------|------------------------------------|


   S T T T T S T T T T S T T S T T T T S T T T T S T T
|------------------------------------------------------|
|------------------------------------------------------|
|------------------------------------------------------|
|--5-5-5-5-5-5-5-5-5-5-5-5-5-5-5-5-5-5-5-5-5-5-5-5-5-5-|
|
|  W
|-12---------------------------------------------------|
|-10---------------------------------------------------|
|------------------------------------------------------|
|--7---------------------------------------------------|
|------------------------------------------------------|
|------------------------------------------------------|


   S T T T T S T T T T S S S S S S S S S S
|------------------------------------------||
|------------------------------------------||
|------------------------------------------||
|--7-7-7-7-7-7-7-7-7-7-7-7-7-7-7-7-7-7-7-7-||
|
|  W
|-14---------------------------------------||
|-12---------------------------------------||
|------------------------------------------||
|--9---------------------------------------||
|------------------------------------------||
|------------------------------------------||


 Bridge
  Q=101
  E S E E S E S E E S   E S E E S E S E E S   E S E E S E S E E S
|---------------------|---------------------|---------------------|
|---------------------|---------------------|---------------------|
|-7-7-7-7-7-----------|-7-7-7-7-7-----------|-7-7-7-7-7-----------|
|-----------5-5-5-5-5-|-----------7-7-7-7-7-|-----------5-5-5-5-5-|
|
| Gtr II
| H         H           H         H           H         H
|-4-------------------|-4-------------------|-4-------------------|
|-5---------5---------|-5---------7---------|-5---------5---------|
|-----------2---------|-----------4---------|-----------2---------|
|-2---------2---------|-2---------4---------|-2---------2---------|
|---------------------|---------------------|---------------------|
|---------------------|---------------------|---------------------|


  S T T T T S T T T T T T T T E E E E
|-------------------------------------|
|-------------------------------------|
|-------------------------------------|
|-7-7-7-7-7-7-7-7-7-7-7-7-7-7-7-5-4-2-|
|
| W
|-------------------------------------|
|-7-----------------------------------|
|-4-----------------------------------|
|-4-----------------------------------|
|-------------------------------------|
|-------------------------------------|


  S S S S S S S S S S S S S S S S   S S S S S S S S S S S S S S S S
|---------------------------------|----------------------------------|
|---------------------------------|----------------------------------|
|-7-7-7-7-7-7-7-7-----------------|-7-7-7-7-7-7-7-7------------------|
|-----------------5-5-5-5-5-5-5-5-|-----------------7-7-7-7-7-7-7-7--|
|
| H               H                 H               H
|-4-------------------------------|-4--------------------------------|
|-5---------------5---------------|-5---------------7----------------|
|-----------------2---------------|-----------------4----------------|
|-2---------------2---------------|-2---------------4----------------|
|---------------------------------|----------------------------------|
|---------------------------------|----------------------------------|


  S S S S S S S S S S S S S S S S   S T T T T S T T T T T T T T E E E E
|---------------------------------|--------------------------------------||
|---------------------------------|--------------------------------------||
|-7-7-7-7-7-7-7-7-----------------|--------------------------------------||
|-----------------5-5-5-5-5-5-5-5-|-7-7-7-7-7-7-7-7-7-7-7-7-7-7-7-5-4-2--||
|
| H               H                 W
|-4-------------------------------|--------------------------------------||
|-5---------------5---------------|-7------------------------------------||
|-----------------2---------------|-4------------------------------------||
|-2---------------2---------------|-4------------------------------------||
|---------------------------------|--------------------------------------||
|---------------------------------|--------------------------------------||


 Pre-Chorus
   S T T  S  S  S S  S S  S  T T S  S  S S  S S
|-----------------------------------------------|
|-----------------------------------------------|
|--4-4-4--4--4--4-4--4-4------------------------|
|-------------------------5--5-5-5--5--5-5--5-5-|
|
|  H                      H
|-16---------------------12---------------------|
|-14---------------------10---------------------|
|-----------------------------------------------|
|-11----------------------7---------------------|
|-----------------------------------------------|
|-----------------------------------------------|
|
| Gtr III
|  E      S  S  E    E    E.        E.      E
|--9-----16-14-16---12----9--------11------12---|
|-----------------------------------------------|
|--6-----13-11-13----9----6---------8-------9---|
|-----------------------------------------------|
|-----------------------------------------------|
|-----------------------------------------------|


   S  T T S S S S S S  S T T S S  S  S S S
|-------------------------------------------|
|-------------------------------------------|
|--7--7-7-7-7-7-7-7-7-----------------------|
|----------------------7-7-7-7-7--7--7-7-7--|
|
|  H                   H
|-12------------------14--------------------|
|-12------------------12--------------------|
|-------------------------------------------|
|-14-------------------9--------------------|
|-------------------------------------------|
|-------------------------------------------|
|
|  H.                            +E    E
|--7-----------------------------(7)--------|
|-------------------------------------------|
|--4-----------------------------(4)--------|
|-------------------------------------------|
|-------------------------------------------|
|-------------------------------------------|


   S T T  S  S  S S  S S  S  T T S  S  S S  S S
|-----------------------------------------------|
|-----------------------------------------------|
|--4-4-4--4--4--4-4--4-4------------------------|
|-------------------------5--5-5-5--5--5-5--5-5-|
|
|  H                      H
|-16---------------------12---------------------|
|-14---------------------10---------------------|
|-----------------------------------------------|
|-11----------------------7---------------------|
|-----------------------------------------------|
|-----------------------------------------------|
|
|  E      S  S  E    E    E.        E.      E
|--9-----16-14-16---12----9--------11------12---|
|-----------------------------------------------|
|--6-----13-11-13----9----6---------8-------9---|
|-----------------------------------------------|
|-----------------------------------------------|
|-----------------------------------------------|


   S  T T S  S  S S  S S  S T T S S S S S S
|--------------------------------------------|
|--------------------------------------------|
|--7--7-7-7--7--7-7--7-7---------------------|
|-------------------------7-7-7-7-7-7-7-7-7--|
|
|  H                      H
|-12---------------------14------------------|
|-12---------------------12------------------|
|--------------------------------------------|
|-14----------------------9------------------|
|--------------------------------------------|
|--------------------------------------------|
|
|  E.        E.      E    H
|-16--------17------16---14------------------|
|--------------------------------------------|
|-13--------14------13---11------------------|
|--------------------------------------------|
|--------------------------------------------|
|--------------------------------------------|


   S T T  S  S  S S  S S  S  T T S  S  S S  S S
|-----------------------------------------------|
|-----------------------------------------------|
|--4-4-4--4--4--4-4--4-4------------------------|
|-------------------------5--5-5-5--5--5-5--5-5-|
|
|  H                      H
|-16---------------------12---------------------|

|-14---------------------10---------------------|
|-----------------------------------------------|
|-11----------------------7---------------------|
|-----------------------------------------------|
|-----------------------------------------------|
|
|  E      S  S  E    E    E.        E.      E
|--9-----16-14-16---12----9--------11------12---|
|-----------------------------------------------|
|--6-----13-11-13----9----6---------8-------9---|
|-----------------------------------------------|
|-----------------------------------------------|
|-----------------------------------------------|


   S  T T S S S S S S  S T T S S  S  S S S
|-------------------------------------------|
|-------------------------------------------|
|--7--7-7-7-7-7-7-7-7-----------------------|
|----------------------7-7-7-7-7--7--7-7-7--|
|
|  H                   H
|-12------------------14--------------------|
|-12------------------12--------------------|
|-------------------------------------------|
|-14-------------------9--------------------|
|-------------------------------------------|
|-------------------------------------------|
|
|  H.                            +S  S E
|--7-----------------------------(7)---7----|
|-------------------------------------------|
|--4-----------------------------(4)---4----|
|-------------------------------------------|
|-------------------------------------------|
|-------------------------------------------|


   S  T T T T  S  T T T T  S T T  S  T T T T  S  T T T T  S T T
|---------------------------------------------------------------|
|---------------------------------------------------------------|
|---------------------------------------------------------------|
|--5--5-5-5-5--5--5-5-5-5--5-5-5--5--5-5-5-5--5--5-5-5-5--5-5-5-|
|
|  W
|-12------------------------------------------------------------|
|-10------------------------------------------------------------|
|---------------------------------------------------------------|
|--7------------------------------------------------------------|
|---------------------------------------------------------------|
|---------------------------------------------------------------|
|
|  E.          E.          E      E.          E.          E
|--9----------11----------12-----12----------14----------16-----|
|--9----------12----------14-----14----------16----------17-----|
|--6-----------8-----------9------9----------11----------13-----|
|---------------------------------------------------------------|
|---------------------------------------------------------------|
|---------------------------------------------------------------|


   S T T T T S T T T T T T T T H
|-----------------------------------||
|-----------------------------------||
|-----------------------------------||
|--7-7-7-7-7-7-7-7-7-7-7-7-7-7-7----||
|
|  W
|-14--------------------------------||
|-12--------------------------------||
|-----------------------------------||
|--9--------------------------------||
|-----------------------------------||
|-----------------------------------||
|
|  W
|-19--------------------------------||
|-16--------------------------------||
|-16--------------------------------||
|-----------------------------------||
|-----------------------------------||
|-----------------------------------||


 Out-Chorus
   W
|--------------------------------------------------------------------------------------------------|
|--------------------------------------------------------------------------------------------------|
|--------------------------------------------------------------------------------------------------|
|--2-----------------------------------------------------------------------------------------------|
|
|  T  T  T  T  T  T  T  T  T  T  T  T  T  T  T  T  T  T  T  T  T  T  T  T  T  T  T  T  T  T  T  T
|-------------21----------------------21----------------------21----------------------21-----------|
|----------23----23----------------23----23----------------23----23----------------23----23--------|
|-------23----------23----------23----------23----------23----------23----------23----------23-----|
|----23----------------23----23----------------23----23----------------23----23----------------23--|
|-21----------------------21----------------------21----------------------21-----------------------|
|--------------------------------------------------------------------------------------------------|
|
|  W
|-14-----------------------------------------------------------------------------------------------|
|--7-----------------------------------------------------------------------------------------------|
|--------------------------------------------------------------------------------------------------|
|--4-----------------------------------------------------------------------------------------------|
|--------------------------------------------------------------------------------------------------|
|--2-----------------------------------------------------------------------------------------------|


   W
|--------------------------------------------------------------------------------------------------|
|--------------------------------------------------------------------------------------------------|
|--------------------------------------------------------------------------------------------------|
|--4-----------------------------------------------------------------------------------------------|
|
|  T  T  T  T  T  T  T  T  T  T  T  T  T  T  T  T  T  T  T  T  T  T  T  T  T  T  T  T  T  T  T  T
|-------------21----------------------21----------------------21----------------------21-----------|
|----------21----21----------------21----21----------------21----21----------------21----21--------|
|-------23----------23----------23----------23----------23----------23----------23----------23-----|
|----23----------------23----23----------------23----23----------------23----23----------------23--|
|-23----------------------23----------------------23----------------------23-----------------------|
|--------------------------------------------------------------------------------------------------|
|
|  W
|-13-----------------------------------------------------------------------------------------------|
|--6-----------------------------------------------------------------------------------------------|
|--------------------------------------------------------------------------------------------------|
|--3-----------------------------------------------------------------------------------------------|
|--4-----------------------------------------------------------------------------------------------|
|--------------------------------------------------------------------------------------------------|


   W
|--------------------------------------------------------------------------------------------------|
|--------------------------------------------------------------------------------------------------|
|--------------------------------------------------------------------------------------------------|
|--6-----------------------------------------------------------------------------------------------|
|
|  T  T  T  T  T  T  T  T  T  T  T  T  T  T  T  T  T  T  T  T  T  T  T  T  T  T  T  T  T  T  T  T
|-------------18----------------------18----------------------18----------------------18-----------|
|----------19----19----------------19----19----------------19----19----------------19----19--------|
|-------18----------18----------18----------18----------18----------18----------18----------18-----|
|----20----------------20----20----------------20----20----------------20----20----------------20--|
|-21----------------------21----------------------21----------------------21-----------------------|
|--------------------------------------------------------------------------------------------------|
|
|  W
|-11-----------------------------------------------------------------------------------------------|
|--4-----------------------------------------------------------------------------------------------|
|--------------------------------------------------------------------------------------------------|
|--1-----------------------------------------------------------------------------------------------|
|--------------------------------------------------------------------------------------------------|
|--------------------------------------------------------------------------------------------------|


   E.                 E.                 E           E.                 E.                 E
|--------------------------------------------------------------------------------------------------|
|--------------------------------------------------------------------------------------------------|
|--2------------------2------------------2-----------4------------------4------------------4-------|
|--------------------------------------------------------------------------------------------------|
|
|  T   T  T  T  T  T  T   T  T  T  T  T  T  T  T  T  T   T  T  T  T  T  T   T  T  T  T  T  T  T  T
|-------------19-----------------------19-----------------------19-----------------------19---------|
|----------19----19-----------------19----19-----------------19----19-----------------19----19------|
|-------20----------20-----------20----------20-----------20----------20-----------20----------20---|
|----21-----------------21----21----------------21-----21-----------------21----21----------------21|
|21------------------------21----------------------21------------------------21---------------------|
|---------------------------------------------------------------------------------------------------|
|
|  H                                                 H
|--7-------------------------------------------------9---------------------------------------------|
|--0-------------------------------------------------2---------------------------------------------|
|--------------------------------------------------------------------------------------------------|
|--------------------------------------------------------------------------------------------------|
|--2-------------------------------------------------4---------------------------------------------|
|--------------------------------------------------------------------------------------------------|


   S S S S S S S S S S S S S S S S    S  S S S S S S S S S S S  S S S S
|----------------------------------|------------------------------------|
|----------------------------------|------------------------------------|
|----------------------------------|--6--6-6-6-6-6-6-6-6-6-6-6--6-6-6-6-|
|--4-4-4-4-4-4-4-4-4-4-4-4-4-4-4-4-|------------------------------------|
|
|  W                                  W
|-16-------------------------------|-15---------------------------------|
|--9-------------------------------|--8---------------------------------|
|----------------------------------|------------------------------------|
|--6-------------------------------|--5---------------------------------|
|----------------------------------|------------------------------------|
|----------------------------------|------------------------------------|
|
|  W                                  H.                        Q
|-16-------------------------------|-18------------------------15-------|
|-16-------------------------------|-16------------------------16-------|
|-13-------------------------------|-15------------------------12-------|
|----------------------------------|------------------------------------|
|----------------------------------|------------------------------------|
|----------------------------------|------------------------------------|


   S T T T T S T T T T T T T T S T T T T S T T T T T T T T
|-----------------------------------------------------------|
|-----------------------------------------------------------|
|--8-8-8-8-8-8-8-8-8-8-8-8-8-8-8-8-8-8-8-8-8-8-8-8-8-8-8-8--|
|-----------------------------------------------------------|
|
|  W
|-13--------------------------------------------------------|
|--6--------------------------------------------------------|
|-----------------------------------------------------------|
|--3--------------------------------------------------------|
|-----------------------------------------------------------|
|-----------------------------------------------------------|
|
|  W
|-16--------------------------------------------------------|
|-18--------------------------------------------------------|
|-13--------------------------------------------------------|
|-----------------------------------------------------------|
|-----------------------------------------------------------|
|-----------------------------------------------------------|


   S S S S S S S S  S S S S  S S S S    S S S S S S S S S S S S S S S S
|------------------------------------|----------------------------------|
|------------------------------------|----------------------------------|
|--4-4-4-4-4-4-4-4--6-6-6-6--6-6-6-6-|----------------------------------|
|------------------------------------|--4-4-4-4-4-4-4-4-4-4-4-4-4-4-4-4-|
|
|  H                H                   W
|--9---------------11----------------|-16-------------------------------|
|--2----------------4----------------|--9-------------------------------|
|------------------------------------|----------------------------------|
|------------------------------------|--6-------------------------------|
|--4----------------6----------------|----------------------------------|
|------------------------------------|----------------------------------|
|
|  H                Q        Q          W
|-13------------------------15-------|-16-------------------------------|
|-14---------------16-------16-------|-16-------------------------------|
|-10---------------12-------12-------|-13-------------------------------|
|------------------------------------|----------------------------------|
|------------------------------------|----------------------------------|
|------------------------------------|----------------------------------|


   S S S S S S S S  S S S S  S S S S
|------------------------------------|
|------------------------------------|
|--6-6-6-6-6-6-6-6--4S6-6-6--6-6-6-6-|
|------------------------------------|
|
|  W
|-13---------------------------------|
|--6---------------------------------|
|------------------------------------|
|--3---------------------------------|
|------------------------------------|
|------------------------------------|
|
|  H                Q        Q
|-18---------------15-------11-------|
|-16---------------11-------13-------|
|-15---------------12-------13-------|
|------------------------------------|
|------------------------------------|
|------------------------------------|


   S  T T T T S T T T T S T T  S T T T T S   T  T T T   S  T T
|----------------------------------------------------------------|
|-------------5-5-5-5-5-6-6-6--8-8-8-8-8-6---6--6-6-6---5--5-5---|
|--8--8-8-8-8----------------------------------------------------|
|----------------------------------------------------------------|
|
|  H                           H
|--9--------------------------11---------------------------------|
|--2---------------------------4---------------------------------|
|----------------------------------------------------------------|
|----------------------------------------------------------------|
|--4---------------------------6---------------------------------|
|----------------------------------------------------------------|
|
|  H.                                       +E          E
|-16---------------------------------------(16)-------(16)-------|
|-18---------------------------------------(18)--------18--------|
|-13---------------------------------------(13)--------13--------|
|----------------------------------------------------------------|
|----------------------------------------------------------------|
|----------------------------------------------------------------|


   S S S S S S S S  S S S S  S S S S    S S S S S S S S S S S S S S S S
|------------------------------------|----------------------------------|
|------------------------------------|----------------------------------|
|--4-4-4-4-4-4-4-4--6-6-6-6--6-6-6-6-|----------------------------------|
|------------------------------------|--4-4-4-4-4-4-4-4-4-4-4-4-4-4-4-4-|
|
|  H                H                   W
|--9---------------11----------------|-16-------------------------------|
|--2----------------4----------------|--9-------------------------------|
|------------------------------------|----------------------------------|
|------------------------------------|--6-------------------------------|
|--4----------------6----------------|----------------------------------|
|------------------------------------|----------------------------------|
|
|  H                Q        Q          W
|-13------------------------15-------|-16-------------------------------|
|-14---------------16-------16-------|-16-------------------------------|
|-10---------------12-------12-------|-13-------------------------------|
|------------------------------------|----------------------------------|
|------------------------------------|----------------------------------|
|------------------------------------|----------------------------------|


   E  E     E  E  E  E     E  E
|-------------------------------|
|-------------------------------|
|--4--4-----4--4--6--6-----6--6-|
|-------------------------------|
|
|  H              H
|--9-------------11-------------|
|--2--------------4-------------|
|-------------------------------|
|-------------------------------|
|--4--------------6-------------|
|-------------------------------|
|
|  E.    E.    E  E.    E.    E
|-16----18----20-18----20----21-|
|-18----20----21-20----21----23-|
|-13----15----17-15----17----18-|
|-------------------------------|
|-------------------------------|
|-------------------------------|


   E   E         E  E  E  S  Q    S    +W           +W
|------------------------------------|------------|--------*|
|------------------------------------|------------|--------*|
|------------------------------------|------------|--------*|
|--4---4---------4--4--4--3--4S==(0)-|-(0)--------|-(0)----*|
|
|  H                   E  S  E.E        W            W
|-16------------------16-15-16-------|------------|--------*|
|--9-------------------9--8--9-------|------------|--------*|
|------------------------------------|------------|--------*|
|--6-------------------6--5--6-------|------------|--------*|
|------------------------------------|------------|--------*|
|------------------------------------|------------|--------*|
|
|  E   S    S   +Q     E  S  E.E        W            W
|-20--18---16--(16)---20-18-20-------|------------|--------*|
|-21-(21)-(21)-(21)---21-20-21-------|------------|--------*|
|-17--15---13--(13)---17-15-17-------|------------|--------*|
|------------------------------------|------------|--------*|
|------------------------------------|------------|--------*|
|------------------------------------|------------|--------*|



Duration Legend
---------------
W - whole; H - half; Q - quarter; E - 8th; S - 16th; T - 32nd; X - 64th; a - acciaccatura
+ - note tied to previous; . - note dotted; .. - note double dotted
Uncapitalized letters represent notes that are staccato (1/2 duration)
Irregular groupings are notated above the duration line
Duration letters will always appear directly above the note/fret number it represents the
duration for.  Duration letters with no fret number below them represent rests.  Multi-
bar rests are notated in the form Wxn, where n is the number of bars to rest for.  Low
melody durations appear below the staff

Tablature Legend
----------------
 h   - hammer-on
 p   - pull-off
 b   - bend
 pb  - pre-bend
 r   - bend release (if no number after the r, then release immediately)
 /\  - slide into or out of (from/to "nowhere")
 s   - legato slide
 S   - shift slide
 - natural harmonic
[n]  - artificial harmonic
n(n) - tapped harmonic
 ~   - vibrato
 tr  - trill
 T   - tap
 TP  - trem. picking
 PM  - palm muting
\n/  - tremolo bar dip; n = amount to dip
 \n  - tremolo bar down
 n/  - tremolo bar up
/n\  - tremolo bar inverted dip
 =   - hold bend; also acts as connecting device for hammers/pulls
 <> - volume swell (louder/softer)
 x   - on rhythm slash represents muted slash
 o   - on rhythm slash represents single note slash

Misc Legend
-----------
 |  - bar
||  - double bar
||o - repeat start
o|| - repeat end
*|  - double bar (ending)
 :  - bar (freetime)
 $  - Segno
 &  - Coda
Tempo markers -  = BPM(8/16=s8/s16), where s8 = swing 8ths, s16 = swing 16ths

comments
We did not receive enough feedback on this tab! Please rate:
print report bad tab
1 2 3 4 5
I want to post or [tab]
guest
You may want to rate the tab now too:
select rating
Please do not post tabs as comments. Select "correction" instead!