Oops, an error
Loading. Please wait.

Cry For Eternity Bass Tab

ver1
ver1

Whole song

Interactive

More versions @911Tabs.com
1,552 views 3 this week
no commentswrite comment
1 2 3 4 5
excellent!
x 2
Autoscroll
+/-
esc
set tempo
stop
Contributor
Hey! There's an official Ultimate Guitar app which is ideal
for learning songs when you're away from computer. Get the app
WARNING: You are trying to view
                                    content from Ultimate-Guitar.com
                                    in an unauthorized application,
                                    which is prohibited.

                                    Please use an official Ultimate
                                    Guitar Tabs application for iPhone,
                                    iPad or Android to access legitimate
                                    chords, guitar, bass, and drum tabs
                                    from Ultimate-Guitar.com database.

                                    Type "ultimate guitar tabs" in Apple
                                    App Store's or Android Market's
                                    search to find the application.
                               Cry For Eternity   
                              
Transcribed by thorn rich

                                                                     Dragonforce
Bass




     W                   W                   W                 
G||-------------------|-------------------|-------------------|
D||-------------------|-------------------|-------------------|
A||--0----------------|--L----------------|--0----------------|
E||-------------------|-------------------|-------------------|


  W                   W                   W                   W                 
-------------------|-------------------|-------------------|-------------------|
-------------------|-------------------|-------------------|-------------------|
--L----------------|-------------------|-------------------|--0----------------|
-------------------|--3----------------|--L----------------|-------------------|


  E   E  E  E   E  E    Q       E  S S S S S S E  S S S S S S  
-----/9--7--9------9--/12----|--------------------------------|
---------------10------------|--------------------------------|
--L--------------------------|--0--0-0-0-0-0-0-0--0-0-0-0-0-0-|
-----------------------------|--------------------------------|


  E  S S S S S S E  S S S S S S    E  S S S S S S E  S S S S S S  
--------------------------------|--------------------------------|
--------------------------------|--------------------------------|
--0--0-0-0-0-0-0-0--0-0-0-0-0-0-|--0--0-0-0-0-0-0-0--0-0-0-0-0-0-|
--------------------------------|--------------------------------|


  E  S S S S S S E  S S S S S S    E  S S S S S S E  S S S S S S  
--------------------------------|--------------------------------|
--------------------------------|--------------------------------|
--0--0-0-0-0-0-0-0--0-0-0-0-0-0-|--------------------------------|
--------------------------------|--3--3-3-3-3-3-3-3--3-3-3-3-3-3-|


  E  S S S S S S E  S S S S S S    E  S S S S S S E  S S S S S S  
--------------------------------|--------------------------------|
--------------------------------|--------------------------------|
--------------------------------|--0--0-0-0-0-0-0-0--0-0-0-0-0-0-|
--3--3-3-3-3-3-3-3--3-3-3-3-3-3-|--------------------------------|


  E  S S S S S S E  S S S S S S    E  S S S S S S E  S S S S S S  
--------------------------------|--------------------------------|
--------------------------------|--------------------------------|
--0--0-0-0-0-0-0-0--0-0-0-0-0-0-|--0--0-0-0-0-0-0-0--0-0-0-0-0-0-|
--------------------------------|--------------------------------|


  E  S S S S S S E  S S S S S S    E  S S S S S S E  S S S S S S  
--------------------------------|--------------------------------|
--------------------------------|--------------------------------|
--0--0-0-0-0-0-0-0--0-0-0-0-0-0-|--0--0-0-0-0-0-0-0--0-0-0-0-0-0-|
--------------------------------|--------------------------------|


  E  S S S S S S E  S S S S S S    E  S S S S S S E  S S S S S S  
--------------------------------|--------------------------------|
--------------------------------|--------------------------------|
--0--0-0-0-0-0-0-0--0-0-0-0-0-0-|--------------------------------|
--------------------------------|--3--3-3-3-3-3-3-3--3-3-3-3-3-3-|


  E  S S S S S S E  S S S S S S    E  S S S S S S E  S S S S S S  
--------------------------------|--------------------------------|
--------------------------------|--------------------------------|
--------------------------------|--0--0-0-0-0-0-0-0--0-0-0-0-0-0-|
--3--3-3-3-3-3-3-3--3-3-3-3-3-3-|--------------------------------|


  E  S S S S S S E  S S S S S S    Q    H        Q       Q    H        Q     
--------------------------------|---------------------|---------------------|
--------------------------------|---------------------|---------------------|
--0--0-0-0-0-0-0-0--0-0-0-0-0-0-|--0------------------|--0------------------|
--------------------------------|---------------------|---------------------|


  Q    H        Q       W                   Q    H        Q     
---------------------|-------------------|---------------------|
---------------------|-------------------|---------------------|
--0------------------|-------------------|--0------------------|
---------------------|--3----------------|---------------------|


  Q    H        Q       Q    H        Q       E  E  E  E  Q    Q     
---------------------|---------------------|------------------------|
---------------------|---------------------|------------------------|
--0------------------|--0------------------|--0-----0---------------|
---------------------|---------------------|--------------0----3----|


  E  S S S S S S S S S S S S S S    E  E  E  E  S S S S S S S S  
---------------------------------|------------------------------|
---------------------------------|------------------------------|
--0--0-0-0-0-0-0-0-0-0-0-0-0-0-0-|--0--0--L--0--0-0-0-0-0-0-0-0-|
---------------------------------|------------------------------|


  E  S S S S S S S S S S S S S S    E  E  E  E  S S S S S S S S  
---------------------------------|------------------------------|
---------------------------------|------------------------------|
--0--0-0-0-0-0-0-0-0-0-0-0-0-0-0-|--0--0--L--0--0-0-0-0-0-0-0-0-|
---------------------------------|------------------------------|


  E  S S S S S S S S S S S S S S    E  E  E  E  S S S S S S S S  
---------------------------------|------------------------------|
---------------------------------|------------------------------|
---------------------------------|------------------------------|
--3--3-3-3-3-3-3-3-3-3-3-3-3-3-3-|--3--3--L--3--3-3-3-3-3-3-3-3-|


  E  S S S S S S S S S S S S S S    E  E  E  E  S S S S S S S S  
---------------------------------|------------------------------|
---------------------------------|------------------------------|
---------------------------------|------------------------------|
--3--3-3-3-3-3-3-3-3-3-3-3-3-3-3-|--3--3--L--3--3-3-3-3-3-3-3-3-|


  E  S S S S S S S S S S S S S S    E  E  E  E  S S S S S S S S  
---------------------------------|------------------------------|
---------------------------------|------------------------------|
--0--0-0-0-0-0-0-0-0-0-0-0-0-0-0-|--0--0--L--0--0-0-0-0-0-0-0-0-|
---------------------------------|------------------------------|


  E  S S S S S S S S S S S S S S    E  E  E  E  S S S S S S S S  
---------------------------------|------------------------------|
---------------------------------|------------------------------|
--0--0-0-0-0-0-0-0-0-0-0-0-0-0-0-|--0--0--L--0--0-0-0-0-0-0-0-0-|
---------------------------------|------------------------------|


  E  S S S S S S S S S S S S S S    S S S S S S S S S S S S S S S S  
---------------------------------|----------------------------------|
---------------------------------|----------------------------------|
---------------------------------|----------------------------------|
--3--3-3-3-3-3-3-3-3-3-3-3-3-3-3-|--3-3-3-3-3-3-3-3-3-3-3-3-3-3-3-3-|


  W                   W                   W                 
-------------------|-------------------|-------------------|
-------------------|-------------------|-------------------|
-------------------|-------------------|-------------------|
-------------------|-------------------|-------------------|


  E  S S S S S S S S S S S S S S    S S S S S S S S S S S S S S E   
---------------------------------|---------------------------------|
---------------------------------|---------------------------------|
--0--0-0-0-0-0-0-0-0-0-0-0-0-0-0-|--0-0-0-0-0-0-0-0-0-0-0-0-3-5-3--|
---------------------------------|---------------------------------|


  E  S S S S S S S S S S S S S S    S S S S S S S S E  E  E  E   
---------------------------------|------------------------------|
---------------------------------|------------------------------|
---------------------------------|------------------------------|
--1--1-1-1-1-1-1-1-1-1-1-1-1-1-1-|--1-1-1-1-1-1-1-1-1--1--0--3--|


  E  S S S S S S S S S S S S S S    S S S S E  E  E  E  E  E   
---------------------------------|----------------------------|
---------------------------------|----------------------------|
--0--0-0-0-0-0-0-0-0-0-0-0-0-0-0-|--0-0-0-0-0--0--0--0--0--0--|
---------------------------------|----------------------------|


  E  E  E  E  E  E  E  E     E  E  E  E  E  E  E  E   
--------------------------|--------------------------|
--------------------------|--------------------------|
--3--3--3--3--3--3--3--3--|--------------------------|
--------------------------|--3--3--3--3--3--3--3--3--|


  E  S S S S S S S S S S S S S S    S S S S S S S S S S S S S S S S  
---------------------------------|----------------------------------|
---------------------------------|----------------------------------|
--0--0-0-0-0-0-0-0-0-0-0-0-0-0-0-|--0-0-0-0-0-0-0-0-0-0-0-0-0-0-0-0-|
---------------------------------|----------------------------------|


  E  S S S S S S S S S S S S S S    S S S S S S S S S S S S S S S S  
---------------------------------|----------------------------------|
---------------------------------|----------------------------------|
---------------------------------|----------------------------------|
--1--1-1-1-1-1-1-1-1-1-1-1-1-1-1-|--1-1-1-1-1-1-1-1-1-1-1-1-1-1-1-1-|


  E  E  E  E  E  E  E  E     E  E  E  E  E  E  E  E   
--------------------------|--------------------------|
--------------------------|--------------------------|
--0--0--0--0--0--0--0--0--|--3--3--3--3--3--3--3--3--|
--------------------------|--------------------------|


  E  E  E  E  E  E  E  E     E  E  E  E  E  E  E  E   
--------------------------|--------------------------|
--------------------------|--------------------------|
--------------------------|--------------------------|
--1--1--1--1--1--1--1--1--|--3--3--3--3--3--3--3--3--|


  E  S S S S S S S S S S S S S S    E  S S S S E  S S S S S S S S  
---------------------------------|--------------------------------|
---------------------------------|--------------------------------|
--5--5-5-5-5-5-5-5-5-5-5-5-5-5-5-|--5--5-5-5-5-5--5-5-5-5-5-5-5-5-|
---------------------------------|--------------------------------|


  E  E  E  E  E  E  E  E     E  E  E  E  E  E  E  E   
--------------------------|--------------------------|
--------2-----------2-----|--3--2-----------2--------|
--0--0-----0--0--0-----0--|--------5--3--5-----3--0--|
--------------------------|--------------------------|


  E  S S S S S S S S S S S S S S    E  S S S S E  S S S S S S S S  
---------------------------------|--------------------------------|
---------------------------------|--------------------------------|
--5--5-5-5-5-5-5-5-5-5-5-5-5-5-5-|--5--5-5-5-5-5--5-5-5-5-5-5-5-5-|
---------------------------------|--------------------------------|


  E  E  E  E  E  E  E  E     E  E  E  E  E  E  E  E     Q    H        Q     
--------------------------|--------------------------|---------------------|
--------------------------|--------------------------|---------------------|
--0--0--0--0--0--0--0--0--|--------------------------|---------------------|
--------------------------|--3--3--3--3--3--3--3--3--|--1------------------|


  Q    H        Q       E  S S S S S S S S S S S S S S  
---------------------|---------------------------------|
---------------------|---------------------------------|
---------------------|--0--0-0-0-0-0-0-0-0-0-0-0-0-0-0-|
--1------------------|---------------------------------|


  S S S S S S S S E  E  E  E     Q    H        Q       Q    H        Q     
------------------------------|---------------------|---------------------|
---------------------------2--|---------------------|---------------------|
--0-0-0-0-0-0-0-0-5--3--5-----|---------------------|---------------------|
------------------------------|--1------------------|--1------------------|


  Q    E  E  E  E  E  E     E  E  E  E  E  E  E  E     Q    E  E  E  E  E  E   
-------------------------|--------------------------|-------------------------|
-------------------------|--------------------------|-------------------------|
-------------------------|--------------------------|-------------------------|
--0----0--0--0--0--0--0--|--0--0--0--0--0--0--0--0--|--0----0--0--0--0--0--0--|


  W                   E  E  E  E  E  E  E  E     E  E  E  E  E  E  E  E   
-------------------|--------------------------|--------------------------|
-------------------|--------------------------|--------------------------|
-------------------|--0--0--0--0--0--0--0--0--|--3--3--3--3--3--3--3--3--|
--0----------------|--------------------------|--------------------------|


  E  E  E  E  E  E  E  E     E  E  E  E  E  E  E  E   
--------------------------|--------------------------|
--------------------------|--------------------------|
--------------------------|--0--0--0--0--0--0--0--0--|
--3--3--3--3--3--3--3--3--|--------------------------|


  E  E  E  E  E  E  E  E     E  E  E  E  E  E  E  E   
--------------------------|--------------------------|
--------------------------|--------------------------|
--------------------------|--3--3--3--3--3--3--3--3--|
--1--1--1--1--1--1--1--1--|--------------------------|


  E  E  E  E  E  E  E  E     E  E  E  E  E  E  E  E   
--------------------------|--------------------------|
--------------------------|--------------------------|
--0--0--0--0--0--0--0--0--|--------------------------|
--------------------------|--3--3--3--3--3--3--3--3--|


  E  E  E  E  E  E  E  E     E  E  E  E  E  E  E  E   
--------------------------|--------------------------|
--------------------------|--------------------------|
--0--0--0--0--0--0--0--0--|--3--3--3--3--3--3--3--3--|
--------------------------|--------------------------|


  E  E  E  E  E  E  E  E     E  E  E  E  E  E  E  E   
--------------------------|--------------------------|
--------------------------|--------------------------|
--------------------------|--0--0--0--0--0--0--0--0--|
--3--3--3--3--3--3--3--3--|--------------------------|


  E  S S S S S S S S S S S S S S    S S S S S S S S S S S S S S S S  
---------------------------------|----------------------------------|
---------------------------------|----------------------------------|
---------------------------------|----------------------------------|
--1--1-1-1-1-1-1-1-1-1-1-1-1-1-1-|--1-1-1-1-1-1-1-1-1-1-1-1-1-1-1-1-|


  Q    H        Q       W                   E  S S S S S S S S S S S S S S  
---------------------|-------------------|---------------------------------|
---------------------|-------------------|---------------------------------|
---------------------|-------------------|--0--0-0-0-0-0-0-0-0-0-0-0-0-0-0-|
--0------------------|-------------------|---------------------------------|


  S S S S S S S S S S S S S S S S    E  S S S S S S S S S S S S S S  
----------------------------------|---------------------------------|
----------------------------------|---------------------------------|
--0-0-0-0-0-0-0-0-0-0-0-0-0-0-0-0-|--3--3-3-3-3-3-3-3-3-3-3-3-3-3-3-|
----------------------------------|---------------------------------|


  S S S S S S S S S S S S S S S S    E  S S S S S S S S S S S S S S  
----------------------------------|---------------------------------|
----------------------------------|---------------------------------|
--3-3-3-3-3-3-3-3-3-3-3-3-3-3-3-3-|---------------------------------|
----------------------------------|--3--3-3-3-3-3-3-3-3-3-3-3-3-3-3-|


  S S S S S S S S S S S S S S S S    E  E  E  E  E  E  E  E   
----------------------------------|--------------------------|
----------------------------------|--------------------------|
----------------------------------|--------------------------|
--3-3-3-3-3-3-3-3-3-3-3-3-3-3-3-3-|--1--1--1--1--1--1--1--1--|


  E  E  E  E  E  E  E  E     E  S S S S S S S S S S S S S S  
--------------------------|---------------------------------|
--------------------------|---------------------------------|
--------------------------|--0--0-0-0-0-0-0-0-0-0-0-0-0-0-0-|
--0--0--0--0--0--0--0--0--|---------------------------------|


  S S S S S S S S S S S S S S S S    E  S S S S S S S S S S S S S S  
----------------------------------|---------------------------------|
----------------------------------|---------------------------------|
--0-0-0-0-0-0-0-0-0-0-0-0-0-0-0-0-|--3--3-3-3-3-3-3-3-3-3-3-3-3-3-3-|
----------------------------------|---------------------------------|


  S S S S S S S S S S S S S S S S    E  S S S S S S S S S S S S S S  
----------------------------------|---------------------------------|
----------------------------------|---------------------------------|
--3-3-3-3-3-3-3-3-3-3-3-3-3-3-3-3-|---------------------------------|
----------------------------------|--3--3-3-3-3-3-3-3-3-3-3-3-3-3-3-|


  S S S S S S S S S S S S S S S S    E  E  E  E  E  E  E  E   
----------------------------------|--------------------------|
----------------------------------|--------------------------|
----------------------------------|--------------------------|
--3-3-3-3-3-3-3-3-3-3-3-3-3-3-3-3-|--1--1--1--1--1--1--1--1--|


  E  E  E  E  E  E  E  E     Q    H        Q       W                 
--------------------------|---------------------|-------------------|
--------------------------|---------------------|-------------------|
--------------------------|--0------------------|-------------------|
--0--0--0--0--0--0--0--0--|---------------------|-------------------|


  E  S S S S S S S S S S S S S S    S S S S S S S S S S S S S S E   
---------------------------------|---------------------------------|
---------------------------------|---------------------------------|
--0--0-0-0-0-0-0-0-0-0-0-0-0-0-0-|--0-0-0-0-0-0-0-0-0-0-0-0-3-5-3--|
---------------------------------|---------------------------------|


  E  S S S S S S S S S S S S S S    S S S S S S S S E  E  E  E   
---------------------------------|------------------------------|
---------------------------------|------------------------------|
---------------------------------|------------------------------|
--1--1-1-1-1-1-1-1-1-1-1-1-1-1-1-|--1-1-1-1-1-1-1-1-1--1--0--3--|


  E  S S S S S S S S S S S S S S    S S S S E  E  E  E  E  E   
---------------------------------|----------------------------|
---------------------------------|----------------------------|
--0--0-0-0-0-0-0-0-0-0-0-0-0-0-0-|--0-0-0-0-0--0--0--0--0--0--|
---------------------------------|----------------------------|


  E  E  E  E  E  E  E  E     E  E  E  E  E  E  E  E   
--------------------------|--------------------------|
--------------------------|--------------------------|
--3--3--3--3--3--3--3--3--|--------------------------|
--------------------------|--3--3--3--3--3--3--3--3--|


  E  S S S S S S S S S S S S S S    S S S S S S S S S S S S S S S S  
---------------------------------|----------------------------------|
---------------------------------|----------------------------------|
--0--0-0-0-0-0-0-0-0-0-0-0-0-0-0-|--0-0-0-0-0-0-0-0-0-0-0-0-0-0-0-0-|
---------------------------------|----------------------------------|


  E  S S S S S S S S S S S S S S    S S S S S S S S S S S S S S S S  
---------------------------------|----------------------------------|
---------------------------------|----------------------------------|
---------------------------------|----------------------------------|
--1--1-1-1-1-1-1-1-1-1-1-1-1-1-1-|--1-1-1-1-1-1-1-1-1-1-1-1-1-1-1-1-|


  E  E  E  E  E  E  E  E     E  E  E  E  E  E  E  E   
--------------------------|--------------------------|
--------------------------|--------------------------|
--0--0--0--0--0--0--0--0--|--3--3--3--3--3--3--3--3--|
--------------------------|--------------------------|


  E  E  E  E  E  E  E  E     E  E  E  E  E  E  E  E   
--------------------------|--------------------------|
--------------------------|--------------------------|
--------------------------|--------------------------|
--1--1--1--1--1--1--1--1--|--3--3--3--3--3--3--3--3--|


  E  S S S S S S S S S S S S S S    E  S S S S E  S S S S S S S S  
---------------------------------|--------------------------------|
---------------------------------|--------------------------------|
--5--5-5-5-5-5-5-5-5-5-5-5-5-5-5-|--5--5-5-5-5-5--5-5-5-5-5-5-5-5-|
---------------------------------|--------------------------------|


  E  E  E  E  E  E  E  E     E  E  E  E  E  E  E  E   
--------------------------|--------------------------|
--------2-----------2-----|--3--2-----------2--------|
--0--0-----0--0--0-----0--|--------5--3--5-----3--0--|
--------------------------|--------------------------|


  E  S S S S S S S S S S S S S S    E  S S S S E  S S S S S S S S  
---------------------------------|--------------------------------|
---------------------------------|--------------------------------|
--5--5-5-5-5-5-5-5-5-5-5-5-5-5-5-|--5--5-5-5-5-5--5-5-5-5-5-5-5-5-|
---------------------------------|--------------------------------|


  E  E  E  E  E  E  E  E     E  E  E  E  E  E  E  E     Q    H        Q     
--------------------------|--------------------------|---------------------|
--------------------------|--------------------------|---------------------|
--0--0--0--0--0--0--0--0--|--------------------------|---------------------|
--------------------------|--3--3--3--3--3--3--3--3--|--1------------------|


  Q    H        Q       E  S S S S S S S S S S S S S S  
---------------------|---------------------------------|
---------------------|---------------------------------|
---------------------|--0--0-0-0-0-0-0-0-0-0-0-0-0-0-0-|
--1------------------|---------------------------------|


  S S S S S S S S E  E  E  E     Q    H        Q       Q    H        Q     
------------------------------|---------------------|---------------------|
---------------------------2--|---------------------|---------------------|
--0-0-0-0-0-0-0-0-5--3--5-----|---------------------|---------------------|
------------------------------|--1------------------|--1------------------|


  Q    E  E  E  E  E  E     E  E  E  E  E  E  E  E     Q    E  E  E  E  E  E   
-------------------------|--------------------------|-------------------------|
-------------------------|--------------------------|-------------------------|
-------------------------|--------------------------|-------------------------|
--0----0--0--0--0--0--0--|--0--0--0--0--0--0--0--0--|--0----0--0--0--0--0--0--|


  W                   E  E  E  E  E  E  E  E     E  E  E  E  E  E  E  E   
-------------------|--------------------------|--------------------------|
-------------------|--------------------------|--------------------------|
-------------------|--0--0--0--0--0--0--0--0--|--3--3--3--3--3--3--3--3--|
--0----------------|--------------------------|--------------------------|


  E  E  E  E  E  E  E  E     E  E  E  E  E  E  E  E   
--------------------------|--------------------------|
--------------------------|--------------------------|
--------------------------|--0--0--0--0--0--0--0--0--|
--3--3--3--3--3--3--3--3--|--------------------------|


  E  E  E  E  E  E  E  E     E  E  E  E  E  E  E  E   
--------------------------|--------------------------|
--------------------------|--------------------------|
--------------------------|--3--3--3--3--3--3--3--3--|
--1--1--1--1--1--1--1--1--|--------------------------|


  E  E  E  E  E  E  E  E     E  E  E  E  E  E  E  E   
--------------------------|--------------------------|
--------------------------|--------------------------|
--0--0--0--0--0--0--0--0--|--------------------------|
--------------------------|--3--3--3--3--3--3--3--3--|


  E  E  E  E  E  E  E  E     E  E  E  E  E  E  E  E   
--------------------------|--------------------------|
--------------------------|--------------------------|
--0--0--0--0--0--0--0--0--|--3--3--3--3--3--3--3--3--|
--------------------------|--------------------------|


  E  E  E  E  E  E  E  E     E  E  E  E  E  E  E  E   
--------------------------|--------------------------|
--------------------------|--------------------------|
--------------------------|--0--0--0--0--0--0--0--0--|
--3--3--3--3--3--3--3--3--|--------------------------|


  E  S S S S S S S S S S S S S S    S S S S S S S S S S S S S S S S  
---------------------------------|----------------------------------|
---------------------------------|----------------------------------|
---------------------------------|----------------------------------|
--1--1-1-1-1-1-1-1-1-1-1-1-1-1-1-|--1-1-1-1-1-1-1-1-1-1-1-1-1-1-1-1-|


  Q    H        Q       W                   E  S S S S S S S S S S S S S S  
---------------------|-------------------|---------------------------------|
---------------------|-------------------|---------------------------------|
---------------------|-------------------|--0--0-0-0-0-0-0-0-0-0-0-0-0-0-0-|
--0------------------|-------------------|---------------------------------|


  S S S S S S S S S S S S S S S S    E  S S S S S S S S S S S S S S  
----------------------------------|---------------------------------|
----------------------------------|---------------------------------|
--0-0-0-0-0-0-0-0-0-0-0-0-0-0-0-0-|--3--3-3-3-3-3-3-3-3-3-3-3-3-3-3-|
----------------------------------|---------------------------------|


  S S S S S S S S S S S S S S S S    E  S S S S S S S S S S S S S S  
----------------------------------|---------------------------------|
----------------------------------|---------------------------------|
--3-3-3-3-3-3-3-3-3-3-3-3-3-3-3-3-|---------------------------------|
----------------------------------|--3--3-3-3-3-3-3-3-3-3-3-3-3-3-3-|


  S S S S S S S S S S S S S S S S    E  E  E  E  E  E  E  E   
----------------------------------|--------------------------|
----------------------------------|--------------------------|
----------------------------------|--------------------------|
--3-3-3-3-3-3-3-3-3-3-3-3-3-3-3-3-|--1--1--1--1--1--1--1--1--|


  E  E  E  E  E  E  E  E     E  S S S S S S S S S S S S S S  
--------------------------|---------------------------------|
--------------------------|---------------------------------|
--------------------------|--0--0-0-0-0-0-0-0-0-0-0-0-0-0-0-|
--0--0--0--0--0--0--0--0--|---------------------------------|


  S S S S S S S S S S S S S S S S    E  S S S S S S S S S S S S S S  
----------------------------------|---------------------------------|
----------------------------------|---------------------------------|
--0-0-0-0-0-0-0-0-0-0-0-0-0-0-0-0-|--3--3-3-3-3-3-3-3-3-3-3-3-3-3-3-|
----------------------------------|---------------------------------|


  S S S S S S S S S S S S S S S S    E  S S S S S S S S S S S S S S  
----------------------------------|---------------------------------|
----------------------------------|---------------------------------|
--3-3-3-3-3-3-3-3-3-3-3-3-3-3-3-3-|---------------------------------|
----------------------------------|--3--3-3-3-3-3-3-3-3-3-3-3-3-3-3-|


  S S S S S S S S S S S S S S S S    E  E  E  E  E  E  E  E   
----------------------------------|--------------------------|
----------------------------------|--------------------------|
----------------------------------|--------------------------|
--3-3-3-3-3-3-3-3-3-3-3-3-3-3-3-3-|--1--1--1--1--1--1--1--1--|


  E  E  E  E  E  E  E  E     Q    H        Q       W                 
--------------------------|---------------------|-------------------|
--------------------------|---------------------|-------------------|
--------------------------|--0------------------|-------------------|
--0--0--0--0--0--0--0--0--|---------------------|-------------------|


  W                   W                   W                   W                 
-------------------|-------------------|-------------------|-------------------|
-------------------|-------------------|-------------------|-------------------|
-------------------|-------------------|-------------------|-------------------|
-------------------|-------------------|-------------------|-------------------|


  W                   W                   W                 
-------------------|-------------------|-------------------|
-------------------|-------------------|-------------------|
-------------------|-------------------|-------------------|
-------------------|-------------------|-------------------|


  Q.     Q    Q    E     E  Q    Q    E  Q       Q.     Q    Q    E   
----------------------|-----------------------|----------------------|
---------7------------|-----7------------7----|---------5------------|
--0-----------0----0--|--L-------0----0-------|----------------------|
----------------------|-----------------------|--3-----------3----3--|


  E  Q    E  E  E  Q       Q.     Q    Q    E     E  E  E  E  E  E  Q     
------------------------|----------------------|-------------------------|
-----5----------5-------|---------3------------|-----3--------3-----3----|
------------------------|----------------------|-------------------------|
--L-------3--3-----3----|--1-----------1----1--|--L-----1--1-----1-------|


  Q.     Q    Q    E     E  E  E  E  E  E  Q       E  E  E  E  E  E  E  E   
----------------------|-------------------------|--------------------------|
---------5------------|-----5--------5-----5----|--------------------------|
----------------------|-------------------------|--0--0--0--L--0--0--0--L--|
--3-----------3----3--|--L-----3--3-----3-------|--------------------------|


  E  E  E  E  E  E  E  E     E  E  E  E  E  E  E  E   
--------------------------|--------------------------|
--------------------------|--------------------------|
--0--0--0--L--0--0--0--L--|--------------------------|
--------------------------|--1--1--1--L--1--1--1--L--|


  E  E  E  E  E  E  E  E     E  E  E  E  E  E  E  E   
--------------------------|--------------------------|
--------------------------|--------------------------|
--------------------------|--0--0--0--L--0--0--0--L--|
--1--1--1--L--1--1--1--L--|--------------------------|


  E  E  E  E  E  E  E  E     E  E  E  E  E  E  E  E   
--------------------------|--------------------------|
--------------------------|--------------------------|
--0--0--0--L--0--0--0--L--|--------------------------|
--------------------------|--1--1--1--L--1--1--1--L--|


  E  E  E  E  E  E  E  E     E  E  E  E  E  E  E  E   
--------------------------|--------------------------|
--------------------------|--------------------------|
--------------------------|--0--0--0--L--0--0--0--L--|
--1--1--1--L--1--1--1--L--|--------------------------|


  E  E  E  E  E  E  E  E     E  E  E  E  E  E  E  E   
--------------------------|--------------------------|
--------------------------|--------------------------|
--0--0--0--L--0--0--0--L--|--------------------------|
--------------------------|--1--1--1--L--1--1--1--L--|


  E  E  E  E  E  E  E  E     E  E  E  E  E  E  E  E   
--------------------------|--------------------------|
--------------------------|--------------------------|
--------------------------|--0--0--0--L--0--0--0--L--|
--1--1--1--L--1--1--1--L--|--------------------------|


  E  E  E  E  E  E  E  E     E  E  E  E  E  E  E  E   
--------------------------|--------------------------|
--------------------------|--------------------------|
--0--0--0--L--0--0--0--L--|--------------------------|
--------------------------|--1--1--1--L--1--1--1--L--|


  E  E  E  E  E  E  E  E     Q    E  E  E  E  E  E     E  E  E  E  E  E  E  E   
--------------------------|-------------------------|--------------------------|
--------------------------|-------------------------|--------------------------|
--------------------------|--0----0--0--0--0--0--0--|--0--0--0--0--0--0--0--0--|
--1--1--1--L--1--1--1--L--|-------------------------|--------------------------|


  Q    E  E  E  E  E  E     E  E  E  E  E  E  E  E     Q    E  E  E  E  E  E   
-------------------------|--------------------------|-------------------------|
-------------------------|--------------------------|-------------------------|
-------------------------|--------------------------|--0----0--0--0--0--0--0--|
--1----1--1--1--1--1--1--|--1--1--1--1--1--1--1--1--|-------------------------|


  E  E  E  E  E  E  E  E     Q    E  E  E  E  E  E     E  E  E  E  E  E  E  E   
--------------------------|-------------------------|--------------------------|
--------------------------|-------------------------|--------------------------|
--0--0--0--0--0--0--0--0--|-------------------------|--------------------------|
--------------------------|--1----1--1--1--1--1--1--|--1--1--1--1--1--1--1--1--|


  Q    E  E  E  E  E  E     E  E  E  E  E  E  E  E     Q    E  E  E  E  E  E   
-------------------------|--------------------------|-------------------------|
-------------------------|--------------------------|-------------------------|
--0----0--0--0--0--0--0--|--0--0--0--0--0--0--0--0--|-------------------------|
-------------------------|--------------------------|--1----1--1--1--1--1--1--|


  E  E  E  E  E  E  E  E     Q    E  E  E  E  E  E     E  E  E  E  E  E  E  E   
--------------------------|-------------------------|--------------------------|
--------------------------|-------------------------|--------------------------|
--------------------------|--0----0--0--0--0--0--0--|--0--0--0--0--0--0--0--0--|
--1--1--1--1--1--1--1--1--|-------------------------|--------------------------|


  Q    E  E  E  E  E  E     E  E  E  E  E  E  E  E     Q    H        Q     
-------------------------|--------------------------|---------------------|
-------------------------|--------------------------|---------------------|
-------------------------|--------------------------|--0------------------|
--1----1--1--1--1--1--1--|--1--1--1--1--1--1--1--1--|---------------------|


  Q    H        Q       Q    H        Q       W                 
---------------------|---------------------|-------------------|
---------------------|---------------------|-------------------|
--0------------------|--0------------------|-------------------|
---------------------|---------------------|--1----------------|


  Q    H        Q       Q    H        Q       Q    H        Q     
---------------------|---------------------|---------------------|
---------------------|---------------------|---------------------|
--0------------------|--0------------------|--0------------------|
---------------------|---------------------|---------------------|


  W                   E  E  S S S S E  S S S S E   
-------------------|------------------------------|
-------------------|-----2--L---------------------|
-------------------|--0-------0-3-L-0--3-0-L-0-3--|
--1----------------|------------------------------|


  E  E  S S S S E  S S S S E     E  E  S S S S E  S S S S E   
------------------------------|------------------------------|
-----2--L---------------------|------------------------------|
--0-------0-3-L-0--3-0-L-0-3--|------------------------------|
------------------------------|--1--1--L-1-1-L-1--1-1-L-1-1--|


  E  E  S S S S E  S S S S E     E  E  S S S S E  S S S S E   
------------------------------|------------------------------|
------------------------------|-----2--L---------------------|
------------------------------|--0-------0-3-L-0--3-0-L-0-3--|
--3--3--L-3-3-L-3--3-3-L-3-3--|------------------------------|


  E  E  S S S S E  S S S S E     E  E  S S S S E  S S S S E   
------------------------------|------------------------------|
-----2--L---------------------|------------------------------|
--0-------0-3-L-0--3-0-L-0-3--|------------------------------|
------------------------------|--1--1--L-1-1-L-1--1-1-L-1-1--|


  E  E  S S S S E  S S S S E     E  E  S S S S E  S S S S E   
------------------------------|------------------------------|
------------------------------|-----2--L---------------------|
------------------------------|--0-------0-3-L-0--3-0-L-0-3--|
--3--3--L-3-3-L-3--3-3-L-3-3--|------------------------------|


  E  E  S S S S E  S S S S E     E  E  E  E  E  E  E  E   
------------------------------|--------------------------|
-----2--L---------------------|--------------------------|
--0-------0-3-L-0--3-0-L-0-3--|--3--3--3--3--3--3--3--3--|
------------------------------|--------------------------|


  E  E  E  E  E  E  E  E     E  E  S S S S E  S S S S E   
--------------------------|------------------------------|
--------------------------|-----2--L---------------------|
--------------------------|--0-------0-3-L-0--3-0-L-0-3--|
--3--3--3--3--3--3--3--3--|------------------------------|


  E  E  S S S S E  S S S S E     E  E  E  E  E  E  E  E   
------------------------------|--------------------------|
-----2--L---------------------|--------------------------|
--0-------0-3-L-0--3-0-L-0-3--|--3--3--3--3--3--3--3--3--|
------------------------------|--------------------------|


  E  E  E  E  E  E  E  E     Q    H        Q       E  E  E  E  E  E  E  E   
--------------------------|---------------------|--------------------------|
--------------------------|---------------------|--------------------------|
--------------------------|---------------------|--------5-----------------|
--3--3--3--3--3--3--3--3--|--0------------------|--0-----------0-----3-----|


  E  S S S S S S S S S S S S S S    S S S S S S S S S S S S S S S S  
---------------------------------|----------------------------------|
---------------------------------|----------------------------------|
--0--0-0-0-0-0-0-0-0-0-0-0-0-0-0-|--0-0-0-0-0-0-0-0-0-0-0-0-0-0-0-0-|
---------------------------------|----------------------------------|


  E  S S S S S S S S S S S S S S    S S S S S S S S S S S S S S S S  
---------------------------------|----------------------------------|
---------------------------------|----------------------------------|
--3--3-3-3-3-3-3-3-3-3-3-3-3-3-3-|--3-3-3-3-3-3-3-3-3-3-3-3-3-3-3-3-|
---------------------------------|----------------------------------|


  E  S S S S S S S S S S S S S S    S S S S S S S S S S S S S S S S  
---------------------------------|----------------------------------|
---------------------------------|----------------------------------|
--5--5-5-5-5-5-5-5-5-5-5-5-5-5-5-|--5-5-5-5-5-5-5-5-5-5-5-5-5-5-5-5-|
---------------------------------|----------------------------------|


  E  S S S S S S S S S S S S S S    S S S S S S S S S S S S S S S S  
---------------------------------|----------------------------------|
---------------------------------|----------------------------------|
--7--7-7-7-7-7-7-7-7-7-7-7-7-7-7-|--7-7-7-7-7-7-7-7-7-7-7-7-7-7-7-7-|
---------------------------------|----------------------------------|


  E  S S S S S S S S S S S S S S    S S S S S S S S S S S S S S S S  
---------------------------------|----------------------------------|
---------------------------------|----------------------------------|
--0--0-0-0-0-0-0-0-0-0-0-0-0-0-0-|--0-0-0-0-0-0-0-0-0-0-0-0-0-0-0-0-|
---------------------------------|----------------------------------|


  E  S S S S S S S S S S S S S S    S S S S S S S S S S S S S S S S  
---------------------------------|----------------------------------|
---------------------------------|----------------------------------|
--3--3-3-3-3-3-3-3-3-3-3-3-3-3-3-|--3-3-3-3-3-3-3-3-3-3-3-3-3-3-3-3-|
---------------------------------|----------------------------------|


  E  S S S S S S S S S S S S S S    S S S S S S S S S S S S S S S S  
---------------------------------|----------------------------------|
---------------------------------|----------------------------------|
--5--5-5-5-5-5-5-5-5-5-5-5-5-5-5-|--5-5-5-5-5-5-5-5-5-5-5-5-5-5-5-5-|
---------------------------------|----------------------------------|


  E  S S S S S S S S S S S S S S    Q    H        Q     
---------------------------------|---------------------|
---------------------------------|---------------------|
--7--7-7-7-7-7-7-7-7-7-7-7-7-7-7-|--7------------------|
---------------------------------|---------------------|


  E  E  E  E  E  E  E  E     E  E  E  E  E  E  E  E   
--------------------------|--------------------------|
--------------------------|--------------------------|
--0--0--0--0--0--0--0--0--|--3--3--3--3--3--3--3--3--|
--------------------------|--------------------------|


  E  E  E  E  E  E  E  E     E  E  E  E  E  E  E  E   
--------------------------|--------------------------|
--------------------------|--------------------------|
--------------------------|--0--0--0--0--0--0--0--0--|
--3--3--3--3--3--3--3--3--|--------------------------|


  E  E  E  E  E  E  E  E     E  E  E  E  E  E  E  E   
--------------------------|--------------------------|
--------------------------|--------------------------|
--------------------------|--------------------------|
--1--1--1--1--1--1--1--1--|--1--1--1--1--1--1--1--1--|


  E  E  E  E  E  E  E  E     E  E  E  E  E  E  E  E   
--------------------------|--------------------------|
--------------------------|--------------------------|
--5--5--5--5--5--5--5--5--|--7--7--7--7--7--7--7--7--|
--------------------------|--------------------------|


  E  E  E  E  E  E  E  E     E  E  E  E  E  E  E  E   
--------------------------|--------------------------|
--------------------------|--------------------------|
--0--0--0--0--0--0--0--0--|--3--3--3--3--3--3--3--3--|
--------------------------|--------------------------|


  E  E  E  E  E  E  E  E     E  E  E  E  E  E  E  E   
--------------------------|--------------------------|
--------------------------|--------------------------|
--------------------------|--0--0--0--0--0--0--0--0--|
--3--3--3--3--3--3--3--3--|--------------------------|


  E  S S S S S S S S S S S S S S    S S S S S S S S S S S S S S S S  
---------------------------------|----------------------------------|
---------------------------------|----------------------------------|
---------------------------------|----------------------------------|
--1--1-1-1-1-1-1-1-1-1-1-1-1-1-1-|--1-1-1-1-1-1-1-1-1-1-1-1-1-1-1-1-|


  Q    H        Q       W                   E  S S S S S S S S S S S S S S  
---------------------|-------------------|---------------------------------|
---------------------|-------------------|---------------------------------|
--7------------------|-------------------|--5--5-5-5-5-5-5-5-5-5-5-5-5-5-5-|
--0------------------|-------------------|---------------------------------|


  E  S S S S S S S S S S S S S S    E  S S S S S S S S S S S S S S  
---------------------------------|---------------------------------|
---------------------------------|---------------------------------|
--0--0-0-0-0-0-0-0-0-0-0-0-0-0-0-|---------------------------------|
---------------------------------|--3--3-3-3-3-3-3-3-3-3-3-3-3-3-3-|


  E  S S S S S S S S S S S S S S    E  S S S S S S S S S S S S S S  
---------------------------------|---------------------------------|
---------------------------------|---------------------------------|
---------------------------------|--5--5-5-5-5-5-5-5-5-5-5-5-5-5-5-|
--1--1-1-1-1-1-1-1-1-1-1-1-1-1-1-|---------------------------------|


  E  S S S S S S S S S S S S S S    E  S S S S S S S S S S S S S S  
---------------------------------|---------------------------------|
---------------------------------|---------------------------------|
--0--0-0-0-0-0-0-0-0-0-0-0-0-0-0-|---------------------------------|
---------------------------------|--1--1-1-1-1-1-1-1-1-1-1-1-1-1-1-|


  E.  S E.  S E  E  Q       E  E  E  E  E  E  E  E     E  E  E  E  E  E  E  E   
-------------------------|--------------------------|--------------------------|
-------------------------|--------------------------|--------------------------|
-------------------------|--0--0--0--0--0--0--0--0--|--3--3--3--3--3--3--3--3--|
--0-----0-----0--0--3----|--------------------------|--------------------------|


  E  E  E  E  E  E  E  E     E  E  E  E  E  E  E  E   
--------------------------|--------------------------|
--------------------------|--------------------------|
--------------------------|--0--0--0--0--0--0--0--0--|
--3--3--3--3--3--3--3--3--|--------------------------|


  E  E  E  E  E  E  E  E     E  E  E  E  E  E  E  E   
--------------------------|--------------------------|
--------------------------|--------------------------|
--0--0--0--0--0--0--0--0--|--3--3--3--3--3--3--3--3--|
--------------------------|--------------------------|


  E  E  E  E  E  E  E  E     E  E  E  E  E  E  E  E   
--------------------------|--------------------------|
--------------------------|--------------------------|
--0--0--0--0--0--0--0--0--|--------------------------|
--------------------------|--3--3--3--3--3--3--3--3--|


  E  E  E  E  E  E  E  E     E  E  E  E  E  E  E  E   
--------------------------|--------------------------|
--------------------------|--------------------------|
--0--0--0--0--0--0--0--0--|--3--3--3--3--3--3--3--3--|
--------------------------|--------------------------|


  E  E  E  E  E  E  E  E     E  E  E  E  E  E  E  E   
--------------------------|--------------------------|
--------------------------|--------------------------|
--------------------------|--0--0--0--0--0--0--0--0--|
--3--3--3--3--3--3--3--3--|--------------------------|


  E  S S S S S S S S S S S S S S    S S S S S S S S S S S S S S S S  
---------------------------------|----------------------------------|
---------------------------------|----------------------------------|
---------------------------------|----------------------------------|
--1--1-1-1-1-1-1-1-1-1-1-1-1-1-1-|--1-1-1-1-1-1-1-1-1-1-1-1-1-1-1-1-|


  E  S S S S S S S S S S S S S S    S S S S S S S S S S S S S S S S  
---------------------------------|----------------------------------|
---------------------------------|----------------------------------|
--7--7-7-7-7-7-7-7-7-7-7-7-7-7-7-|--7-7-7-7-7-7-7-7-7-7-7-7-7-7-7-7-|
---------------------------------|----------------------------------|


  W                   W                   W                   W                 
-------------------|-------------------|-------------------|-------------------|
-------------------|-------------------|-------------------|-------------------|
--3----------------|-------------------|--0----------------|--3----------------|
-------------------|--3----------------|-------------------|-------------------|


  W                   H        H            W                 
-------------------|---------------------|-------------------|
-------------------|---------------------|-------------------|
-------------------|---------------------|-------------------|
--3----------------|--L--------3\--------|--1----------------|


  W                   W                   W                   W                 
-------------------|-------------------|-------------------|-------------------|
-------------------|-------------------|-------------------|-------------------|
-------------------|--3----------------|-------------------|--0----------------|
--L----------------|-------------------|--3----------------|-------------------|


  W                   W                   W                 
-------------------|-------------------|-------------------|
-------------------|-------------------|-------------------|
-------------------|-------------------|-------------------|
--1----------------|--3----------------|--L----------------|


  Q    H        Q       W                   Q    H        Q     
---------------------|-------------------|---------------------|
---------------------|-------------------|---------------------|
---------------------|-------------------|---------------------|
--0------------------|-------------------|--1------------------|


  Q    H        Q       E  S S S S S S S S S S S S S S  
---------------------|---------------------------------|
---------------------|---------------------------------|
---------------------|--0--0-0-0-0-0-0-0-0-0-0-0-0-0-0-|
--1------------------|---------------------------------|


  S S S S S S S S S S S S S S S S    Q    H        Q       Q    H        Q     
----------------------------------|---------------------|---------------------|
----------------------------------|---------------------|---------------------|
--0-0-0-0-0-0-0-0-0-0-0-0-0-0-0-0-|---------------------|---------------------|
----------------------------------|--1------------------|--1------------------|


  Q    E  E  E  E  E  E     E  E  E  E  E  E  E  E     Q    E  E  E  E  E  E   
-------------------------|--------------------------|-------------------------|
-------------------------|--------------------------|-------------------------|
-------------------------|--------------------------|-------------------------|
--0----0--0--0--0--0--0--|--0--0--0--0--0--0--0--0--|--0----0--0--0--0--0--0--|


  W                   E  E  E  E  E  E  E  E     E  E  E  E  E  E  E  E   
-------------------|--------------------------|--------------------------|
-------------------|--------------------------|--------------------------|
-------------------|--0--0--0--0--0--0--0--0--|--3--3--3--3--3--3--3--3--|
--0----------------|--------------------------|--------------------------|


  E  E  E  E  E  E  E  E     E  E  E  E  E  E  E  E   
--------------------------|--------------------------|
--------------------------|--------------------------|
--------------------------|--0--0--0--0--0--0--0--0--|
--3--3--3--3--3--3--3--3--|--------------------------|


  E  E  E  E  E  E  E  E     E  E  E  E  E  E  E  E   
--------------------------|--------------------------|
--------------------------|--------------------------|
--------------------------|--3--3--3--3--3--3--3--3--|
--1--1--1--1--1--1--1--1--|--------------------------|


  E  E  E  E  E  E  E  E     E  E  E  E  E  E  E  E   
--------------------------|--------------------------|
--------------------------|--------------------------|
--0--0--0--0--0--0--0--0--|--------------------------|
--------------------------|--3--3--3--3--3--3--3--3--|


  E  E  E  E  E  E  E  E     E  E  E  E  E  E  E  E   
--------------------------|--------------------------|
--------------------------|--------------------------|
--0--0--0--0--0--0--0--0--|--3--3--3--3--3--3--3--3--|
--------------------------|--------------------------|


  E  E  E  E  E  E  E  E     E  E  E  E  E  E  E  E   
--------------------------|--------------------------|
--------------------------|--------------------------|
--------------------------|--0--0--0--0--0--0--0--0--|
--3--3--3--3--3--3--3--3--|--------------------------|


  E  S S S S S S S S S S S S S S    S S S S S S S S S S S S S S S S  
---------------------------------|----------------------------------|
---------------------------------|----------------------------------|
---------------------------------|----------------------------------|
--1--1-1-1-1-1-1-1-1-1-1-1-1-1-1-|--1-1-1-1-1-1-1-1-1-1-1-1-1-1-1-1-|


  Q    H        Q       W                   E  E  E  E  E  E  E  E   
---------------------|-------------------|--------------------------|
---------------------|-------------------|--------------------------|
---------------------|-------------------|--0--0--0--0--0--0--0--0--|
--0------------------|-------------------|--------------------------|


  E  E  E  E  E  E  E  E     E  E  E  E  E  E  E  E   
--------------------------|--------------------------|
--------------------------|--------------------------|
--0--0--0--0--0--0--0--0--|--------------------------|
--------------------------|--1--1--1--1--1--1--1--1--|


  E  E  E  E  E  E  E  E     E  E  E  E  E  E  E  E   
--------------------------|--------------------------|
--------------------------|--------------------------|
--------------------------|--------------------------|
--1--1--1--1--1--1--1--1--|--3--3--3--3--3--3--3--3--|


  E  E  E  E  E  E  E  E     Q    Q    Q    Q       E  E  E  E  E  E  E  E   
--------------------------|----------------------|--------------------------|
--------------------------|----------------------|--------------------------|
--------------------------|----------------------|--------------------------|
--3--3--3--3--3--3--3--3--|--0----0----0----0----|--3--3--3--3--3--3--3--3--|


  E  E  E  E  E  E  E  E     E  E  E  E  E  E  E  E   
--------------------------|--------------------------|
--------------------------|--------------------------|
--0--0--0--0--0--0--0--0--|--0--0--0--0--0--0--0--0--|
--------------------------|--------------------------|


  E  E  E  E  E  E  E  E     E  E  E  E  E  E  E  E   
--------------------------|--------------------------|
--------------------------|--------------------------|
--------------------------|--------------------------|
--1--1--1--1--1--1--1--1--|--1--1--1--1--1--1--1--1--|


  E  E  E  E  E  E  E  E     E  E  E  E  E  E  E  E     Q    Q    Q    Q     
--------------------------|--------------------------|----------------------|
--------------------------|--------------------------|----------------------|
--------------------------|--------------------------|----------------------|
--3--3--3--3--3--3--3--3--|--3--3--3--3--3--3--3--3--|--0----0----0----0----|


  Q    Q    Q    Q       E  E  E  E  E  E  E  E     E  E  E  E  E  E  E  E   
----------------------|--------------------------|--------------------------|
----------------------|--------------------------|--------------------------|
----------------------|--0--0--0--0--0--0--0--0--|--0--0--0--0--0--0--0--0--|
--3----0----3----0----|--------------------------|--------------------------|


  E  E  E  E  E  E  E  E     E  E  E  E  E  E  E  E   
--------------------------|--------------------------|
--------------------------|--------------------------|
--3--3--3--3--3--3--3--3--|--3--3--3--3--3--3--3--3--|
--------------------------|--------------------------|


  E  E  E  E  E  E  E  E     E  E  E  E  E  E  E  E   
--------------------------|--------------------------|
--------------------------|--------------------------|
--------------------------|--------------------------|
--3--3--3--3--3--3--3--3--|--3--3--3--3--3--3--3--3--|


  E  E  E  E  E  E  E  E     E  E  E  E  E  E  E  E   
--------------------------|--------------------------|
--------------------------|--------------------------|
--------------------------|--------------------------|
--0--0--0--0--0--0--0--0--|--0--0--0--0--0--0--0--0--|


  E  E  E  E  E  E  E  E     E  E  E  E  E  E  E  E   
--------------------------|--------------------------|
--------------------------|--------------------------|
--0--0--0--0--0--0--0--0--|--0--0--0--0--0--0--0--0--|
--------------------------|--------------------------|


  E  E  E  E  E  E  E  E     E  E  E  E  E  E  E  E   
--------------------------|--------------------------|
--------------------------|--------------------------|
--3--3--3--3--3--3--3--3--|--3--3--3--3--3--3--3--3--|
--------------------------|--------------------------|


  E  S S S S S S S S S S S S S S    S S S S S S S S S S S S S S S S  
---------------------------------|----------------------------------|
---------------------------------|----------------------------------|
---------------------------------|----------------------------------|
--1--1-1-1-1-1-1-1-1-1-1-1-1-1-1-|--1-1-1-1-1-1-1-1-1-1-1-1-1-1-1-1-|


  Q    H        Q       W                   E  E  E  E  E  E  E  E   
---------------------|-------------------|--------------------------|
---------------------|-------------------|--------------------------|
---------------------|-------------------|--0--0-----0--------------|
--0------------------|-------------------|--------------3--3-----3--|


  E  E  E  E  E  E  E  E     W                   H.           E  E   
--------------------------|-------------------|---------------------|
--------------------------|-------------------|---------------------|
--------------5--5-----5--|-------------------|---------------------|
--1--1-----1--------------|--0----------------|--L------------3--3--|


  W                  
-------------------||
-------------------||
-------------------||
--5----------------||




Duration Legend
---------------
W - whole
H - half
Q - quarter
E - 8th
S - 16th
T - 32nd
X - 64th
. - note dotted
|-n-|  - n-tuplets


Tablature Legend
----------------
L - tied note
x - dead note
g - grace note
(n) - ghost note
> - accentuded note
NH - natural harmonic
AH - artificial harmonic
TH - tapped harmonic
SH - semi harmonic
PH - pitch harmonic
h - hammer on
p - pull off
b - bend
br - bendRelease
pb - preBend
pbr - preBendRelease
brb - bendReleaseBend
\n/ - tremolo bar dip
\n - tremolo bar dive
-/n - tremolo bar Release up
/n\ - tremolo bar inverted dip
/n - tremolo bar return
-\n - tremolo bar Release down
S - shift slide
s - legato slide
/ -  slide into from below or out of upwards
\ -  slide into from above or out of downwards
~ - vibrato
W - wide vibrato
tr - trill
TP - tremolo picking
T - tapping
S - slap
P - pop
< - fade in
^ - brush up
v - brush down
comments
We did not receive enough feedback on this tab! Please rate:
print report bad tab
1 2 3 4 5
I want to post or [tab]
guest
You may want to rate the tab now too:
select rating
Please do not post tabs as comments. Select "correction" instead!