Oops, an error
Loading. Please wait.

Dawn Over A New World Tab

ver1
ver1

Whole song

Interactive

More versions @911Tabs.com
8,761 views 3 this week
2 commentsread comments
1 2 3 4 5
excellent!
x 4
Autoscroll
+/-
esc
set tempo
stop
Contributor
Hey! There's an official Ultimate Guitar app which is ideal
for learning songs when you're away from computer. Get the app
WARNING: You are trying to view
                                    content from Ultimate-Guitar.com
                                    in an unauthorized application,
                                    which is prohibited.

                                    Please use an official Ultimate
                                    Guitar Tabs application for iPhone,
                                    iPad or Android to access legitimate
                                    chords, guitar, bass, and drum tabs
                                    from Ultimate-Guitar.com database.

                                    Type "ultimate guitar tabs" in Apple
                                    App Store's or Android Market's
                                    search to find the application.
#----------------------------------PLEASE NOTE---------------------------------#
#This file is the author's own work and represents their interpretation of the #
#song. You may only use this file for private study, scholarship, or research. #
#------------------------------------------------------------------------------##

                              DAWN OVER A NEW WORLD
                           As recorded by Dragonforce
                      (From the 2004 Album SONIC FIRESTORM)

Words and Music by Dragonforce
Transcribed by acrobaticfish

Gtr I (E A D G B E) - 'Lead'
Gtr II (E A D G B E) - 'Rhythm'
Gtr III (E A D G B E) - 'Acoustic'

 Intro
  Q=159
 4/4
  Gtr III
  Wx16
|---------|
|---------|
|---------|
|---------|
|---------|
|---------|


 Verse 1
  F                           C/G
  Q.   E H      +H     H      Q.   E H      E E E E H
|-1------1----|-(1)----1----|-0------0----|-0---0-1-0----|
|-1----1-1----|-(1)----1----|-1----1-1----|-1-1-1-1-1----|
|-2----2-2----|-(2)----2----|-0----0-0----|-0-0---0-0----|
|-3----3-3----|-(3)----3----|-2----2-2----|---------2----|
|-3----3-3----|-(3)----3----|-3----3-3----|---------3----|
|-1------1----|-(1)----1----|-3------3----|---------3----|


  Bb/F                        F
  Q.   E H      +H     H      Q.   E H      +H     H
|-1------1----|-(1)----1----|-1------1----|-(1)----1----|
|-3----3-3----|-(3)----3----|-1----1-1----|-(1)----1----|
|-3----3-3----|-(3)----3----|-2----2-2----|-(2)----2----|
|-3----3-3----|-(3)----3----|-3----3-3----|-(3)----3----|
|-1----1-1----|-(1)----1----|-3----3-3----|-(3)----3----|
|-1------1----|-(1)----1----|-1------1----|-(1)----1----|


  F                           C/G
  Q.   E H      +H     H      Q.   E H      +H     H
|-1------1----|-(1)----1----|-0-----------|--------0----|
|-1----1-1----|-(1)----1----|-1----3-3----|-(3)----1----|
|-2----2-2----|-(2)----2----|-0----0-0----|-(0)----0----|
|-3----3-3----|-(3)----3----|-2----2-2----|-(2)----2----|
|-3----3-3----|-(3)----3----|-3----3-3----|-(3)----3----|
|-1------1----|-(1)----1----|-3------3----|-(3)----3----|


  Dm/A          Gm          Bb/F        C/G
  Q.   E H      H    H      H    H      H    H
|-1------1----|-3----3----|-1----1----|-0----0----|
|-3----3-3----|-3----3----|-3----3----|-1----1----|
|-2----2-2----|-3----3----|-3----3----|-0----0----|
|-0----0-0----|-5----5----|-3----3----|-2----2----|
|-0----0-0----|-5----5----|-1----1----|-3----3----|
|-------------|-3----3----|-1----1----|-3----3----|


  F                               C/G
  Gtr I
  W               W               W               Q.    E E E E E
|--------------|----------------|--------------|------------------|
|--------------|----------------|--------------|--------1-1-3-3-1-|
|--------------|----------------|--------------|------------------|
|--------------|----------------|--------------|------------------|
|--------------|----------------|--------------|------------------|
|--------------|----------------|--------------|------------------|
|
| Gtr II
| H     E E Q    +H.        E E   H     E E Q    +H       E E E E
|--------------|----------------|--------------|------------------|
|--------------|----------------|--------------|------------------|
|--------------|----------------|-5-----x---5--|-(5)--------------|
|-3-----x---3--|-(3)------------|-5-----5---5--|-(5)--------0-0---|
|-3-----3---3--|-(3)--------3-3-|-3-----3---3--|-(3)------3-----3-|
|-1-----1---1--|-(1)--------1-1-|--------------|------------------|
|
| Gtr III
| Q  Q  Q   Q     Q   Q  Q  Q     Q  Q  Q   Q     Q   Q   Q   Q
|-1------------|--1-------------|-0------------|--0---------------|
|-1-----1------|--1------1------|-1-----1------|--1-------1-------|
|-2--2--2------|--2---2--2------|-0--0--0------|--0---0---0-------|
|-3--3--3---3--|--3---3--3--3---|-2--2--2---2--|--2---2---2---2---|
|-3--3--3---3--|--3---3--3--3---|-3--3--3---3--|--3---3---3---3---|
|-1--1--1---1--|--1---1--1--1---|-3--3--3---3--|--3---3---3---3---|


  Bb/F                              F
  H     H         W                 W               W
|--------------|------------------|--------------|------------------|
|--------------|------------------|--------------|------------------|
|-3------------|------------------|--------------|------------------|
|--------------|------------------|--------------|------------------|
|--------------|------------------|--------------|------------------|
|--------------|------------------|--------------|------------------|
|
| H     E E Q    +Q   E E E E E E   H     E E Q    +Q   E E E E E E
|--------------|------------------|--------------|------------------|
|--------------|------------------|--------------|------------------|
|-3-----x---3--|-(3)--3-3-0-------|--------------|------------------|
|-3-----3---3--|-(3)--1-1---3-1-0-|-3-----x---3--|-(3)----------0---|
|-1-----1---1--|-(1)--------------|-3-----3---3--|-(3)------0-3---3-|
|--------------|------------------|-1-----1---1--|-(1)--1-1---------|
|
| Q  Q  Q   Q     Q   Q   Q   Q     Q  Q  Q   Q     Q   Q   Q   Q
|-1------------|--1---------------|-1------------|--1---------------|
|-3-----3------|--3-------3-------|-1-----1------|--1-------1-------|
|-3--3--3------|--3---3---3-------|-2--2--2------|--2---2---2-------|
|-0--0--0---0--|--0---0---0---0---|-3--3--3---3--|--3---3---3---3---|
|-1--1--1---1--|--1---1---1---1---|-3--3--3---3--|--3---3---3---3---|
|-1--1--1---1--|--1---1---1---1---|-1--1--1---1--|--1---1---1---1---|


  F                                        C/G
   W                  W                    W               Q.    E E E E E
|-----------------|----------------------|--------------|------------1-1-3-|
|-----------------|----------------------|--------------|--------3-3-------|
|-----------------|----------------------|--------------|------------------|
|-----------------|----------------------|--------------|------------------|
|-----------------|----------------------|--------------|------------------|
|-----------------|----------------------|--------------|------------------|
|
|  H      E E  Q     +Q.     E  Q   E  E   H     E E Q    +Q.    E E E E E
|-----------------|----------------------|--------------|------------------|
|-----------------|----------------------|--------------|------------------|
|-10------x---10--|-(10)-------10--------|-5-----x---5--|-(5)------------0-|
|-10-----10---10--|-(10)----10-10--10-10-|-5-----5---5--|-(5)----0-0-3-3---|
|--8------8----8--|--(8)-----8--8---8--8-|-3-----3---3--|-(3)--------------|
|-----------------|----------------------|--------------|------------------|
|
|  Q  Q   Q    Q      Q   Q     Q   Q      Q  Q  Q   Q     Q   Q   Q   Q
|--1--------------|---1------------------|-0------------|--0---------------|
|--1------1-------|---1---------1--------|-1-----1------|--1-------1-------|
|--2--2---2-------|---2---2-----2--------|-0--0--0------|--0---0---0-------|
|--3--3---3----3--|---3---3-----3---3----|-2--2--2---2--|--2---2---2---2---|
|--3--3---3----3--|---3---3-----3---3----|-3--3--3---3--|--3---3---3---3---|
|--1--1---1----1--|---1---1-----1---1----|-3--3--3---3--|--3---3---3---3---|


  Bb/F                               F
  E E H.          +Q   E E E E E E   H     H         W
|-3-1-1---------|-(1)--1-1-3-1-----|--------------|----------------|
|---------------|--------------3-1-|--------------|----------------|
|---------------|------------------|--------------|----------------|
|---------------|------------------|-3------------|----------------|
|---------------|------------------|--------------|----------------|
|---------------|------------------|--------------|----------------|
|
| E E H.          +Q.    E E E E E   H     E E Q    +H.        E E
|---------------|------------------|--------------|----------------|
|---------------|------------------|--------------|----------------|
|-0-------------|----------0-------|--------------|----------------|
|---3-3---------|-(3)----3---3-0---|-3-----x---3--|-(3)------------|
|---------------|----------------3-|-3-----3---3--|-(3)--------3-3-|
|---------------|------------------|-1-----1---1--|-(1)--------1-1-|
|
| Q   Q   Q  Q     Q   Q   Q   Q     Q  Q  Q   Q     Q   Q  Q  Q
|-1-------------|--1---------------|-1------------|--1-------------|
|-3-------3-----|--3-------3-------|-1-----1------|--1------1------|
|-3---3---3-----|--3---3---3-------|-2--2--2------|--2---2--2------|
|-0---0---0--0--|--0---0---0---0---|-3--3--3---3--|--3---3--3--3---|
|-1---1---1--1--|--1---1---1---1---|-3--3--3---3--|--3---3--3--3---|
|-1---1---1--1--|--1---1---1---1---|-1--1--1---1--|--1---1--1--1---|


 Verse 2
  F                             C/G
  Gtr II
  W             +W              +W              W
|-------------|---------------|---------------|-------------|
|-------------|---------------|---------------|-------------|
|-------------|---------------|---------------|-------------|
|-3-----------|-(3)-----------|-(3)-----------|-------------|
|-3-----------|-(3)-----------|-(3)-----------|-------------|
|-1-----------|-(1)-----------|-(1)-----------|-------------|
|
| Gtr III
| Q  Q  Q  Q     Q   Q  Q  Q     Q   Q  Q  Q    Q  Q  Q  Q
|-1-----------|--1------------|--0------------|-0-----------|
|-1-----1-----|--1------1-----|--1------1-----|-1-----1-----|
|-2--2--2-----|--2---2--2-----|--0---0--0-----|-0--0--0-----|
|-3--3--3--3--|--3---3--3--3--|--2---2--2--2--|-2--2--2--2--|
|-3--3--3--3--|--3---3--3--3--|--3---3--3--3--|-3--3--3--3--|
|-1--1--1--1--|--1---1--1--1--|--3---3--3--3--|-3--3--3--3--|


  Bb/F                        F
  Gtr III
  Q  Q  Q  Q    Q  Q  Q  Q    Q  Q  Q  Q    Q  Q  Q  Q
|-1-----------|-1-----------|-1-----------|-1-----------|
|-3-----3-----|-3-----3-----|-1-----1-----|-1-----1-----|
|-3--3--3-----|-3--3--3-----|-2--2--2-----|-2--2--2-----|
|-0--0--0--0--|-0--0--0--0--|-3--3--3--3--|-3--3--3--3--|
|-1--1--1--1--|-1--1--1--1--|-3--3--3--3--|-3--3--3--3--|
|-1--1--1--1--|-1--1--1--1--|-1--1--1--1--|-1--1--1--1--|


                              C/G
  Q  Q  Q  Q    Q  Q  Q  Q    Q  Q  Q  Q
|-1-----------|-1-----------|-0-----------|
|-1-----1-----|-1-----1-----|-1-----1-----|
|-2--2--2-----|-2--2--2-----|-0--0--0-----|
|-3--3--3--3--|-3--3--3--3--|-2--2--2--2--|
|-3--3--3--3--|-3--3--3--3--|-3--3--3--3--|
|-1--1--1--1--|-1--1--1--1--|-3--3--3--3--|


                Dm/A          Gm
  Q  Q  Q  Q    Q  Q  Q  Q    Q  Q  Q  Q
|-0-----------|-1-----------|--------------|
|-1-----1-----|-3-----3-----|-3------------|
|-0--0--0-----|-2--2--2-----|-3-----3------|
|-2--2--2--2--|-0--0--0--0--|-5--5--5------|
|-3--3--3--3--|-0--0--0--0--|-5--5--5--5---|
|-3--3--3--3--|-------------|-3--3--3--3---|


  Bb/F        C/G
  Gtr I
               |--3--|  |--3--|  |--3--|  |--3--|  |--3--| |-3-| |-3-| |-3-|
  W            S  S  S  S  S  S  S  S  S  S  S  S  S  S  S S S S S S S S S S
|-----------|----------------------------------------------------------------|
|-----------|----------------------------------------------------------------|
|-----------|----------------------------------------------------------------|
|-----------|----------------------------------------------------------------|
|-----------|-24S23S22S21S20S19S18S17S16S15S14S13S12S11S10S9S8S7S6S5S4S3S2S1-|
|-----------|----------------------------------------------------------------|
|
| Gtr II
|              |--3--|  |--3--|  |--3--|  |--3--|  |--3--| |-3-| |-3-| |-3-|
| W            S  S  S  S  S  S  S  S  S  S  S  S  S  S  S S S S S S S S S S
|-----------|----------------------------------------------------------------|
|-----------|----------------------------------------------------------------|
|-----------|----------------------------------------------------------------|
|-----------|----------------------------------------------------------------|
|-----------|-20S19S18S17S16-16S15S14S13S12-12S11S10S=9S=8-8S7-7S6S5S3-3S2S1-|
|-----------|----------------------------------------------------------------|
|
| Gtr III
| H    H       H                                   H
|-1----1----|--0-----------------------------------0-------------------------|
|-3----3----|--1-----------------------------------1-------------------------|
|-3----3----|--0-----------------------------------0-------------------------|
|-3----3----|--2-----------------------------------2-------------------------|
|-1----1----|--3-----------------------------------3-------------------------|
|-1----1----|--3-----------------------------------3-------------------------|


 Bridge
  Dm            Bb                C             F/C
  Gtr II
  W             E E +E  E H       W             W
|-------------|-----------------|-------------|--------------|
|-------------|-----------------|-------------|--------------|
|-7-----------|-----------3-----|-5-----------|--------------|
|-7-----------|-3-3-----3-3-----|-5-----------|-3------------|
|-5-----------|-1-1-(1)-1-1-----|-3-----------|-3------------|
|-------------|-----------------|-------------|-1------------|
|
| Gtr III
| Q  Q  Q  Q    Q    Q    Q  Q    Q  Q  Q  Q    Q  Q  Q.   E
|-1-----1-----|-----------------|-------------|-1----------1-|
|-3--3--3--3--|-3---------3-----|-5-----5-----|-1-----1----3-|
|-2--2--2--2--|-3----3----3--3--|-5--5--5--5--|-2--2--2----2-|
|-0--0--0--0--|-3----3----3--3--|-5--5--5--5--|-3--3--3------|
|-------------|-1----1----1--1--|-3--3--3--3--|-3--3--3------|
|-------------|-----------------|-------------|--------------|


  Dm            Bb                C             F/C
  W             E E +E  E H       W             W
|-------------|-----------------|-------------|--------------|
|-------------|-----------------|-------------|--------------|
|-7-----------|-----------3-----|-5-----------|--------------|
|-7-----------|-3-3-----3-3-----|-5-----------|-3------------|
|-5-----------|-1-1-(1)-1-1-----|-3-----------|-3------------|
|-------------|-----------------|-------------|-1------------|
|
| Q  Q  Q  Q    Q    Q    Q  Q    Q  Q  Q  Q    Q  Q  Q.   E
|-1-----1-----|-----------------|-------------|-1----------1-|
|-3--3--3--3--|-3---------3-----|-5-----5-----|-1-----1----3-|
|-2--2--2--2--|-3----3----3--3--|-5--5--5--5--|-2--2--2----2-|
|-0--0--0--0--|-3----3----3--3--|-5--5--5--5--|-3--3--3------|
|-------------|-1----1----1--1--|-3--3--3--3--|-3--3--3------|
|-------------|-----------------|-------------|--------------|


  Dm            Bb                C             F/C
  W             E E +E  E H       W             W
|-------------|-----------------|-------------|--------------|
|-------------|-----------------|-------------|--------------|
|-7-----------|-----------3-----|-5-----------|--------------|
|-7-----------|-3-3-----3-3-----|-5-----------|-3------------|
|-5-----------|-1-1-(1)-1-1-----|-3-----------|-3------------|
|-------------|-----------------|-------------|-1------------|
|
| Q  Q  Q  Q    Q    Q    Q  Q    Q  Q  Q  Q    Q  Q  Q.   E
|-1-----1-----|-----------------|-------------|-1----------1-|
|-3--3--3--3--|-3---------3-----|-5-----5-----|-1-----1----3-|
|-2--2--2--2--|-3----3----3--3--|-5--5--5--5--|-2--2--2----2-|
|-0--0--0--0--|-3----3----3--3--|-5--5--5--5--|-3--3--3------|
|-------------|-1----1----1--1--|-3--3--3--3--|-3--3--3------|
|-------------|-----------------|-------------|--------------|


  Dm            Bb                Gm            C
  W             E E +E  E H       W             W
|-------------|-----------------|-------------|------------|
|-------------|-----------------|-------------|------------|
|-7-----------|-----------3-----|-------------|-5----------|
|-7-----------|-3-3-----3-3-----|-5-----------|-5----------|
|-5-----------|-1-1-(1)-1-1-----|-5-----------|-3----------|
|-------------|-----------------|-3-----------|------------|
|
| Q  Q  Q  Q    Q    Q    Q  Q    Q  Q  Q  Q    H    Q  Q
|-1-----1-----|-----------------|-------------|------------|
|-3--3--3--3--|-3---------3-----|-3-----3-----|-5----5-----|
|-2--2--2--2--|-3----3----3--3--|-3-----3-----|-5----5--5--|
|-0--0--0--0--|-3----3----3--3--|-5--5--5--5--|-5----5--5--|
|-------------|-1----1----1--1--|-5--5--5--5--|-3----3--3--|
|-------------|-----------------|-3--3--3--3--|------------|


 Pre-Chorus
  Bb          F           C           Dm
  W           W           W           W
|-----------|-----------|-----------|-----------|
|-----------|-----------|-----------|-----------|
|-3---------|-----------|-5---------|-7---------|
|-3---------|-3---------|-5---------|-7---------|
|-1---------|-3---------|-3---------|-5---------|
|-----------|-1---------|-----------|-----------|
|
| H    H      H    H      H    H      H    H
|-----------|-----------|-----------|-----------|
|-3----3----|-----------|-5----5----|-6----6----|
|-3----3----|-2----2----|-5----5----|-7----7----|
|-3----3----|-3----3----|-5----5----|-7----7----|
|-1----1----|-3----3----|-3----3----|-5----5----|
|-----------|-1----1----|-----------|-----------|


  Bb          F           Dm         C
  W           W           W          W
|-----------|-----------|----------|-----------|
|-----------|-----------|----------|-----------|
|-3---------|-----------|-7--------|-5---------|
|-3---------|-3---------|-7--------|-5---------|
|-1---------|-3---------|-5--------|-3---------|
|-----------|-1---------|----------|-----------|
|
| H    H      H    H      W          H    H
|-----------|-----------|----------|-----------|
|-3----3----|-----------|-6--------|-5----5----|
|-3----3----|-2----2----|-7--------|-5----5----|
|-3----3----|-3----3----|-7--------|-5----5----|
|-1----1----|-3----3----|-5--------|-3----3----|
|-----------|-1----1----|----------|-----------|


 Chorus
  F/C                             C
  H     E E Q    +H.        E E   H     E E Q    +W
|--------------|----------------|--------------|---------------|
|--------------|----------------|--------------|---------------|
|--------------|----------------|-5---------5--|-(5)-----------|
|-3-----x---3--|-(3)------------|-5-----5---5--|-(5)-----------|
|-3-----3---3--|-(3)--------3-3-|-3-----3---3--|-(3)-----------|
|-1-----1---1--|-(1)--------1-1-|--------------|---------------|
|
| Q  Q  Q   Q     Q   Q  Q  Q     Q  Q  Q   Q     Q   Q  Q  Q
|-1-----1------|--1------1------|-0-----0------|--0------0-----|
|-1--1--1---1--|--1---1--1--1---|-1--1--1---1--|--1---1--1--1--|
|-2--2--2---2--|--2---2--2--2---|-0--0--0---0--|--0---0--0--0--|
|-3--3--3---3--|--3---3--3--3---|-2--2--2---2--|--2---2--2--2--|
|-3--3--3---3--|--3---3--3--3---|-3--3--3---3--|--3---3--3--3--|
|--------------|----------------|--------------|---------------|


  Dm            Gm            Bb            C
  W             W             W             W
|-------------|-------------|-------------|-------------|
|-------------|-------------|-------------|-------------|
|-7-----------|-------------|-3-----------|-5-----------|
|-7-----------|-5-----------|-3-----------|-5-----------|
|-5-----------|-5-----------|-1-----------|-3-----------|
|-------------|-3-----------|-------------|-------------|
|
| Q  Q  Q  Q    Q  Q  Q  Q    Q  Q  Q  Q    Q  Q  Q  Q
|-1-----1-----|-------------|-1-----1-----|-0-----0-----|
|-3--3--3--3--|-3-----3-----|-3--3--3--3--|-1--1--1--1--|
|-2--2--2--2--|-3--3--3--3--|-3--3--3--3--|-0--0--0--0--|
|-0--0--0--0--|-5--5--5--5--|-3--3--3--3--|-2--2--2--2--|
|-------------|-5--5--5--5--|-1--1--1--1--|-3--3--3--3--|
|-------------|-3--3--3--3--|-------------|-------------|


  F/C                             C
  H     E E Q    +H.        E E   H     E E Q    +W
|--------------|----------------|--------------|---------------|
|--------------|----------------|--------------|---------------|
|--------------|----------------|-5---------5--|-(5)-----------|
|-3-----x---3--|-(3)------------|-5-----5---5--|-(5)-----------|
|-3-----3---3--|-(3)--------3-3-|-3-----3---3--|-(3)-----------|
|-1-----1---1--|-(1)--------1-1-|--------------|---------------|
|
| Q  Q  Q   Q     Q   Q  Q  Q     Q  Q  Q   Q     Q   Q  Q  Q
|-1-----1------|--1------1------|-0-----0------|--0------0-----|
|-1--1--1---1--|--1---1--1--1---|-1--1--1---1--|--1---1--1--1--|
|-2--2--2---2--|--2---2--2--2---|-0--0--0---0--|--0---0--0--0--|
|-3--3--3---3--|--3---3--3--3---|-2--2--2---2--|--2---2--2--2--|
|-3--3--3---3--|--3---3--3--3---|-3--3--3---3--|--3---3--3--3--|
|--------------|----------------|--------------|---------------|


  Dm            Gm            Bb            C
  W             W             W             W
|-------------|-------------|-------------|-------------|
|-------------|-------------|-------------|-------------|
|-7-----------|-------------|-3-----------|-5-----------|
|-7-----------|-5-----------|-3-----------|-5-----------|
|-5-----------|-5-----------|-1-----------|-3-----------|
|-------------|-3-----------|-------------|-------------|
|
| Q  Q  Q  Q    Q  Q  Q  Q    Q  Q  Q  Q    Q  Q  Q  Q
|-1-----1-----|-------------|-1-----1-----|-0-----0-----|
|-3--3--3--3--|-3-----3-----|-3--3--3--3--|-1--1--1--1--|
|-2--2--2--2--|-3--3--3--3--|-3--3--3--3--|-0--0--0--0--|
|-0--0--0--0--|-5--5--5--5--|-3--3--3--3--|-2--2--2--2--|
|-------------|-5--5--5--5--|-1--1--1--1--|-3--3--3--3--|
|-------------|-3--3--3--3--|-------------|-------------|


  F/C           C             Dm            G5/D
  W             W             W             W
|-------------|-------------|-------------|------------|
|-------------|-------------|-------------|------------|
|-------------|-5-----------|-7-----------|------------|
|-3-----------|-5-----------|-7-----------|-5----------|
|-3-----------|-3-----------|-5-----------|-5----------|
|-1-----------|-------------|-------------|-3----------|
|
| Q  Q  Q  Q    Q  Q  Q  Q    Q  Q  Q  Q    Q  Q  H
|-1-----1-----|-0-----0-----|-1-----1-----|-3-----3----|
|-1--1--1--1--|-1--1--1--1--|-3--3--3--3--|-3--3--3----|
|-2--2--2--2--|-0--0--0--0--|-2--2--2--2--|-0--0--0----|
|-3--3--3--3--|-2--2--2--2--|-0--0--0--0--|-0--0--0----|
|-3--3--3--3--|-3--3--3--3--|-------------|------------|
|-------------|-------------|-------------|------------|


  Bb            F             Bb            C
  W             W             W             W
|-------------|-------------|-------------|-------------|
|-------------|-------------|-------------|-------------|
|-3-----------|-------------|-3-----------|-5-----------|
|-3-----------|-3-----------|-3-----------|-5-----------|
|-1-----------|-3-----------|-1-----------|-3-----------|
|-------------|-1-----------|-------------|-------------|
|
| Q  Q  Q  Q    Q  Q  Q  Q    Q  Q  Q  Q    Q  Q  Q  Q
|-1-----1-----|-------------|-1-----1-----|-0-----0-----|
|-3--3--3--3--|-1-----1-----|-3--3--3--3--|-1--1--1--1--|
|-3--3--3--3--|-2--2--2--2--|-3--3--3--3--|-0--0--0--0--|
|-0--0--0--0--|-3--3--3--3--|-0--0--0--0--|-2--2--2--2--|
|-1--1--1--1--|-3--3--3--3--|-1--1--1--1--|-3--3--3--3--|
|-------------|-1--1--1--1--|-------------|-------------|


  F/C
  Gtr I
                 |--3--|  |--3--|  |--3--|  |--3--|  |--3--| |-3-| |-3-| |-3-|
  W              S  S  S  S  S  S  S  S  S  S  S  S  S  S  S S S S S S S S S S
|-------------|----------------------------------------------------------------|
|-------------|----------------------------------------------------------------|
|-------------|----------------------------------------------------------------|
|-------------|----------------------------------------------------------------|
|-------------|-24S23S22S21S20S19S18S17S16S15S14S13S12S11S10S9S8S7S6S5S4S3S2S1-|
|-------------|----------------------------------------------------------------|
|
| Gtr II
|                |--3--|  |--3--|  |--3--|  |--3--|  |--3--| |-3-| |-3-| |-3-|
| W              S  S  S  S  S  S  S  S  S  S  S  S  S  S  S S S S S S S S S S
|-------------|----------------------------------------------------------------|
|-------------|----------------------------------------------------------------|
|-------------|----------------------------------------------------------------|
|-3-----------|----------------------------------------------------------------|
|-3-----------|-20S19S18S17S16-16S15S14S13S12-12S11S10S=9S=8-8S7-7S6S5S3S2-2S1-|
|-1-----------|----------------------------------------------------------------|
|
| Gtr III
| Q  Q  Q  Q     Q                 Q                 Q             Q
|-1-----1-----|--1-----------------------------------1-------------------------|
|-1--1--1--1--|--1-----------------1-----------------1-------------1-----------|
|-2--2--2--2--|--2-----------------2-----------------2-------------2-----------|
|-3--3--3--3--|--3-----------------3-----------------3-------------3-----------|
|-3--3--3--3--|--3-----------------3-----------------3-------------3-----------|
|-------------|----------------------------------------------------------------|


 End Verse
  Gm                             Dm/A
  Gtr II
  H     E E Q    +W              H     E E Q    +W
|--------------|---------------|--------------|---------------|
|--------------|---------------|--------------|---------------|
|--------------|---------------|-7---------7--|-(7)-----------|
|-5---------5--|-(5)-----------|-7-----x---7--|-(7)-----------|
|-5-----x---5--|-(5)-----------|-5-----5---5--|-(5)-----------|
|-3-----3---3--|-(3)-----------|--------------|---------------|
|
| Gtr III
| Q  Q  Q   Q     Q   Q  Q  Q    Q  Q  Q   Q     Q   Q  Q  Q
|--------------|---------------|-1-----1------|--1------1-----|
|-3-----3------|--3------3-----|-3--3--3---3--|--3---3--3--3--|
|-0--0--0---0--|--0---0--0--0--|-2--2--2---2--|--2---2--2--2--|
|-0--0--0---0--|--0---0--0--0--|-0--0--0---0--|--0---0--0--0--|
|-1--1--1---1--|--1---1--1--1--|-0--0--0---0--|--0---0--0--0--|
|-3--3--3---3--|--3---3--3--3--|--------------|---------------|


  Gm                             Bb            C
  Gtr I
  W               W              W             H    E  E  E  E
|--------------|---------------|-------------|--------------12-|
|--------------|---------------|-------------|-----------15----|
|--------------|---------------|-------------|--------15-------|
|--------------|---------------|-------------|-----------------|
|--------------|---------------|-------------|-----------------|
|--------------|---------------|-------------|-----------------|
|
| Gtr II
| H     E E Q    +W              W             W
|--------------|---------------|-------------|-----------------|
|--------------|---------------|-------------|-----------------|
|--------------|---------------|-3-----------|-5---------------|
|-5---------5--|-(5)-----------|-3-----------|-5---------------|
|-5-----x---5--|-(5)-----------|-1-----------|-3---------------|
|-3-----3---3--|-(3)-----------|-------------|-----------------|
|
| Gtr III
| Q  Q  Q   Q     Q   Q  Q  Q    Q  Q  Q  Q    H    H
|--------------|---------------|-1-----1-----|-3----3----------|
|-3-----3------|--3------3-----|-3--3--3--3--|-5----5----------|
|-0--0--0---0--|--0---0--0--0--|-3--3--3--3--|-5----5----------|
|-0--0--0---0--|--0---0--0--0--|-3--3--3--3--|-5----5----------|
|-1--1--1---1--|--1---1--1--1--|-1--1--1--1--|-3----3----------|
|-3--3--3---3--|--3---3--3--3--|-------------|-----------------|


 Guitar Solo (Herman)
  Dm/A
                   |--3--|
   H         E  E  E  E  E    H       +E   E  E  E
|-12b13r====12-13-12-------|--------------------15-|
|--------------------15-13-|-----------------18----|
|--------------------------|-14------(14)-17-------|
|--------------------------|-----------------------|
|--------------------------|-----------------------|
|--------------------------|-----------------------|
|
|  W                         +H.              Q
|--------------------------|-----------------------|
|--------------------------|-----------------------|
|--7-----------------------|-(7)--------------7----|
|--7-----------------------|-(7)--------------7----|
|--5-----------------------|-(5)--------------5----|
|--------------------------|-----------------------|
|
|  Q.     E  Q     Q          Q.   E   Q      Q
|--1---------1-----1-------|--1--------1------1----|
|--3------3--3-----3-------|--3----3---3------3----|
|--2------2--2-----2-------|--2----2---2------2----|
|--0------0--0-----0-------|--0----0---0------0----|
|--0------0--0-----0-------|--0----0---0------0----|
|--------------------------|-----------------------|


  C
   ~~~~~                                     ~~
   H         Q       E  E        +Q.      E  H
|-15b17-----15pb17r====18b20==|=(18)r----17-15----|
|-------------------18--------|-------------------|
|-----------------------------|-------------------|
|-----------------------------|-------------------|
|-----------------------------|-------------------|
|-----------------------------|-------------------|
|
|  W                              W
|-----------------------------|-------------------|
|-----------------------------|-------------------|
|--5--------------------------|---5---------------|
|--5--------------------------|---5---------------|
|--3--------------------------|---3---------------|
|-----------------------------|-------------------|
|
|  Q.     E  Q.         E        +E   Q   E  H
|--3--------------------3-----|--------------3----|
|--5---------5----------5-----|--(5)--5------5----|
|--5------5--5----------5-----|--(5)--5---5--5----|
|--5------5--5----------5-----|--(5)--5---5--5----|
|--3------3--3----------3-----|--(3)--3---3--3----|
|-----------------------------|-------------------|


  Dm/A
   S  S  S  S  S  S  S  S  S  S  S  S  S  S  S  S
|-17p15h17p15h17p13h15p13h15p13h15p12h13p12h13p10-|
|-------------------------------------------------|
|-------------------------------------------------|
|-------------------------------------------------|
|-------------------------------------------------|
|-------------------------------------------------|
|
|  W
|-------------------------------------------------|
|-------------------------------------------------|
|--7----------------------------------------------|
|--7----------------------------------------------|
|--5----------------------------------------------|
|-------------------------------------------------|
|
|  Q.                E     Q           Q
|--1-----------------------1-----------1----------|
|--3-----------------3-----3-----------3----------|
|--2-----------------2-----2-----------2----------|
|--0-----------------0-----0-----------0----------|
|--0-----------------0-----0-----------0----------|
|-------------------------------------------------|


                |--3--|        |--3--|
   S   S  S  S  S  S  S  S  S  S  S  S  S  S  S  S  S  S
|-12p=10h12----------------------------------------------|
|-----------13-15p13h15-11-10-11h13p11-10----11-10-------|
|-----------------------------------------12-------12-10-|
|--------------------------------------------------------|
|--------------------------------------------------------|
|--------------------------------------------------------|
|
| +H.                                         E     E
|--------------------------------------------------------|
|--------------------------------------------------------|
|-(7)-----------------------------------------x-----x----|
|-(7)-----------------------------------------7-----7----|
|-(5)-----------------------------------------5-----5----|
|--------------------------------------------------------|
|
|  Q.                    E     Q              Q
|--1---------------------------1--------------1----------|
|--3---------------------3-----3--------------3----------|
|--2---------------------2-----2--------------2----------|
|--0---------------------0-----0--------------0----------|
|--0---------------------0-----0--------------0----------|
|--------------------------------------------------------|


  C
                                                                 ~~~~
   |3-| |3-| |3-|             |--3--|
   E  S E  S E  S  E  +E   S  S  S  S  S  S S    E   S  S E  E   H
|---------------------------------------------|----------------[12]----|
|------------8S13-23-(23)S11-13-11-10---------|------------------------|
|-------9S12--------------------------12-10-9-|-[9]-12-10-9------------|
|-10S14---------------------------------------|-------------10---------|
|---------------------------------------------|------------------------|
|---------------------------------------------|------------------------|
|
|  W                                            +W
|---------------------------------------------|------------------------|
|---------------------------------------------|------------------------|
|--5------------------------------------------|-(5)--------------------|
|--5------------------------------------------|-(5)--------------------|
|--3------------------------------------------|-(3)--------------------|
|---------------------------------------------|------------------------|
|
|  Q.              E   Q.                 E     +E   Q       E   H
|--3--------------------------------------3---|------------------3-----|
|--5-------------------5------------------5---|-(5)--5-----------5-----|
|--5---------------5---5------------------5---|-(5)--5-------5---5-----|
|--5---------------5---5------------------5---|-(5)--5-------5---5-----|
|--3---------------3---3------------------3---|-(3)--3-------3---3-----|
|---------------------------------------------|------------------------|


  Bb
   T     T    T     T       T        T
   E  E  E E  E  E  E  E    E   E E  E E E E E
|------------------------|--------8-20-8-6-5-6-|
|------------------------|-22--10--------------|
|------------------22-10-|---------------------|
|-------19-7-22-10-------|---------------------|
|-20--8------------------|---------------------|
|------------------------|---------------------|
|
|  W                        H.             Q
|------------------------|---------------------|
|------------------------|---------------------|
|--3---------------------|--3--------------3---|
|--3---------------------|--3--------------3---|
|--1---------------------|--1--------------1---|
|------------------------|---------------------|
|
|  Q.      E  Q     Q      +Q     Q    E Q   E
|--1---------------------|-------------1-1---1-|
|--3-------3--3-----3----|-(3)----3----3-3---3-|
|--3-------3--3-----3----|-(3)----3----3-3---3-|
|--3-------3--3-----3----|-(3)----3----3-3---3-|
|--1-------1--1-----1----|-(1)----1----1-1---1-|
|------------------------|---------------------|


  F/C
  E  E E Q.     E E    E  E   E    E    +H
|-8--6-5------------|--6--5---6S==17---(17)------|
|--------6------6-6-|----------------------------|
|-------------------|----------------------------|
|-------------------|----------------------------|
|-------------------|----------------------------|
|-------------------|----------------------------|
|
| W                   +W
|-------------------|----------------------------|
|-------------------|----------------------------|
|-------------------|----------------------------|
|-3-----------------|-(3)------------------------|
|-3-----------------|-(3)------------------------|
|-1-----------------|-(1)------------------------|
|
|                      |------3------|
| Q.     E  Q.    E    Q    Q   E    E   Q   Q
|-1-----------------|--1----1---1----1---1---1---|
|-1------1--1-----1-|--1----1---1----1---1---1---|
|-2------2--2-----2-|--2----2---2----2---2---2---|
|-3------3--3-----3-|--3----3---3----3---3---3---|
|-3------3--3-----3-|--3----3---3----3---3---3---|
|-------------------|----------------------------|


  Bb
   |--3---|  |--3--|        |--3--|  |--3--|
   S   S  S  S  S  S  S  S  S  S  S  S  S  S  S  S  S  S  S  S
|-18--17p15h17p15----------------------------------------------|
|-----------------18-17-15-------------------------------------|
|--------------------------17h19p17h19p17-15-------------------|
|--------------------------------------------19-17-19-17-15-14-|
|--------------------------------------------------------------|
|--------------------------------------------------------------|
|
|  W
|--------------------------------------------------------------|
|--------------------------------------------------------------|
|--3-----------------------------------------------------------|
|--3-----------------------------------------------------------|
|--1-----------------------------------------------------------|
|--------------------------------------------------------------|
|
|  Q.                       E        Q              Q
|--1-----------------------------------------------------------|
|--3------------------------3--------3--------------3----------|
|--3------------------------3--------3--------------3----------|
|--3------------------------3--------3--------------3----------|
|--1------------------------1--------1--------------1----------|
|--------------------------------------------------------------|


   S   S  S  S  S  S  S  S  H
|--------------------13-17-18b20-----|
|-----------------13-----------------|
|--------------14--------------------|
|-----------15-----------------------|
|--------15--------------------------|
|-13--17-----------------------------|
|
|  H.                             Q
|------------------------------------|
|------------------------------------|
|--3------------------------------3--|
|--3------------------------------3--|
|--1------------------------------1--|
|------------------------------------|
|
| +Q            Q           Q     Q
|---------------------------1-----1--|
|-(3)-----------3-----------3-----3--|
|-(3)-----------3-----------3-----3--|
|-(3)-----------3-----------3-----3--|
|-(1)-----------1-----------1-----1--|
|------------------------------------|


  C
   T               T        T        T     ~~
          |--3--|
   S   S  S  S  S  S  S  S  S  S  S  S  S  Q
|-22--20p17-----------------------------------|
|-----------18-20-22-18-----------------------|
|-----------------------17-22-17--------------|
|--------------------------------19-22-19-----|
|-----------------------------------------20--|
|---------------------------------------------|
|
|  W
|---------------------------------------------|
|---------------------------------------------|
|--5------------------------------------------|
|--5------------------------------------------|
|--3------------------------------------------|
|---------------------------------------------|
|
|  Q.                    E     Q           Q
|--3------------------------------------------|
|--5---------------------5-----5-----------5--|
|--5---------------------5-----5-----------5--|
|--5---------------------5-----5-----------5--|
|--3---------------------3-----3-----------3--|
|---------------------------------------------|


   T                  T                 T
   S   S  S  S  S  S  S  S  S  S  S  S  S  S  S  S
|-20--17p13h17p13-----------------------------------|
|-----------------13-18-13--------------------------|
|--------------------------14-17-14-----------------|
|-----------------------------------15-19-15p10h15--|
|---------------------------------------------------|
|---------------------------------------------------|
|
| +W
|---------------------------------------------------|
|---------------------------------------------------|
|-(5)-----------------------------------------------|
|-(5)-----------------------------------------------|
|-(3)-----------------------------------------------|
|---------------------------------------------------|
|
| +Q            Q           Q           Q
|---------------------------3-----------3-----------|
|-(5)-----------5-----------5-----------5-----------|
|-(5)-----------5-----------5-----------5-----------|
|-(5)-----------5-----------5-----------5-----------|
|-(3)-----------3-----------3-----------3-----------|
|---------------------------------------------------|


 Guitar Solo (Sam)
  Gm
   W                            E   E E  E E   Q         E
|-18b20----------------------|---------------(18)b20r==(17)-|
|-------13-13-13-13S11-11-11-|-----10---11----11b13r====10--|
|-------14-14-14-14S12-12-12-|-----10---12----12b14r====10--|
|----------------------------|------------------------------|
|----------------------------|------------------------------|
|----------------------------|------------------------------|
|  E     E  E  E  E  E  E  E
|
|  W                           +H.                   E   E
|----------------------------|------------------------------|
|----------------------------|------------------------------|
|----------------------------|------------------------------|
|--5-------------------------|-(5)--------------------------|
|--5-------------------------|-(5)-------------------x---x--|
|--3-------------------------|-(3)-------------------3---3--|
|
|  Q        Q     Q     E  E    Q     Q    Q         E   E
|----------------------------|------------------------------|
|--3--------3-----3----------|--3-----3----3----------------|
|--0--------0-----0-----0--0-|--0-----0----0---------0---0--|
|--0--------0-----0-----0--0-|--0-----0----0---------0---0--|
|--1--------1-----1-----1--1-|--1-----1----1---------1---1--|
|--3--------3-----3-----3--3-|--3-----3----3---------3---3--|


  Dm/A
   E     E  E  E E  E E  E    E   E  E  E  S  S  Q.
|-20----17-17-17--------13-|-----17---------------------|
|-20b22-18-18-18---17---15-|-----18-18-17-18s17s18------|
|------------------17------|--------19-17-19s17s19------|
|--------------------------|----------------------------|
|--------------------------|----------------------------|
|--------------------------|----------------------------|
|
|  W                         +W
|--------------------------|----------------------------|
|--------------------------|----------------------------|
|--7-----------------------|-(7)------------------------|
|--7-----------------------|-(7)------------------------|
|--5-----------------------|-(5)------------------------|
|--------------------------|----------------------------|
|
|  Q        E  E Q    Q       Q      E  E  E     E  E E
|--1-------------1----1----|--1------------1-----1------|
|--3--------3--3-3----3----|--3------3--3--3-----3--3-3-|
|--2--------2--2-2----2----|--2------2--2--2-----2--2-2-|
|--0--------0--0-0----0----|--0------0--0--0--------0-0-|
|--0--------0--0-0----0----|--0------0--0--0----------0-|
|--------------------------|----------------------------|


  C
                                                            ~~~
    Q        E    Q      E  E  E    E   +E      E  E  S  S  Q.
|--------------([12])------------|---------------------------------|
|-(17)pb18r======17--------------|---------------------------------|
|--17pb19r==17----------17----17-|-17--(17)b21-17-15-17-15-17------|
|-----------17--[17]----19-17-19-|-19--(19)b22-19-17-19-17-19------|
|--------------------------19----|---------------------------------|
|--------------------------------|---------------------------------|
|
|   W                               H.                         E E
|--------------------------------|---------------------------------|
|--------------------------------|---------------------------------|
|---5----------------------------|--5------------------------------|
|---5----------------------------|--5--------------------------x-x-|
|---3----------------------------|--3--------------------------3-3-|
|--------------------------------|---------------------------------|
|
|   Q        E    E   Q     Q       Q           E  E  Q        Q
|---0-----------------0-----0----|--0-----------------0--------0---|
|---1--------1----1---1-----1----|--1-----------1--1--1--------1---|
|---0--------0----0---0-----0----|--0-----------0--0--0--------0---|
|---2--------2----2---2-----2----|--2-----------2--2--2--------2---|
|---3--------3----3---3-----3----|--3-----------3--3--3--------3---|
|--------------------------------|---------------------------------|


  Dm/A
   E  E  E  Q    E  E  E    E   E  E   E       +H
|------------------------|-----------[18]b20==(18)r------|
|------------------------|-17-----17---------------------|
|-17-15-14---------14-17-|-17--17-17--17b19===(17)r------|
|-19-17-15-15---17-15-19-|-----19------------------------|
|----------17---19-------|-------------------------------|
|------------------------|-------------------------------|
|
|  W                       +W
|------------------------|-------------------------------|
|------------------------|-------------------------------|
|--7---------------------|-(7)---------------------------|
|--7---------------------|-(7)---------------------------|
|--5---------------------|-(5)---------------------------|
|------------------------|-------------------------------|
|
|  Q     E  E Q     Q      +Q      E   E        Q    E E
|--1----------1-----1----|-(1)------------------1----1---|
|--3-----3--3-3-----3----|-(3)-----3---3--------3----3-3-|
|--2-----2--2-2-----2----|-(2)-----2---2--------2----2-2-|
|--0-----0--0-0-----0----|-(0)-----0---0--------0----0-0-|
|--0-----0--0-0-----0----|-(0)-----0---0--------0--------|
|------------------------|-------------------------------|


  Gm
   |---3----|  |---3----|  |---3----|  |---3----|  |---3----|  |---3----|  |---3----|  |---3----|
   S  S     S  S  S     S  S  S     S  S  S     S  S  S     S  S  S     S  S  S     S  S  S     S
|-20-17----15-20-17----15-20-17----15--------------------------------------------------------------|
|-20----17----20----17----20----17----22-20----18-22-20----18-22-20----18--------------------------|
|-------------------------------------22----19----22----19----22----19----24-22----19-24-22----19--|
|-------------------------------------------------------------------------24----20----24----20-----|
|--------------------------------------------------------------------------------------------------|
|--------------------------------------------------------------------------------------------------|
|  S     S     S     S     S     S     S     S     S     S     S     S     S     S     S     S
|
|  W
|--------------------------------------------------------------------------------------------------|
|--------------------------------------------------------------------------------------------------|
|--------------------------------------------------------------------------------------------------|
|--5-----------------------------------------------------------------------------------------------|
|--5-----------------------------------------------------------------------------------------------|
|--3-----------------------------------------------------------------------------------------------|
|
|  Q                       E           E           Q                       E           E
|--3-----------------------------------------------3-----------------------------------------------|
|--3-----------------------3-----------3-----------3-----------------------3-----------3-----------|
|--0-----------------------0-----------0-----------0-----------------------0-----------0-----------|
|--0-----------------------0-----------0-----------0-----------------------0-----------0-----------|
|--1-----------------------1-----------1-----------1-----------------------1-----------1-----------|
|--3-----------------------3-----------3-----------3-----------------------3-----------3-----------|


   |----3----|  |---3----|  |---3----|  |---3----|  |---3----|  |---3----|  |---3----|  |---3----|
   S   S     S  S  S     S  S  S     S  S  S     S  S  S     S  S  S     S  S  S     S  S  S     S
|---------------------------------------------------------------------------------------------------|
|---------------------------------------------------------------------------------------------------|
|-22--19----17-22-19----17-22-19----17--------------------------------------------------------------|
|-22-----19----22----19----22----19----24-22----19-24-22----19-24-22----19-22-19----17-22-19----17--|
|--------------------------------------24----20----24----20----24----20----22----19----22----19-----|
|---------------------------------------------------------------------------------------------------|
|  S      S     S     S     S     S     S     S     S     S     S     S     S     S     S     S
|
|  H.                                                                       Q
|---------------------------------------------------------------------------------------------------|
|---------------------------------------------------------------------------------------------------|
|---------------------------------------------------------------------------------------------------|
|--5------------------------------------------------------------------------------------------------|
|--5------------------------------------------------------------------------5-----------------------|
|--3------------------------------------------------------------------------3-----------------------|
|
|  E            E           Q                       Q                       E           E
|---------------------------------------------------3-----------------------------------------------|
|--3------------3-----------3-----------------------3-----------------------3-----------3-----------|
|--0------------0-----------0-----------------------0-----------------------0-----------0-----------|
|--0------------0-----------0-----------------------0-----------------------0-----------0-----------|
|--1------------1-----------1-----------------------1-----------------------1-----------1-----------|
|--3------------3-----------3-----------------------3-----------------------3-----------3-----------|


  F
   E  E  E  Q    E  E  E    E   E  E  E      +H
|-17-15---------------17-|-18--17-18-18b20==(18)r----|
|-18-17-18-18------18-18-|-20--18-20-20b22==(20)r----|
|-------19-17---17-17----|---------------------------|
|---------------19-------|---------------------------|
|------------------------|---------------------------|
|------------------------|---------------------------|
|
|  W                       +W
|------------------------|---------------------------|
|------------------------|---------------------------|
|------------------------|---------------------------|
|--3---------------------|-(3)-----------------------|
|--3---------------------|-(3)-----------------------|
|--1---------------------|-(1)-----------------------|
|
|  Q     E  E Q     Q      +Q      E  E       H
|--1----------1-----1----|-(1)----------------1------|
|--1-----1--1-1-----1----|-(1)-----1--1-------1------|
|--2-----2--2-2-----2----|-(2)-----2--2-------2------|
|--3-----3--3-3-----3----|-(3)-----3--3-------3------|
|--3-----3--3-3-----3----|-(3)-----3--3-------3------|
|--1-----1--1-1-----1----|-(1)-----1--1-------1------|


  Bb
   S  S  S  S  S  S  S  S  S  S  S  S  S  S  S  S
|-------------------------------------------------|
|-------------------------------------------------|
|-------------------------15-------15-17----15-17-|
|-------15-17-19-15-17-19-17-17-19-17-19-19-17-19-|
|-17-19-17-19-20-17-19-20----19-20-------20-------|
|-18-20-------------------------------------------|
|
|  H                       E     E     Q
|-------------------------------------------------|
|-------------------------------------------------|
|--3-----------------------x-----------3----------|
|--3-----------------------3-----------3----------|
|--1-----------------------1-----------1----------|
|-------------------------------------------------|
|
|  Q           Q           Q           Q
|--1-----------------------1----------------------|
|--3-----------3-----------3-----------3----------|
|--3-----------3-----------3-----------3----------|
|--3-----------3-----------3-----------3----------|
|--1-----------1-----------1-----------1----------|
|-------------------------------------------------|


   S   S  S  S  S  S  S  S  S  S  S  S  S  S  S  S
|--------------------------15-------15-17----15-17-|
|--------15-17-18-15-17-18-17-17-18-17-18-18-17-18-|
|-19--15-15-17-19-15-17-19----17-19-------19-------|
|-20--17-------------------------------------------|
|--------------------------------------------------|
|--------------------------------------------------|
|
| +W
|--------------------------------------------------|
|--------------------------------------------------|
|-(3)----------------------------------------------|
|-(3)----------------------------------------------|
|-(1)----------------------------------------------|
|--------------------------------------------------|
|
|  Q            Q           Q           Q
|--1------------------------1----------------------|
|--3------------3-----------3-----------3----------|
|--3------------3-----------3-----------3----------|
|--3------------3-----------3-----------3----------|
|--1------------1-----------1-----------1----------|
|--------------------------------------------------|


  C5
   E     E      E      E  Q   Q     E     E      E      E  Q   Q
|-13b15-13pb15-13pb15-13-15\-----|-16b18-16pb18-16pb18-17-18\-----|
|-15b17-15pb17-15pb17-15-17\-----|-18b20-18pb20-18pb20-18-17\-----|
|--------------------------------|--------------------------------|
|--------------------------------|--------------------------------|
|--------------------------------|--------------------------------|
|--------------------------------|--------------------------------|
|
|  E     E      E      E  Q   Q     E     E      E      E  Q   Q
|--------------------------------|--------------------------------|
|--------------------------------|--------------------------------|
|--5-----5------5------5--5------|--5-----5------5------5--5------|
|--5-----5------5------5--5------|--5-----5------5------5--5------|
|--3-----3------3------3--3------|--3-----3------3------3--3------|
|--------------------------------|--------------------------------|
|
|  W                                W
|--------------------------------|--------------------------------|
|--------------------------------|--------------------------------|
|--------------------------------|--------------------------------|
|--------------------------------|--------------------------------|
|--------------------------------|--------------------------------|
|--------------------------------|--------------------------------|


                                              ~~
   S  S  S  S  E  E  E  +T  T  E  +T  T  E    W
|-18h20p18p17-----------------17-(17)---18-|-20----|
|-20h22p20p18-20-18-20-(20)---17-(17)---18-|-20----|
|-------------19-17-19-(19)----------------|-------|
|------------------------------------------|-------|
|------------------------------------------|-------|
|------------------------------------------|-------|
|
|  E     E     E  E  H                        W
|------------------------------------------|-------|
|------------------------------------------|-------|
|--5-----5-----5--5------------------------|--5----|
|--5-----5-----5--5------------------------|--5----|
|--3-----3-----3--3------------------------|--3----|
|------------------------------------------|-------|
|
|  W                                          W
|------------------------------------------|-------|
|------------------------------------------|-------|
|------------------------------------------|-------|
|------------------------------------------|-------|
|------------------------------------------|-------|
|------------------------------------------|-------|


 Pre-Chorus
  Bb           F           C           Dm
   ~~
   W           W           W           W
|-18---------|-----------|-----------|-----------|
|-18---------|-----------|-----------|-----------|
|------------|-----------|-----------|-----------|
|------------|-----------|-----------|-----------|
|------------|-----------|-----------|-----------|
|------------|-----------|-----------|-----------|
|
|  W           W           W           W
|------------|-----------|-----------|-----------|
|------------|-----------|-----------|-----------|
|--3---------|-----------|-5---------|-7---------|
|--3---------|-3---------|-5---------|-7---------|
|--1---------|-3---------|-3---------|-5---------|
|------------|-1---------|-----------|-----------|
|
|  H    H      H    H      H    H      H    H
|------------|-----------|-----------|-----------|
|--3----3----|-----------|-5----5----|-6----6----|
|--3----3----|-2----2----|-5----5----|-7----7----|
|--3----3----|-3----3----|-5----5----|-7----7----|
|--1----1----|-3----3----|-3----3----|-5----5----|
|------------|-1----1----|-----------|-----------|


  Bb          F           Dm         C
  Gtr II
  W           W           W          W
|-----------|-----------|----------|-----------|
|-----------|-----------|----------|-----------|
|-3---------|-----------|-7--------|-5---------|
|-3---------|-3---------|-7--------|-5---------|
|-1---------|-3---------|-5--------|-3---------|
|-----------|-1---------|----------|-----------|
|
| Gtr III
| H    H      H    H      W          H    H
|-----------|-----------|----------|-----------|
|-3----3----|-----------|-6--------|-5----5----|
|-3----3----|-2----2----|-7--------|-5----5----|
|-3----3----|-3----3----|-7--------|-5----5----|
|-1----1----|-3----3----|-5--------|-3----3----|
|-----------|-1----1----|----------|-----------|


 Chorus
  F/C                            C
  W               W              W               W
|--------------|---------------|--------------|--------------|
|--------------|---------------|--------------|--------------|
|--------------|---------------|--------------|--------------|
|--------------|---------------|--------------|--------------|
|--------------|---------------|--------------|--------------|
|--------------|---------------|--------------|--------------|
|
| Q.   E Q  Q    +Q.   E Q  Q    Q.   E Q  Q    +Q.   E H
|-1------1-----|---------1-----|-0------0-----|---------0----|
|-1----1-1--1--|-(1)---1-1--1--|-1----1-1--1--|-(1)---1-1----|
|-2----2-2--2--|-(2)---2-2--2--|-0----0-0--0--|-(0)---0-0----|
|-3----3-3--3--|-(3)---3-3--3--|-2----2-2--2--|-(2)---2-2----|
|-3----3-3--3--|-(3)---3-3--3--|-3----3-3--3--|-(3)---3-3----|
|--------------|---------------|--------------|--------------|


  Dm             Gm             Bb             C
  W              W              Q.   Q.   Q    Q.   Q.   Q
|--------------|--------------|--------------|--------------|
|--------------|--------------|--------------|--------------|
|--------------|--------------|-3----3----3--|-5----5----5--|
|--------------|--------------|-3----3----3--|-5----5----3--|
|--------------|--------------|-1----1----1--|-3----3----3--|
|--------------|--------------|--------------|--------------|
|
| Q.   E Q  Q    Q.   E Q  Q    Q.   Q.   Q    Q.   Q.   Q
|-1------1-----|--------------|-1----1----1--|-3----3----3--|
|-3----3-3--3--|-3------3-----|-3----3----3--|-5----5----5--|
|-2----2-2--2--|-3----3-3--3--|-3----3----3--|-5----5----5--|
|-0----0-0--0--|-5----5-5--5--|-3----3----3--|-5----5----5--|
|--------------|-5----5-5--5--|-1----1----1--|-3----3----3--|
|--------------|-3----3-3--3--|--------------|--------------|


 Out-Chorus
  G/B                             D/A
  H     E E Q    +H.        E E   H     E E Q    +W
|--------------|----------------|--------------|---------------|
|--------------|----------------|--------------|---------------|
|--------------|----------------|-7---------7--|-(7)-----------|
|-5-----x---5--|-(5)------------|-7-----7---7--|-(7)-----------|
|-5-----5---5--|-(5)--------5-5-|-5-----5---5--|-(5)-----------|
|-3-----3---3--|-(3)--------3-3-|--------------|---------------|
|
| Q  Q  Q   Q     Q   Q  Q  Q     Q  Q  Q   Q     Q   Q  Q  Q
|-3-----3------|--3------3------|-2-----2------|--2------2-----|
|-0--0--0---0--|--0---0--0--0---|-3--3--3---3--|--3---3--3--3--|
|-0--0--0---0--|--0---0--0--0---|-2--2--2---2--|--2---2--2--2--|
|-0--0--0---0--|--0---0--0--0---|-0--0--0---0--|--0---0--0--0--|
|-2--2--2---2--|--2---2--2--2---|-0--0--0---0--|--0---0--0--0--|
|--------------|----------------|--------------|---------------|


  Em/B          Am            C             D/A
  W             W             W             W
|-------------|-------------|-------------|-------------|
|-------------|-------------|-------------|-------------|
|-9-----------|-------------|-5-----------|-7-----------|
|-9-----------|-7-----------|-5-----------|-7-----------|
|-7-----------|-7-----------|-3-----------|-5-----------|
|-------------|-5-----------|-------------|-------------|
|
| Q  Q  Q  Q    Q  Q  Q  Q    Q  Q  Q  Q    Q  Q  Q  Q
|-0-----0-----|-0-----0-----|-0-----0-----|-2-----2-----|
|-0--0--0--0--|-1--1--1--1--|-1--1--1--1--|-3--3--3--3--|
|-0--0--0--0--|-2--2--2--2--|-0--0--0--0--|-2--2--2--2--|
|-2--2--2--2--|-2--2--2--2--|-2--2--2--2--|-0--0--0--0--|
|-2--2--2--2--|-0--0--0--0--|-3--3--3--3--|-0--0--0--0--|
|-------------|-------------|-------------|-------------|


  G/B                             D/A
  H     E E Q    +H.        E E   H     E E Q    +W
|--------------|----------------|--------------|---------------|
|--------------|----------------|--------------|---------------|
|--------------|----------------|-7---------7--|-(7)-----------|
|-5-----x---5--|-(5)------------|-7-----7---7--|-(7)-----------|
|-5-----5---5--|-(5)--------5-5-|-5-----5---5--|-(5)-----------|
|-3-----3---3--|-(3)--------3-3-|--------------|---------------|
|
| Q  Q  Q   Q     Q   Q  Q  Q     Q  Q  Q   Q     Q   Q  Q  Q
|-3-----3------|--3------3------|-2-----2------|--2------2-----|
|-0--0--0---0--|--0---0--0--0---|-3--3--3---3--|--3---3--3--3--|
|-0--0--0---0--|--0---0--0--0---|-2--2--2---2--|--2---2--2--2--|
|-0--0--0---0--|--0---0--0--0---|-0--0--0---0--|--0---0--0--0--|
|-2--2--2---2--|--2---2--2--2---|-0--0--0---0--|--0---0--0--0--|
|--------------|----------------|--------------|---------------|


  Em/B          Am            C             D/A
  W             W             W             W
|-------------|-------------|-------------|-------------|
|-------------|-------------|-------------|-------------|
|-9-----------|-------------|-5-----------|-7-----------|
|-9-----------|-7-----------|-5-----------|-7-----------|
|-7-----------|-7-----------|-3-----------|-5-----------|
|-------------|-5-----------|-------------|-------------|
|
| Q  Q  Q  Q    Q  Q  Q  Q    Q  Q  Q  Q    Q  Q  Q  Q
|-0-----0-----|-0-----0-----|-0-----0-----|-2-----2-----|
|-0--0--0--0--|-1--1--1--1--|-1--1--1--1--|-3--3--3--3--|
|-0--0--0--0--|-2--2--2--2--|-0--0--0--0--|-2--2--2--2--|
|-2--2--2--2--|-2--2--2--2--|-2--2--2--2--|-0--0--0--0--|
|-2--2--2--2--|-0--0--0--0--|-3--3--3--3--|-0--0--0--0--|
|-------------|-------------|-------------|-------------|


  G/B           D/A           Em/B          Am/C
  W             W             W             W
|-------------|-------------|-------------|------------|
|-------------|-------------|-------------|------------|
|-------------|-7-----------|-9-----------|------------|
|-5-----------|-7-----------|-9-----------|-7----------|
|-5-----------|-5-----------|-7-----------|-7----------|
|-3-----------|-------------|-------------|-5----------|
|
| Q  Q  Q  Q    Q  Q  Q  Q    Q  Q  Q  Q    Q  Q  H
|-3-----3-----|-2-----2-----|-0-----0-----|-0-----0----|
|-3--3--3--3--|-3--3--3--3--|-0--0--0--0--|-1--1--1----|
|-0--0--0--0--|-2--2--2--2--|-0--0--0--0--|-2--2--2----|
|-0--0--0--0--|-0--0--0--0--|-2--2--2--2--|-2--2--2----|
|-2--2--2--2--|-0--0--0--0--|-2--2--2--2--|-3--3--3----|
|-------------|-------------|-------------|------------|


  C             G/B           C             D/A
  W             W             W             W
|-------------|-------------|-------------|-------------|
|-------------|-------------|-------------|-------------|
|-5-----------|-------------|-5-----------|-7-----------|
|-5-----------|-5-----------|-5-----------|-7-----------|
|-3-----------|-5-----------|-3-----------|-5-----------|
|-------------|-3-----------|-------------|-------------|
|
| Q  Q  Q  Q    Q  Q  Q  Q    Q  Q  Q  Q    Q  Q  Q  Q
|-0-----0-----|-3-----3-----|-0-----0-----|-2-----2-----|
|-1--1--1--1--|-3--3--3--3--|-1--1--1--1--|-3--3--3--3--|
|-0--0--0--0--|-0--0--0--0--|-0--0--0--0--|-2--2--2--2--|
|-2--2--2--2--|-0--0--0--0--|-2--2--2--2--|-0--0--0--0--|
|-3--3--3--3--|-2--2--2--2--|-3--3--3--3--|-0--0--0--0--|
|-------------|-------------|-------------|-------------|


  C
  W             +W
|-------------|---------------|
|-------------|---------------|
|-5-----------|-(5)-----------|
|-5-----------|-(5)-----------|
|-3-----------|-(3)-----------|
|-------------|---------------|
|
| Q  Q  Q  Q     Q   Q  Q  Q
|-0-----0-----|--0------0-----|
|-1--1--1--1--|--1---1--1--1--|
|-0--0--0--0--|--0---0--0--0--|
|-2--2--2--2--|--2---2--2--2--|
|-3--3--3--3--|--3---3--3--3--|
|-------------|---------------|


 Outro
  C          D/A        G
  W          W          W          +W
|----------|----------|----------|--------|
|----------|----------|----------|--------|
|-5--------|-7--------|----------|--------|
|-5--------|-7--------|-5--------|-(5)----|
|-3--------|-5--------|-5--------|-(5)----|
|----------|----------|-3--------|-(3)----|
|
| W          W          W           W
|-0--------|-2--------|-3--------|--3-----|
|-1--------|-3--------|-0--------|--0-----|
|-0--------|-2--------|-0--------|--0-----|
|-2--------|-0--------|-0--------|--0-----|
|-3--------|-0--------|-2--------|--2-----|
|----------|----------|-3--------|--3-----|


  Gtr II
  +W           +W           +W           +W           W
|------------|------------|------------|------------|------*|
|------------|------------|------------|------------|------*|
|------------|------------|------------|------------|------*|
|-(5)--------|-(5)--------|-(5)--------|-(5)--------|------*|
|-(5)--------|-(5)--------|-(5)--------|-(5)--------|------*|
|-(3)--------|-(3)--------|-(3)--------|-(3)--------|------*|


Duration Legend
---------------
W - whole; H - half; Q - quarter; E - 8th; S - 16th; T - 32nd; X - 64th; a - acciaccatura
+ - note tied to previous; . - note dotted; .. - note double dotted
Uncapitalized letters represent notes that are staccato (1/2 duration)
Irregular groupings are notated above the duration line
Duration letters will always appear directly above the note/fret number it represents the
duration for.  Duration letters with no fret number below them represent rests.  Multi-
bar rests are notated in the form Wxn, where n is the number of bars to rest for.  Low
melody durations appear below the staff

Tablature Legend
----------------
 h   - hammer-on
 p   - pull-off
 b   - bend
 pb  - pre-bend
 r   - bend release (if no number after the r, then release immediately)
 /\  - slide into or out of (from/to "nowhere")
 s   - legato slide
 S   - shift slide
<n>  - natural harmonic
[n]  - artificial harmonic
n(n) - tapped harmonic
 ~   - vibrato
 tr  - trill
 T   - tap
 TP  - trem. picking
 PM  - palm muting
\n/  - tremolo bar dip; n = amount to dip
 \n  - tremolo bar down
 n/  - tremolo bar up
/n\  - tremolo bar inverted dip
 =   - hold bend; also acts as connecting device for hammers/pulls
 <>  - volume swell (louder/softer)
 x   - on rhythm slash represents muted slash
 o   - on rhythm slash represents single note slash

Misc Legend
-----------
 |  - bar
||  - double bar
||o - repeat start
o|| - repeat end
*|  - double bar (ending)
 :  - bar (freetime)
 $  - Segno
 &  - Coda
Tempo markers - <E/E./Q/Q./H/H.> = BPM(8/16=s8/s16), where s8 = swing 8ths, s16 = swing 16ths


***************************************************************************************
* Generated using Power Tab Editor by Brad Larsen - http://powertab.guitarnetwork.org *
***************************************************************************************
comments
print report bad tab
2 comments total.
+1 reply
marianoarnaiz wrote on May 21 2007, 08:47 am

Great tab dude

+1 reply
Ratt n' Roll wrote on July 30 2007, 02:13 pm

Awesome tab, I seems to be totally correct except I ave a question about the first solo(Hermans). It seems correct but I don't think the last part of it is tapping. And Sams solo, totaly confusing man, makes no sense. It is impossible to play unless there are two guitars. can you shed some details on that solo please.

I want to post or [tab]
guest
You may want to rate the tab now too:
select rating
Please do not post tabs as comments. Select "correction" instead!