Oops, an error
Loading. Please wait.

Evening Star Bass Tab

790 views 3 this week
no commentswrite comment
1 2 3 4 5
excellent!
x 1
Autoscroll
+/-
esc
set tempo
stop
Contributor
WARNING: You are trying to view
                                    content from Ultimate-Guitar.com
                                    in an unauthorized application,
                                    which is prohibited.

                                    Please use an official Ultimate
                                    Guitar Tabs application for iPhone,
                                    iPad or Android to access legitimate
                                    chords, guitar, bass, and drum tabs
                                    from Ultimate-Guitar.com database.

                                    Type "ultimate guitar tabs" in Apple
                                    App Store's or Android Market's
                                    search to find the application.
#----------------------------------PLEASE NOTE---------------------------------#
#This file is the author's own work and represents their interpretation of the #
#song. You may only use this file for private study, scholarship, or research. #
#------------------------------------------------------------------------------#

EVENING STAR (Bassline)
As recorded by Dragonforce
(From the 2002 Album VALLEY OF THE DAMNED)

Transcribed by an unregistered user


 Words by Herman Li and ZP Theart Music by Herman Li 

 

Gtr I (E A D G) - 'Bass'


  Q=93                  Q=70
 4/4
  Gtr I
  W          W          W          W
|----------|----------|----------|------|
|----------|----------|----------|------|
|----------|----------|----------|------|
|----------|----------|----------|------|


  Q=75
  W          W          W          W
|----------|----------|----------|------|
|----------|----------|----------|------|
|----------|----------|----------|------|
|----------|----------|----------|------|


  W          W          W
|----------|----------|------|
|----------|----------|------|
|----------|----------|------|
|----------|----------|------|


  Q=99
  S S S S S S S S S S S S S S S S   S S S S S S S S S S S S S S E
|---------------------------------|-------------------------------|
|-0-0-0-0-0-3---------------------|-----------2-------------------|
|-------------5-3-1-1-1-1-1-1-1-1-|-3-3-3-3-3---3-1-0-0-0-0-0-0-0-|
|---------------------------------|-------------------------------|


  S S S S S S E S S S S S S S S   S S S S S S S S S S S S S S S S
|-------------------------------|-----------------3-5-5-5-5-5-5---|
|---------------0-0-0-0-0-0-0-0-|-------------------------8---8-5-|
|-1-1-1-1-1-1-1-----------------|-3-3-3-3-3-3-3-3-----------------|
|-------------------------------|---------------------------------|


  S S S S S S S S S S S S S S S S   S S S S S S S S S S S S S S S S
|---------------------------------|---------------------------------|
|-----------3-3-0-----------------|-----------2-2-------------------|
|-3-5-5-5-5-5-5-3-3-1-1-1-1-1-1-1-|-3-3-3-3-3-3-3-3-1-0-0-0-0-0-0-0-|
|-----------------6---------------|-6-------------6-5---------------|


                                                    Q=91
  S S S S S S S S S S S S S S S S   Q  E E E E Q    W
|---------------------------------|---------------|------|
|-----------------0-0-0-0-0-0-0-0-|-3--2---0------|------|
|-1-1-1-1-1-1-1-1-----------------|------0--------|------|
|-5-------------------------------|---------------|------|


  W          S S S S S S S S S S S S S S S S
|----------|-----------------7-9-9-9-9-9-9-9-|
|----------|---------------------------------|
|----------|---------------------------------|
|----------|-0-0-0-0-0-0-0-0-----------------|


  S S S S S S S S S S S S S S S S   S S S S S S S S S S S S S S S S
|---------------------------------|---------------------------------|
|---------------------------------|---------------------------------|
|-----------------0-0-0-2-0-------|-----------------0-2-2-0-2-2-2-2-|
|-3-3-3-2-2-2-3-3-----------3-2-0-|-0-0-0-0-0-0-0-0-----------------|


  S S S S S S S S S S S S S S S S   S S S S S S S S S S S S S S S S
|---------------------------------|-----------------7-9-9-7-9-9-9-9-|
|---------------------------------|---------------------------------|
|-----------------0-0-0-2-0-------|---------------------------------|
|-3-3-3-2-2-2-3-3-----------3-2-0-|-0-0-0-0-0-0-0-0-----------------|


  S S S S S S S S S S S S S S S S   S S S S S S S S S S S S S S S S
|---------------------------------|---------------------------------|
|---------------------------------|---------------------------------|
|-----------------0-0-0-2-0-------|-3-3-3-3-3-3-3-3-5-5-5-5-5-5-5-5-|
|-3-3-3-2-2-2-3-3-----------3-2-0-|---------------------------------|


  S S S S +S  S S S S S S S +S  S S S   S S S S S S S S S S S S S S S S
|-------5-(5)-4-2-4-------5-(5)-4-2---|---------------------------------|
|-------------------2-2-2-----------4-|---------------------------4-----|
|-7-7-7-------------------------------|-3-3-3-3-3-3-3-3-5-5-5-5-5---5-3-|
|-------------------------------------|---------------------------------|


  S S S S S S S S S S S S S S S S   S S S S S S S S S S S S S S S S
|---------------------------------|---------------------------------|
|-----------4---4-----------------|-2-2-2-2-2-2-2-2-2-2-2-2-2-2-2---|
|-2-2-2-2-2---2---3-2---0---------|-----------------5-----------5---|
|-------------------------3-2---0-|---------------------------------|


  S S S S S S S S S S S S S S S S   S S S S S S S S S S S S S S S S
|---------------------------------|---------------------------------|
|-2-2-2-2-2-2-2-2-2-2-2-2-2-2-2---|-2-2-2-2-2-2-2-2-2-2-2-2-2-2-2---|
|-----------------5-----------5---|-----------------5-----------5---|
|---------------------------------|---------------------------------|


  S S S S S S E S S S S S S E   S S S S S S S S  S S S S S S  S S
|-------------5-------------7-|------------------------------------|
|-----------5-------------7---|------------------------------------|
|-3-3-3-3-3-----5-5-5-5-5-----|-7-7-7-7-7-7-7-7--7-7-7-7-7-7--7----|
|-----------------------------|-----------------10-----------10----|


  S S S S S S S S  S S S S S S  S S   S S S S S S S S  S S S S S S S S
|-----------------------------------|----------------------------------|
|-----------------------------------|----------------------------5-----|
|-7-7-7-7-7-7-7-7--7-7-7-7-7-7--7---|-7-7-7-7-7-7-7-7--7-7-7-7-7---7-5-|
|-----------------10-----------10---|-----------------10---------------|


  S S S S S S E S S S S S S S S   S S S S S S S S S S S S S S S S
|-------------5-----------------|---------------------------------|
|-----------5-----------7-------|---------------------------------|
|-3-3-3-3-3-----5-5-5-5---7-5---|---------------------------------|
|-----------------------------5-|-5-5-5-5-5-5-5-5-5-5-5-5-5-7-8-5-|


  S S S S S S S S S S S S S S S S   S S S S S S S S S S S S S S S S
|---------5-4-2-4-------7-9-9-9-9-|---------------------------------|
|-----------------2-2-2-----------|---------------------------------|
|-7-7-7-7-------------------------|-0-0-0-0-0-0-0-0-0-0-0-0-0-0-0-0-|
|---------------------------------|---------------------------------|


  S S S S S  S S S S S S S S S S S   S S S S S S S S S S S S S S S S
|----------------------------------|---------------------------------|
|----------------------------------|---------------------------------|
|----------------------------------|-7-7-7-7-7-7-7-7-5-5-5-5-5-5-5-5-|
|-8-8-8-8-8-10-8-8-7-7-7-7-7-7-7-7-|---------------------------------|


  S S S S S S S S S S S S S S S S   S S S S S S S S S S S S S S S S
|-------------------------0-------|-----------0---------------------|
|-----------------5-5-5-5-4-4-4-4-|-4-2-2-2-2---4-2-0-0-0-0-0-4-2-0-|
|-3-3-3-3-3-3-3-3-----------------|-7-------------------------------|
|---------------------------------|---------------------------------|


                                                           Q=95
  S S S S S S S S S S S S S S S S   S S S S S S S S H      E E Q  H
|---------------------------------|----------------------|-------------|
|---------------------------4-----|-----------4----------|-2-----------|
|-3-3-3-3-3-3-3-3-3-3-3-3-3---5-3-|-2-2-2-2-2-2-2-2-2----|-------------|
|---------------------------------|----------------------|-0-----------|


  E E Q  H      S S S S S S S S S S S S S S S S
|--------0----|---------------------------------|
|-2-----------|---------------------------------|
|-------------|-0---------------------------2-2-|
|-0-----------|-3-3-3-3-3-3-3-3-3-3-3-3-3-3-3---|


  S S S S S S S S S S S S S S S S   S S S S S S S S S S S S S S S S
|---------------------------------|---------------------------------|
|-0-0-0---------------------------|---------------------------------|
|-------3-5-5-5-5-3-5-5-5-5-5-3-5-|-7-7-7-7-7-7-7-7-5-5-5-5-5-5-5-5-|
|---------------------------------|---------------------------------|


  S S S S S S S S S S S S S S S S   S S S S S S S S S S S S S S S S
|---------------------------------|---------------------------------|
|---------------5-----------------|---------------------------------|
|-3-3-3-3-3-5-7-------------------|-3-3-3-3-3-3-3-3-5-5-5-5-5-5-5-5-|
|-----------------3-3-3-3-3-3-3-3-|---------------------------------|


  S S S S S S S S S S S S S S S S   S S S S S S S S S S S S S S S S
|---------------------------------|---------------------------------|
|---------------------------------|---------------------------------|
|---------------------------------|-----------------5-5-5-5-5-5-5-5-|
|-3-3-3-3-3-3-3-3-3-3-3-3-3-3-3-3-|-3-3-3-3-3-3-3-3-----------------|


  S S S S S S S S S S S S S S S S   S S S S S S S S S S S S S S S S
|---------------------------------|---------------------------------|
|---------------5-----------------|---------------------------------|
|-3-3-3-3-3-3-5-------------------|-3-3-3-3-3-3-3-3-5-5-5-5-5-5-5-5-|
|-----------------3-3-3-3-3-3-3-3-|---------------------------------|


  S S S S +S  S E S S S S +Q     S S S S S S S S S S S S S S S S
|------------------------------|-----------0---------------------|
|------------------------------|-2-2-2-2-2---2-0-----------------|
|------------------------------|-----------------3-3-3-3-3-3-3-3-|
|-3-3-3-3-(3)-3-3-3-3-3-3-(3)--|---------------------------------|


  S S S S S S S S S S S S S S S S   S S S S S S S S S S S S S S S S
|---------------------------------|---------------------------------|
|-----------4---------------------|-----------------2-2-2-2-2-2-2-2-|
|-5-5-5-5-5---5-3-2-2-2-2-2-2-2-2-|-3-3-3-3-3-3-3-3-----------------|
|---------------------------------|---------------------------------|


  S S S S S S S S S S S  S S S  S S   S S S S S S S  S S S S S S S S S
|-----------------5-7-7--7-7-7--7-5-|----------------------------------|
|-0-0-0-0-0-0-0-0-------10-----10---|-----------5-5--------------------|
|-----------------------------------|-7-7-7-7-7-7-7--7-5-3-3-3-3-3-3-3-|
|-----------------------------------|---------------10-8---------------|


  S S S S S S S S S S S S S S S S   S S S S S S S S S S S S S S S S
|---------------------------------|---------------------------------|
|-0---------4-4-0-----------------|-----------------2-2-2-2-2-2-2-2-|
|-3-5-5-5-5-5-5-3-3-2-2-2-2-2-2-2-|-3-3-3-3-3-3-3-3-3---------------|
|-----------------7---------------|-7-------------------------------|


                            Q=91
  S S S S E E  Q   E S  S    S  S  S  S  S  S  S  S  S  S  S  S  S  S  S  S
|---------2-7-12----------|-------------------------------------------------|
|-2---0-0---------12------|-------------------------------------------------|
|-5---------------10------|-------------------------------------------------|
|----------------------10-|-12-12-12-12-12-12-12-12-12-12-12-12-12-12-12-12-|


   S  S  S  S  S  S  S  S  S  S  S  S  S  S S S
|-----------------------------------------------|
|-------------------------------------------2---|
|-------------------------------------------5---|
|-12-12-12-12-12-12-12-12-12-12-12-12-12-12-----|


  S S S S S S S S S S S S S S S S
|---------------------------------|
|-2-2-2-2-2-2-2-2-2-2-2-2-2-2-2-2-|
|-----------------5---------------|
|---------------------------------|


  S S S S S S E S S S S S S S S   S S S S S S S S  S S S S S S  S S
|-------------5-------------4---|-----------------------------------|
|-----------5-------------------|-----------------------------------|
|-3-3-3-3-3-----5-5-5-5-5-5---5-|-7-7-7-7-7-7-7-7--7-7-7-7-7-7--7---|
|-------------------------------|-----------------10-----------10---|


  S S S S S S S S  S S S S S S  S S   S S S S S S S S  S S S S S S S S
|-----------------------------------|----------------------------------|
|-----------------------------------|----------------------------5-----|
|-7-7-7-7-7-7-7-7--7-7-7-7-7-7--7---|-7-7-7-7-7-7-7-7--7-7-7-7-7---7-5-|
|-----------------10-----------10---|-----------------10---------------|


                                  Q=93
  S S S S S S E S S S S S S S S   S S S S S S S S S S S S S S S S
|-------------5-----------------|---------------------------------|
|-----------5-------------------|---------------------------------|
|-3-3-3-3-3-----5-5-5-5-5-7-5---|---------------------------------|
|-----------------------------5-|-5-5-5-5-5-5-5-5-5-5-5-5-5-7-8-5-|


  S S S S S S S S S S S S S S  S  S   S S S S S S S S S S S S S S S S
|-----------------------7-9-9-12----|---------------------------------|
|---------7-7-7-7----------------14-|---------------------------------|
|-7-7-7-7---------7-7-7-------------|-0-0-0-0-0-0-0-0-0-0-0-0-0-0-0-0-|
|-----------------------------------|---------------------------------|


  S S S S S S S S S S S S S S S S   S S S S S S S S S S S S S S S S
|---------------------------------|---------------------------------|
|---------------------------------|-2-2-2-2-2-2-2-2-0-0-0-0-0-0-0-0-|
|-3-3-3-3-3-5-3-3-2-2-2-2-2-2-2-2-|---------------------------------|
|---------------------------------|---------------------------------|


  S S S S S S S S S S S S S S S S   S S S S S S S S S S S S S S S S
|-----------------4-4-4-4-4-2-4-4-|-2---------0---------------------|
|-------------------------7---7-7-|-2-2-2-2-2---4-2-0-0-0-0-0-4-2-0-|
|-3-3-3-3-3-3-3-3-----------------|---------------------------------|
|---------------------------------|---------------------------------|


  S S S S S S S S S S S S S S S S   S S S S S S S S H      E E Q  H
|---------------------------------|----------------------|-------------|
|---------------------------4-----|-----------4----------|-2-----------|
|-3-3-3-3-3-3-3-3-3-3-3-3-3---5-3-|-2-2-2-2-2-2-2-2-2----|-------------|
|---------------------------------|----------------------|-0-----------|


  E E Q  H      S S S S S S S S S S S S S S S S
|-------------|---------------------------------|
|-2-----------|---------------------------------|
|-------------|-----------------------------2-2-|
|-0-----------|-3-3-3-3-3-3-3-3-3-3-3-3-3-3-3---|


  S S S S S S S S S S S S S S S S   S S S S S S S S S S S S S S S S
|---------------------------------|---------------------------------|
|-0-0-0---------------------------|---------------------------------|
|-------3-5-5-5-5-3-5-5-5-5-5-3-5-|-7-7-7-7-7-7-7-7-5-5-5-5-5-5-5-5-|
|---------------------------------|---------------------------------|


  S S S S S S S S S S S S S S S S   S S S S S S S S S S S S S S S S
|---------------------------------|---------------------------------|
|---------------5-----------------|---------------------------------|
|-3-3-3-3-3-5-7-------------------|-3-3-3-3-3-3-3-3-5-5-5-5-5-5-5-5-|
|-----------------3-3-3-3-3-3-3-3-|---------------------------------|


  S S S S S S S S S S S S S S S S   S S S S S S S S S S S S S S S S
|---------------------------------|---------------------------------|
|---------------------------------|---------------------------------|
|---------------------------------|-----------------5-5-5-5-5-5-5-5-|
|-3-3-3-3-3-3-3-3-3-3-3-3-3-3-3-3-|-3-3-3-3-3-3-3-3-----------------|


  S S S S S S S S S S S S S S S S   S S S S S S S S S S S S S S S S
|---------------------------------|---------------------------------|
|---------------5-5-5-5-5-5-5-5-5-|---------------------------------|
|-3-3-3-3-3-3-5-------------------|-3-3-3-3-3-3-3-3-5-5-5-5-5-5-5-5-|
|---------------------------------|---------------------------------|


  S S S S S S S S S S S S S S S S   S S S S S S S S S S S S S S S S
|---------------------------------|-----------------7-9-9-7-9-9-9-9-|
|---------------------------------|-2-2-2-2-2-2-2-2-----------------|
|---------------------------------|---------------------------------|
|-3-3-3-3-3-3-3-3-3-3-3-3-3-3-3-3-|---------------------------------|


  Q  Q  Q  Q    S S S S S S S S S S S S S S S S   E E Q  H
|-------------|-----------------7-9-9-7-9-9-9-9-|-9-----------|
|-------------|-2-2-2-2-2-2-2-2-----------------|-------------|
|-------2--0--|---------------------------------|-------------|
|-3--0--------|---------------------------------|-------------|


  S S S S S S S S S S S S S S S S
|---------------------------------|
|---------------------------------|
|-7-7-7-7-7-7-7-7-----------------|
|-----------------8-8-8-8-8-8-8-8-|


   S  S  S  S  S  S  S  S  S  S  S  S  S  S  S  S
|-------------------------------------------------|
|-------------------------------------------------|
|-------------------------------------------------|
|-10-10-10-10-10-10-10-10-12-12-12-12-12-12-12-12-|


  S S S S S S S S  S  S  S  S  S  S  S  S
|-----------------------------------------|
|-----------------------------------------|
|-----------------------------------------|
|-8-8-8-8-8-8-8-8-10-10-10-10-10-10-10-10-|


   S  S  S  S  S  S  S  S  S  S  S  S  S  S  S  S
|-------------------------------------------------|
|-------------------------12-14-14-14-12-14-14----|
|----------------14-------------------------14----|
|-12-12-12-12-12----12-12----------------------15-|


   S  S  S  S  S  S  S  S S S S S S S S S
|-----------------------------------------|
|-----------------------------------------|
|-----------------------------------------|
|-12-12-12-12-12-12-12-12-8-8-8-8-8-8-8-8-|


   S  S  S  S  S  S  S  S  S  S  S  S  S  S  S  S
|-------------------------------------------------|
|-------------------------------------------------|
|-------------------------------------------------|
|-10-10-10-10-10-10-10-10-12-12-12-12-12-12-12-12-|


  S S S S S S S S S S S S  S  S  S S   S S S S S S S S S S S S S S S S
|------------------------------------|---------------------------------|
|------------------------------------|-----------------9-9-9-9-9-9-----|
|-------------------------10---------|-----------9---9-------------9---|
|-8-8-8-8-8-8-8-8-8-8-8-8----12-10-8-|-7-7-7-7-7---7-----------------7-|


  S S S S S S S S S S S S S S S S   S S S S S S S S S S S S S S S S
|---------------------------------|---------------------------------|
|---------------------------------|---------------------------------|
|---------------------------5-7---|-7-7-7-7-7-7-7-7-7-7-7-7-7-7-7-7-|
|-5-5-5-5-5-5-5-5-5-5-5-5-5-----7-|---------------------------------|


  S S S S S S S S S S S S S S S S   S S S S S S S S S S S S S S S S
|---------------------------------|---------------------------------|
|---------------------------------|---------------------------------|
|---------------------------------|-3-3-3-3-3-3-5-3-2-2-2-2-2-2-3-2-|
|-5-5-5-5-5-5-5-5-5-5-5-5-5-5-5-5-|---------------------------------|


  E E Q  E E Q    E E Q  Q  Q    E E Q  E E Q    E E Q  Q  Q
|---------------|--------------|---------------|--------------|
|-2------0------|--------------|-2------0------|--------------|
|---------------|-3------------|---------------|-3------------|
|-0------0------|-0------3--2--|-0------0------|-0------3--2--|


  S S S S S S S S S S S S S S S S   S S S S S S S S S S S S S S S S
|---------------------------------|-----------------4-4-4-4-4-2-4-4-|
|-2-2-2-2-2-2-2-2-0-0-0-0-0-0-0-0-|-------------------------7---7-7-|
|---------------------------------|-3-3-3-3-3-3-3-3-----------------|
|---------------------------------|---------------------------------|


  S S S S S S S S S S S S S S S S   S S S S S S S S S S S S S S S S
|-2-------------------------------|-----------------4-5-5-5-5-5-5---|
|-2-2-2-2-2-2-2-2-0-0-0-0-0-0-0-0-|-----------------------9-----9-7-|
|---------------------------------|-2-3-3-3-3-3-3-3-----------------|
|---------------------------------|-------7-------------------------|


  S S S S  S S S S  S S S S S S  S  S
|-------------------------------------|
|-7-9-9-9--9-9-9-9--9-9-9-9-9-9--9----|
|---------12-------12-----------12-10-|
|-------------------------------------|


   S  S  S  S  S  S  S  S  S  S  S  S  S  S  S  S
|-------------------------------------------------|
|-------------------------------------------------|
|-------------------------------------------------|
|-12-12-12-12-12-12-12-12-10-10-10-10-10-10-10-10-|


   S  S  S  S  S  S  S  S  S  S  S  S  S  S  S  S
|-------------------------------------------------|
|-------------------------------------------------|
|-------------------------------------------------|
|-12-12-12-12-12-12-12-12-10-10-10-10-10-10-10-10-|


  S S S S S S S S S S S S S S S S
|---------------------------------|
|---------------------------------|
|-----------------------------2---|
|-3-3-3-3-3-3-3-3-3-3-3-3-3-3---3-|


  S S S S S S S S S S S S S S S S   S S S S S S S S S S S S S S S S
|---------------------------------|---------------------------------|
|---------------------------------|---------------------------3-2-0-|
|-0-5-5-5-5-5-5-5-3-5-5-5-5-5-5-5-|-7-7-7-7-7-7-7-7-5-5-5-5-5-------|
|---------------------------------|---------------------------------|


  S S S S S S S S S S S S S S S S   S S S S S S S S S S S S S S S S
|---------------------------------|---------------------------------|
|---------------4-----------------|---------------------------------|
|-3-3-3-3-3-3-5-------------------|-3-3-3-3-3-3-3-3-5-5-5-5-5-5-3-5-|
|-----------------3-3-3-3-3-3-3-3-|---------------------------------|


  S S S S S S S S S S S S S S S S   S S S S S S S S S S S S S S S S
|---------------------------------|---------------------------------|
|-5-------------------------------|---------------------------------|
|---------------------------------|-------------------5-5-5-5-5-5-5-|
|---3-3-3-3-3-3-3-3-3-3-3-3-3-3-3-|-3-3-3-3-3-3-3-3-3---------------|


  S S S S S S S S S S S S S S S S   S S S S S S S S S S S S S S S S
|---------------------------------|---------------------------------|
|---------------4-5---------------|-------------------------------4-|
|-3-3-3-3-3-3-3-------------------|-3-3-3-3-3-3-3-3-5-5-5-5-3-5-5---|
|-------------------3-3-3-3-3-3-3-|---------------------------------|


  S S S S S S S S S S S S S S S S   S S S S S S S S S S S S S S S S
|---------------------------------|---------------------------------|
|-5-5-5-5-5-5-5-5-5-5-5-5-5-5-5-5-|---------------------------------|
|---------------------------------|-7-7-7-7-7-7-7-7-5-5-5-5-5-5-5-5-|
|---------------------------------|---------------------------------|


  S S S S S S S S S S S S S S E   S S S S S S S S S S S S S S S S
|-------------------------------|---------------------------------|
|-------------------------------|---------------------------------|
|-7-7-7-7-7-7-7-7-5-5-5-5-5-5-5-|-----------------------------2-2-|
|-------------------------------|-3-3-3-3-3-3-3-3-3-3-3-3-3-3-3---|


  S S S S S S S S S S S S S S S S   S S S S S S S S S S S S S S S S
|---------------------------------|---------------------------------|
|-0-0-0---------------------------|-------------5-------------------|
|-------3-5-5-5-5-3-5-5-5-5-5-3-5-|-7-7-7-7-7-7---7-5-5-5-5-5-5-7-5-|
|---------------------------------|---------------------------------|


  S S S S S S S S S S S S S S S S   S S S S S S S S S S S S S S S S
|---------------------------------|---------------------------------|
|---------------5-----------------|---------------------------------|
|-3-3-3-3-3-5-7-------------------|-3-3-3-3-3-3-3-3-5-5-5-5-5-5-3-5-|
|-----------------3-3-3-3-3-3-3-3-|---------------------------------|


  S S S S S S S S S S S S S S S S   S S S S S S S S S S S S S S S S
|---------------------------------|---------------------------------|
|-------------------------5-------|---------------------------------|
|---------------------------5-----|-----------------5-5-5-5-5-5-5-5-|
|-3-3-3-3-3-3-3-3-3-3-3-3-----7-5-|-3-3-3-3-3-3-3-3-3---------------|


                          Q=Q=Q=85  Q=61 Q=50
  S S S S S S S S S S S S S S S S   H    Q.   S S
|---------------------------------|---------------|
|---------------------------------|---------------|
|-5-3-3-3-3-3-3-3-3---------------|-3----5----3-5-|
|-8---------------3-3-3-3-3-3-3-3-|---------------|


|-|
|-|
|-|
|-|




--------------------------------------------------------------------------------


Duration Legend
---------------
W - whole; H - half; Q - quarter; E - 8th; S - 16th; T - 32nd; X - 64th; a - acciaccatura
+ - note tied to previous; . - note dotted; .. - note double dotted
Uncapitalized letters represent notes that are staccato (1/2 duration)
Irregular groupings are notated above the duration line
Duration letters will always appear directly above the note/fret number it represents the
duration for.  Duration letters with no fret number below them represent rests.  Multi-
bar rests are notated in the form Wxn, where n is the number of bars to rest for.  Low
melody durations appear below the staff

Tablature Legend
----------------
 h   - hammer-on
 p   - pull-off
 b   - bend
 pb  - pre-bend
 r   - bend release (if no number after the r, then release immediately)
 /\  - slide into or out of (from/to "nowhere")
 s   - legato slide
 S   - shift slide
 - natural harmonic
[n]  - artificial harmonic
n(n) - tapped harmonic
 ~   - vibrato
 tr  - trill
 T   - tap
 TP  - trem. picking
 PM  - palm muting
\n/  - tremolo bar dip; n = amount to dip
 \n  - tremolo bar down
 n/  - tremolo bar up
/n\  - tremolo bar inverted dip
 =   - hold bend; also acts as connecting device for hammers/pulls
 <> - volume swell (louder/softer)
 x   - on rhythm slash represents muted slash
 o   - on rhythm slash represents single note slash

Misc Legend
-----------
 |  - bar
||  - double bar
||o - repeat start
o|| - repeat end
*|  - double bar (ending)
 :  - bar (freetime)
 $  - Segno
 &  - Coda
Tempo markers -  = BPM(8/16=s8/s16), where s8 = swing 8ths, s16 = swing 16ths

comments
We did not receive enough feedback on this tab! Please rate:
1 2 3 4 5
I want to post or [tab]
guest
You may want to rate the tab now too:
select rating
Please do not post tabs as comments. Select "correction" instead!