Oops, an error
Loading. Please wait.

Fields Of Despair Bass Tab

ver1
ver1

Whole song

More versions @911Tabs.com
468 views 1 this week
no commentswrite comment
1 2 3 4 5
please rate
Autoscroll
+/-
esc
set tempo
stop
Contributor
WARNING: You are trying to view
                                    content from Ultimate-Guitar.com
                                    in an unauthorized application,
                                    which is prohibited.

                                    Please use an official Ultimate
                                    Guitar Tabs application for iPhone,
                                    iPad or Android to access legitimate
                                    chords, guitar, bass, and drum tabs
                                    from Ultimate-Guitar.com database.

                                    Type "ultimate guitar tabs" in Apple
                                    App Store's or Android Market's
                                    search to find the application.
#----------------------------------PLEASE NOTE---------------------------------#
#This file is the author's own work and represents their interpretation of the #
#song. You may only use this file for private study, scholarship, or research. #
#------------------------------------------------------------------------------#

FIELDS OF DESPAIR (Bassline)
As recorded by DragonForce
(From the 2004 Album SONIC FIRESTORM)

Transcribed by aghaba


 Words and Music by Li & Totman

 

Gtr I (Eb Ab Db Gb) - 'Bass'


  Q=200
 4/4
  Gtr I
  S S S S S S S S S S S S S S S S   S S S S S S S S S S S S S S S S
|---------------------------------|----------------------------------|
|-3-3-3-3-3-3-3-3-3-3-3-3-3-3-3-3-|----------------------------------|
|---------------------------------|-4-4-4-4-4-4-4-4-4-4-4-4-4-4-4-4--|
|---------------------------------|----------------------------------|


  S S S S S S S S S S S S S S S S   S S S S S S S S S S S S S S S S
|---------------------------------|---------------------------------|
|---------------------------------|---------------------------------|
|-5-5-5-5-5-5-5-5-5-5-5-5-5-5-5-5-|-6-6-6-6-6-6-6-6-6-6-6-6-6-6-6-6-|
|---------------------------------|---------------------------------|


  E E E E E E E E   E E E E E E E E
|-----------------|-----------------|
|-----------------|-----------------|
|-8-8-8-8-8-8-8-8-|-----------------|
|-----------------|-9-9-9-9-9-9-9-9-|


   E  E  E  E  E  E  E  E    E  E  E  E  E  E  E  E
|-------------------------|-------------------------|
|-------------------------|-------------------------|
|-------------------------|-------------------------|
|-10-10-10-10-10-10-10-10-|-11-11-11-11-11-11-11-11-|


   S  S  S  S  S  S  S  S  S  S  S  S  S  S  S  S
|-------------------------------------------------|
|-------------------------------------------------|
|-------------------------------------------------|
|-13-13-13-13-13-13-13-13-13-13-13-13-13-13-13-13-|


  S S S S S S S S S S S S S S S S
|---------------------------------|
|---------------------------------|
|---------------------------------|
|-9-9-9-9-9-9-9-9-9-9-9-9-9-9-9-9-|


   S  S  S  S  S  S  S  S  S  S  S  S  S  S  S  S
|-------------------------------------------------|
|-------------------------------------------------|
|-------------------------------------------------|
|-10-10-10-10-10-10-10-10-10-10-10-10-10-10-10-10-|


   S  S  S  S  S  S  S  S  S  S  S  S  S  S  S  S
|-------------------------------------------------|
|-------------------------------------------------|
|-------------------------------------------------|
|-11-11-11-11-11-11-11-11-11-11-11-11-11-11-11-11-|


   E  E  E  E  E  E  E  E   E E E E E E E E
|-------------------------|-----------------|
|-------------------------|-----------------|
|-------------------------|-----------------|
|-13-13-13-13-13-13-13-13-|-9-9-9-9-9-9-9-9-|


   E  E  E  E  E  E  E  E    Q   E  S  S  E  E  Q
|-------------------------|-------------------------|
|-------------------------|-10--10-10-10-10-10-10---|
|-------13-13-------------|-------------------------|
|-11-11-------15-15-12-12-|-------------------------|


  E S S S S S S S S S S S S S S
|-------------------------------|
|-------------------------------|
|-------------------------------|
|-6-6-6-6-6-6-6-6-6-6-6-6-6-6-6-|


  E S S S S E S S S S S S S S   E E E E E E E E
|-----------------------------|-----------------|
|-----------------------------|-----------------|
|-----------------------------|-----------------|
|-6-6-6-6-6-6-6-6-6-6-6-6-6-6-|-2-2-2-2-2-2-2-2-|


  E E E E E E E E   E S S S S S S S S S S S S S S
|-----------------|-------------------------------|
|-----------------|-------------------------------|
|-----------------|-------------------------------|
|-4-4-4-4-4-4-4-4-|-6-6-6-6-6-6-6-6-6-6-6-6-6-6-6-|


  E S S S S E S S S S S S S S
|-----------------------------|
|-----------------------------|
|-----------------------------|
|-6-6-6-6-6-6-6-6-6-6-6-6-6-6-|


  E E E E E E E E   E E E E E E E E   E S S S S E S S S S S S S S
|-----------------|-----------------|-----------------------------|
|-----------------|-----------------|-----------------------------|
|-4-4-4-4-4-4-4-4-|-----------------|-----------------------------|
|-----------------|-4-4-4-4-4-4-4-4-|-6-6-6-6-6-6-6-6-6-6-6-6-6-6-|


  E S S S S E S S S S S S S S   E E E E E E E E   E E E E E E E E
|-----------------------------|-----------------|-----------------|
|-----------------------------|-----------------|-----------------|
|-----------------------------|-----------------|-----------------|
|-6-6-6-6-6-6-6-6-6-6-6-6-6-6-|-2-2-2-2-2-2-2-2-|-4-4-4-4-4-4-4-4-|


  E S S S S E S S S S S S S S   E S S S S E S S S S S S S S   E E E E +Q   Q
|-----------------------------|-----------------------------|-------1-(1)------|
|-----------------------------|-----------------------------|-----3--------3---|
|-----------------------------|-----------------------------|-4-3--------------|
|-6-6-6-6-6-6-6-6-6-6-6-6-6-6-|-6-6-6-6-6-6-6-6-6-6-6-6-6-6-|------------------|


  E E E E E E Q    E S S S S S S S S S S S S S S
|-6-5------------|-------------------------------|
|-----6-8--------|-------------------------------|
|---------8---8--|-------------------------------|
|-----------9----|-6-6-6-6-6-6-6-6-6-6-6-6-6-6-6-|


  S S S S S S S S S S S S S S S S   S S S S S S S S S S S S S S S S
|---------------------------------|---------------------------------|
|---------------------------------|---------------------------------|
|---------------------------------|---------------------------------|
|-6-6-6-6-6-6-6-6-6-6-6-6-6-6-6-6-|-2-2-2-2-2-2-2-2-2-2-2-2-2-2-2-2-|


  S S S S S S S S S S S S S S S S   E S S S S S S S S S S S S S S
|---------------------------------|-------------------------------|
|---------------------------------|-------------------------------|
|---------------------------------|-1-1-1-1-1-1-1-1-1-1-1-1-1-1-1-|
|-2-2-2-2-2-2-2-2-2-2-2-2-2-2-2-2-|-------------------------------|


  S S S S S S S S S S S S S S S S   E E E E E E E E   E E E E E E E E
|---------------------------------|-----------------|-1-1-1-1-1-1-1-1--|
|---------------------------------|---------------3-|------------------|
|-1-1-1-1-1-1-1-1-1-1-1-1-1-1-1-1-|-4-4-4-4-4-4-4---|------------------|
|---------------------------------|-----------------|------------------|


  S S S S S S S S S S S S S S S S   S S S S S S S S S S S S S S S S
|---------------------------------|---------------------------------|
|---------------------------------|---------------------------------|
|---------------------------------|---------------------------------|
|-1-1-1-1-1-1-1-1-1-1-1-1-1-1-1-1-|-1-1-1-1-1-1-1-1-1-1-1-1-1-1-1-1-|


  S S S S S S S S S S S S S S S S   S S S S S S S S S S S S S S S S
|---------------------------------|---------------------------------|
|---------------------------------|---------------------------------|
|---------------------------------|---------------------------------|
|-2-2-2-2-2-2-2-2-2-2-2-2-2-2-2-2-|-2-2-2-2-2-2-2-2-2-2-2-2-2-2-2-2-|


  S S S S S S S S S S S S S S S S   S S S S S S S S S S S S S S S S
|---------------------------------|---------------------------------|
|-1-1-1-1-1-1-1-1-1-1-1-1-1-1-1-1-|-1-1-1-1-1-1-1-1-1-1-1-1-1-1-1-1-|
|---------------------------------|---------------------------------|
|---------------------------------|---------------------------------|


  S S S S S S S S S S S S S S S S   E E E E E E E E   E E E E E E E E
|-1-1-1-1-1-1-1-1-1-1-1-1-1-1-1-1-|-1-3-5-6-5-3-1---|------------------|
|---------------------------------|---------------3-|------------------|
|---------------------------------|-----------------|-1-1-1-1-1-1-1-1--|
|---------------------------------|-----------------|------------------|


  E E E E E E E E   E E E E E E E E   E E E E E E E E   E E E E E E E E
|-----------------|-----------------|-----------------|-----------------|
|-----------------|-----------------|-----------------|-----------------|
|-----------------|-4-4-4-4-4-4-4-4-|-----------------|-----------------|
|-2-2-2-2-2-2-2-2-|-----------------|-4-4-4-4-4-4-4-4-|-6-6-6-6-6-6-6-6-|


  E E E E E E E E   E E E E E E E E   E E E E E E E E   E E E E E E E E
|-----------------|-----------------|-----------------|-----------------|
|-----------------|-----------------|-----------------|-----------------|
|-----------------|-4-4-4-4-4-4-4-4-|-----------------|-----------------|
|-2-2-2-2-2-2-2-2-|-----------------|-4-0-4-0-4-0-4-0-|-6-6-6-6-6-6-6-6-|


  E E E E E E E E   E E E E E E E E   E E E E E E E E   E E E E E E E E
|-----------------|-----------------|-----------------|-----------------|
|-----------------|-----------------|-----------------|-----------------|
|-----------------|-4-4-4-4-4-4-4-4-|-----------------|-----------------|
|-2-2-2-2-2-2-2-2-|-----------------|-4-4-4-4-4-4-4-4-|-6-6-6-6-6-6-6-6-|


  E E E E E E E E   E E E E E E E E   E E E E E E E E
|-----------------|-----------------|-----------------|
|-----------------|-----------------|-----------------|
|-----------------|-4-4-4-4-4-4-4-4-|-----------------|
|-2-2-2-2-2-2-2-2-|-----------------|-4-4-4-4-4-4-4-4-|


  E S S S S S S S S S S S S S S   E S S S S E S S S S Q
|-------------------------------|------------------------|
|-------------------------------|------------------------|
|-------------------------------|------------------------|
|-6-6-6-6-6-6-6-6-6-6-6-6-6-6-6-|-6-6-6-6-6-6-6-6-6-6-6--|


  S S S S S S S S S S S S S S S S   S S S S S S S S S S S S S S E
|---------------------------------|-------------------------------|
|-4-4-4-4-4-4-4-4-4-4-4-4-4-4-4-4-|-4-4-4-4-4-4-4-4-4-4-4-4-4-4-4-|
|---------------------------------|-------------------------------|
|---------------------------------|-------------------------------|


  S S S S S S S S S S S S S S S S   S S S S S S S S S S S S Q
|---------------------------------|-----------------------------|
|-6-6-6-6-6-6-6-6-6-6-6-6-6-6-6-6-|-6-6-6-6-6-6-6-6-6-6-6-6-6---|
|---------------------------------|-----------------------------|
|---------------------------------|-----------------------------|


  Q  E E +E  E E E   Q  E E +E  E E E   E S S S S S S S S S S S S S S
|------------------|------------------|-------------------------------|
|------------------|------------------|-------------------------------|
|------------------|------------------|-------------------------------|
|-6--4-6-(6)-6-6-6-|-6--4-6-(6)-6-6-6-|-6-6-6-6-6-6-6-6-6-6-6-6-6-6-6-|


  E S S S S E S S S S S S S S   E E E E E E E E   E E E E E E E E
|-----------------------------|-----------------|-----------------|
|-----------------------------|---------4-4-----|-----------------|
|-----------------------------|-----4-4-----4-4-|-----------------|
|-6-6-6-6-6-6-6-6-6-6-6-6-6-6-|-2-2-------------|-4-4-0-1-3-4-0-5-|


  E S S S S S S S S S S S S S S
|-------------------------------|
|-------------------------------|
|-------------------------------|
|-6-6-6-6-6-6-6-6-6-6-6-6-6-6-6-|


  E S S S S E S S S S S S S S   E E E E E E E E
|-----------------------------|---------1-1-----|
|-----------------------------|-----3-3-----3---|
|-----------------------------|-4-4-----------4-|
|-6-6-6-6-6-6-6-6-6-6-6-6-6-6-|-----------------|


  E E E E E E E E   E S S S S E S S S S S S S S   E S S S S E S S S S S S S S
|-----------------|-----------------------------|------------------------------|
|-----------------|-----------------------------|------------------------------|
|-----------------|-----------------------------|------------------------------|
|-4-4-1-1-4-4-5-5-|-6-6-6-6-6-6-6-6-6-6-6-6-6-6-|-6-6-6-6-6-6-6-6-6-6-6-6-6-6--|


  E E E E E E E E   E E E E E E E E   E S S S S E S S S S S S S S
|-----------------|-----------------|-----------------------------|
|---------4-4-----|-----------------|-----------------------------|
|-----4-4-----4-4-|-----------------|-----------------------------|
|-2-2-------------|-4-4-1-1-4-4-5-5-|-6-6-6-6-6-6-6-6-6-6-6-6-6-6-|


  E S S S S E S S S S S S S S   E E E E +Q   Q    E E E E E E Q
|-----------------------------|-------1-(1)-----|----------------|
|-----------------------------|-----3--------3--|-3---3---3------|
|-----------------------------|-4-3-------------|---4---4---4-3--|
|-6-6-6-6-6-6-6-6-6-6-6-6-6-6-|-----------------|----------------|


  E S S S S S S S S S S S S S S   S S S S S S S S S S S S S S S S
|-------------------------------|---------------------------------|
|-------------------------------|---------------------------------|
|-1-1-1-1-1-1-1-1-1-1-1-1-1-1-1-|-1-1-1-1-1-1-1-1-1-1-1-1-1-1-1-1-|
|-------------------------------|---------------------------------|


  S S S S S S S S S S S S S S S S   S S S S S S S S S S S S S S S S
|---------------------------------|---------------------------------|
|---------------------------------|---------------------------------|
|---------------------------------|---------------------------------|
|-2-2-2-2-2-2-2-2-2-2-2-2-2-2-2-2-|-2-2-2-2-2-2-2-2-2-2-2-2-2-2-2-2-|


  E S S S S S S S S S S S S S S   S S S S S S S S S S S S S S S S
|-------------------------------|---------------------------------|
|-------------------------------|---------------------------------|
|-1-1-1-1-1-1-1-1-1-1-1-1-1-1-1-|-1-1-1-1-1-1-1-1-1-1-1-1-1-1-1-1-|
|-------------------------------|---------------------------------|


  E E E E E E E E   E E E E E E E E   S S S S S S S S S S S S S S S S
|-----------------|-----------------|----------------------------------|
|-----------------|-----------------|----------------------------------|
|-4-4-4-4-4-4-4-4-|-----------------|----------------------------------|
|-----------------|-4-4-4-4-4-4-4-4-|-1-1-1-1-1-1-1-1-1-1-1-1-1-1-1-1--|


  S S S S S S S S S S S S S S S S   S S S S S S S S S S S S S S S S
|---------------------------------|---------------------------------|
|---------------------------------|---------------------------------|
|---------------------------------|---------------------------------|
|-1-1-1-1-1-1-1-1-1-1-1-1-1-1-1-1-|-2-2-2-2-2-2-2-2-2-2-2-2-2-2-2-2-|


  S S S S S S S S S S S S S S S S   S S S S S S S S S S S S S S S S
|---------------------------------|---------------------------------|
|---------------------------------|-1-1-1-1-1-1-1-1-1-1-1-1-1-1-1-1-|
|---------------------------------|---------------------------------|
|-2-2-2-2-2-2-2-2-2-2-2-2-2-2-2-2-|---------------------------------|


  S S S S S S S S S S S S S S S S   S S S S S S S S S S S S S S E
|---------------------------------|-1-1-1-1-1-1-1-1-1-1-1-1-1-1-6-|
|-1-1-1-1-1-1-1-1-1-1-1-1-1-1-1-1-|-------------------------------|
|---------------------------------|-------------------------------|
|---------------------------------|-------------------------------|


  E  E  S  S  E  E  E  Q    E E E E E E E E
|-8-10-10-10-10-10-10-10--|-----------------|
|-------------------------|-----------------|
|-------------------------|-----------------|
|-------------------------|-6-6-6-6-6-6-6-6-|


  E E E E E E E E   E E E E E E E E
|-----------------|------------------|
|-----------------|------------------|
|-----------------|-4-4-4-4-4-4-4-4--|
|-2-2-2-2-2-2-2-2-|------------------|


  E E E E E E E E   E E E E E E E E   E E E E E E E E   E E E E E E E E
|-----------------|-----------------|-----------------|-----------------|
|-----------------|-----------------|-----------------|-----------------|
|-----------------|-----------------|-----------------|-4-4-4-4-4-4-4-4-|
|-4-4-4-4-4-4-4-4-|-6-6-6-6-6-6-6-6-|-2-2-2-2-2-2-2-2-|-----------------|


  E E E E E E E E   E E E E E E E E   E E E E E E E E   E E E E E E E E
|-----------------|-----------------|-----------------|-----------------|
|-----------------|-----------------|-----------------|-----------------|
|-----------------|-----------------|-----------------|-4-4-4-4-4-4-4-4-|
|-4-4-4-4-4-4-4-4-|-6-6-6-6-6-6-6-6-|-2-2-2-2-2-2-2-2-|-----------------|


  E E E E E E E E   E E E E E E E E   E E E E E E E E   E E E E E E E E
|-----------------|-----------------|-----------------|-----------------|
|-----------------|-----------------|-----------------|-----------------|
|-----------------|-----------------|-----------------|-4-4-4-4-4-4-4-4-|
|-4-4-4-4-4-4-4-4-|-6-6-6-6-6-6-6-6-|-2-2-2-2-2-2-2-2-|-----------------|


  E E E E E E E E   S S S S S S S S S S S S S S S S
|-----------------|---------------------------------|
|-----------------|---------------------------------|
|-----------------|---------------------------------|
|-4-4-4-4-4-4-4-4-|-6-6-6-6-6-6-6-6-6-6-6-6-6-6-6-6-|


  S S S S S S S S S S S S Q    S S S S S S S S S S S S S S S S
|----------------------------|----------------------------------|
|----------------------------|-4-4-4-4-4-4-4-4-4-4-4-4-4-4-4-4--|
|----------------------------|----------------------------------|
|-6-6-6-6-6-6-6-6-6-6-6-6-6--|----------------------------------|


  S S S S S S S S S S S S S S E   S S S S S S S S S S S S S S S S
|-------------------------------|---------------------------------|
|-4-4-4-4-4-4-4-4-4-4-4-4-4-4-4-|-6-6-6-6-6-6-6-6-6-6-6-6-6-6-6-6-|
|-------------------------------|---------------------------------|
|-------------------------------|---------------------------------|


  S S S S S S S S S S S S Q    Q  E E +E  E E E   Q  E E +E  E E E
|----------------------------|------------------|------------------|
|-6-6-6-6-6-6-6-6-6-6-6-6-6--|------------------|------------------|
|----------------------------|------------------|------------------|
|----------------------------|-6--4-6-(6)-6-6-6-|-6--4-6-(6)-6-6-6-|


  S S S S S S S S S S S S S S S S   S S S S S S S S S S S S Q
|---------------------------------|-----------------------------|
|---------------------------------|-----------------------------|
|---------------------------------|-----------------------------|
|-6-6-6-6-6-6-6-6-6-6-6-6-6-6-6-6-|-6-6-6-6-6-6-6-6-6-6-6-6-6---|


  S S S S S S S S S S S S S S S S   S S S S S S S S S S S S S S E
|---------------------------------|-------------------------------|
|-4-4-4-4-4-4-4-4-4-4-4-4-4-4-4-4-|-4-4-4-4-4-4-4-4-4-4-4-4-4-4-4-|
|---------------------------------|-------------------------------|
|---------------------------------|-------------------------------|


  S S S S S S S S S S S S S S S S   S S S S S S S S S S S S Q
|---------------------------------|-----------------------------|
|-6-6-6-6-6-6-6-6-6-6-6-6-6-6-6-6-|-6-6-6-6-6-6-6-6-6-6-6-6-6---|
|---------------------------------|-----------------------------|
|---------------------------------|-----------------------------|


  S S S S S S E +E  E E E   S S S S S S E +E  S S S S S S   W
|-------------------------|-------------------------------|------|
|---------------------8---|-------------------------------|------|
|-8---4---6---8-(8)-------|-8---6---5---4-(4)-------------|------|
|---6---6---6-------6---6-|---6---6---6-------6-6-6-6-6-6-|-6----|


  +W           +W           +W           +W
|------------|------------|------------|--------|
|------------|------------|------------|--------|
|------------|------------|------------|--------|
|-(6)--------|-(6)--------|-(6)--------|-(6)----|


  +W           +W           +W           W
|------------|------------|------------|------|
|------------|------------|------------|------|
|------------|------------|------------|------|
|-(6)--------|-(6)--------|-(6)--------|------|


  W          W          W          W
|----------|----------|----------|------|
|----------|----------|----------|------|
|----------|----------|----------|------|
|----------|----------|----------|------|


  W          W          W          W
|----------|----------|----------|------|
|----------|----------|----------|------|
|----------|----------|----------|------|
|----------|----------|----------|-6----|


  W          W          E E E E E E Q    W
|----------|----------|----------------|------|
|----------|----------|----------------|------|
|----------|----------|----------------|------|
|-2--------|-4--------|-6---6---6------|-4----|


  W          W          E E E E E E Q
|----------|----------|----------------|
|----------|----------|----------------|
|----------|----------|----------------|
|-2--------|-1--------|-1---1---1------|


  E S S S S S S S S S S S S S S
|-------------------------------|
|-------------------------------|
|-1-1-1-1-1-1-1-1-1-1-1-1-1-1-1-|
|-------------------------------|


  E S S S S E S S S S S S S S   E E E E E E E E
|-----------------------------|-----------------|
|-----------------------------|-----------------|
|-1-1-1-1-1-1-1-1-1-1-1-1-1-1-|-----------------|
|-----------------------------|-2-2-2-2-2-2-2-2-|


  E E E E E E E E   E S S S S S S S S S S S S S S
|-----------------|-------------------------------|
|-----------------|-------------------------------|
|-----------------|-------------------------------|
|-4-4-4-4-4-4-4-4-|-6-6-6-6-6-6-6-6-6-6-6-6-6-6-6-|


  E S S S S E S S S S S S S S
|-----------------------------|
|-----------------------------|
|-----------------------------|
|-6-6-6-6-6-6-6-6-6-6-6-6-6-6-|


  E E E E E E E E   E E E E E E E E   E S S S S E S S S S S S S S
|-----------------|-----------------|-----------------------------|
|-----------------|-----------------|-----------------------------|
|-4-4-4-4-4-4-4-4-|-----------------|-----------------------------|
|-----------------|-4-4-4-4-4-4-4-4-|-6-6-6-6-6-6-6-6-6-6-6-6-6-6-|


  E S S S S E S S S S S S S S   E E E E E E E E   E E E E E E E E
|-----------------------------|-----------------|-----------------|
|-----------------------------|-----------------|-----------------|
|-----------------------------|-----------------|-----------------|
|-6-6-6-6-6-6-6-6-6-6-6-6-6-6-|-2-2-2-2-2-2-2-2-|-4-4-4-4-4-4-4-4-|


  E S S S S E S S S S S S S S   E S S S S E S S S S S S S S   E E E E E E E E
|-----------------------------|-----------------------------|------------------|
|-----------------------------|-----------------------------|------------------|
|-----------------------------|-----------------------------|-4-4-4-4-4-4-4-4--|
|-6-6-6-6-6-6-6-6-6-6-6-6-6-6-|-6-6-6-6-6-6-6-6-6-6-6-6-6-6-|------------------|


  E E E E E E E E   E S S S S S S S S S S S S S S
|-----------------|-------------------------------|
|-----------------|-------------------------------|
|-----------------|-------------------------------|
|-4-4-4-4-4-4-4-4-|-6-6-6-6-6-6-6-6-6-6-6-6-6-6-6-|


  S S S S S S S S S S S S S S S S   S S S S S S S S S S S S S S S S
|---------------------------------|---------------------------------|
|---------------------------------|---------------------------------|
|---------------------------------|---------------------------------|
|-6-6-6-6-6-6-6-6-6-6-6-6-6-6-6-6-|-2-2-2-2-2-2-2-2-2-2-2-2-2-2-2-2-|


  S S S S S S S S S S S S S S S S   E S S S S S S S S S S S S S S
|---------------------------------|-------------------------------|
|---------------------------------|-------------------------------|
|---------------------------------|-1-1-1-1-1-1-1-1-1-1-1-1-1-1-1-|
|-2-2-2-2-2-2-2-2-2-2-2-2-2-2-2-2-|-------------------------------|


  S S S S S S S S S S S S S S S S   E E E E E E E E   E E E E E E E E
|---------------------------------|-----------------|------------------|
|---------------------------------|-----------------|------------------|
|-1-1-1-1-1-1-1-1-1-1-1-1-1-1-1-1-|-4-4-4-4-4-4-4-4-|------------------|
|---------------------------------|-----------------|-4-4-4-4-4-4-4-4--|


  S S S S S S S S S S S S S S S S   S S S S S S S S S S S S S S S S
|---------------------------------|---------------------------------|
|---------------------------------|---------------------------------|
|---------------------------------|---------------------------------|
|-1-1-1-1-1-1-1-1-1-1-1-1-1-1-1-1-|-1-1-1-1-1-1-1-1-1-1-1-1-1-1-1-1-|


  S S S S S S S S S S S S S S S S   S S S S S S S S S S S S S S S S
|---------------------------------|---------------------------------|
|---------------------------------|---------------------------------|
|---------------------------------|---------------------------------|
|-2-2-2-2-2-2-2-2-2-2-2-2-2-2-2-2-|-2-2-2-2-2-2-2-2-2-2-2-2-2-2-2-2-|


  S S S S S S S S S S S S S S S S   S S S S S S S S S S S S S S S S
|---------------------------------|---------------------------------|
|-1-1-1-1-1-1-1-1-1-1-1-1-1-1-1-1-|-1-1-1-1-1-1-1-1-1-1-1-1-1-1-1-1-|
|---------------------------------|---------------------------------|
|---------------------------------|---------------------------------|


  S E S S S S S S S S S S S S S   S S S S S S S S S S S S S S S S
|-------------------------------|---------------------------------|
|-4-6-6-6-6-6-6-6-6-6-6-6-6-6-6-|-6-6-6-6-6-6-6-6-6-6-6-6-6-6-6-6-|
|-------------------------------|---------------------------------|
|-------------------------------|---------------------------------|


  Q  Q  Q  Q    Q  Q  Q  Q    Q  Q  Q  Q    Q  Q  Q  Q
|-------------|-------------|-------------|-------------|
|-------------|-------------|-------------|-------------|
|-------------|-------------|-------------|-------------|
|-6-----4-----|-2-----4-----|-6-----4-----|-2-----4-----|


  Q  Q  Q  Q    Q  Q  Q  Q    Q  Q  Q  Q    Q  Q  Q  Q
|-------------|-------------|-------------|-------------|
|-------------|-------------|-------------|-------------|
|-------4-----|-------4-----|-------4-----|-------4-----|
|-6-----------|-4-----------|-6-----------|-4-----------|


  Q  Q  Q  Q    Q  Q  Q  Q    W          E E E E E E E E
|-------------|-------------|----------|-----------------|
|-------------|-------1-----|-3--------|-----------------|
|-------------|-------------|----------|-----------------|
|-6-----4-----|-2-----------|-1--------|-1---2---4---2---|


  S S S S S S S S S S S S S S S S   S S S S S S S S S S S S S S S S
|---------------------------------|---------------------------------|
|---------------------------------|---------------------------------|
|-1-1-1-1-1-1-1-1-----------------|---------------------------------|
|-----------------4-4-4-4-4-4-4-4-|-2-2-2-2-2-2-2-2-4-4-4-4-4-4-4-4-|


  S S S S S S S S S S S S S S S S   S S S S S S S S S S S S S S S S
|---------------------------------|---------------------------------|
|---------------------------------|---------------------------------|
|---------------------------------|---------------------------------|
|-6-6-6-6-6-6-6-6-4-4-4-4-4-4-4-4-|-2-2-2-2-2-2-2-2-4-4-4-4-4-4-4-4-|


  S S S S S S S S S S S S S S S S   S S S S S S S S S S S S S S S S
|---------------------------------|---------------------------------|
|---------------------------------|---------------------------------|
|-----------------4-4-4-4-4-4-4-4-|-----------------4-4-4-4-4-4-4-4-|
|-6-6-6-6-6-6-6-6-----------------|-4-4-4-4-4-4-4-4-----------------|


  S S S S S S S S S S S S S S S S   S S S S S S S S S S S S S S S S
|---------------------------------|---------------------------------|
|---------------------------------|---------------------------------|
|-----------------4-4-4-4-4-4-4-4-|-----------------4-4-4-4-4-4-4-4-|
|-6-6-6-6-6-6-6-6-----------------|-4-4-4-4-4-4-4-4-----------------|


  S S S S S S S S S S S S S S S S   S S S S S S S S S S S S S S S S
|---------------------------------|---------------------------------|
|---------------------------------|-----------------1-1-1-1-1-1-1-1-|
|---------------------------------|---------------------------------|
|-6-6-6-6-6-6-6-6-4-4-4-4-4-4-4-4-|-2-2-2-2-2-2-2-2-----------------|


  W          E E E E E E E E   E E E E E E E E   E E E E E E E E
|----------|-----------------|-----------------|-----------------|
|-3--------|-----------------|-----------------|-----------------|
|----------|-----------------|-4-4-4-4-4-4-4-4-|-4-4-4-4-4-4-4-4-|
|-1--------|-1---2---4---2---|-----------------|-----------------|


  E E E E E E E E   E E E E E E E E   E E E E E E E E   E E E E E E E E
|-----------------|-----------------|-----------------|-----------------|
|-----------------|-----------------|-1-1-1-1-1-1-1-1-|-1-1-1-1-1-1-1-1-|
|-----------------|-----------------|-----------------|-----------------|
|-2-2-2-2-2-2-2-2-|-2-2-2-2-2-2-2-2-|-----------------|-----------------|


  E E E E E E E E   E E E E E E E E   E E E E E E E E   E E E E E E E E
|-----------------|-----------------|-----------------|-----------------|
|-----------------|-----------------|-----------------|-----------------|
|-4-4-4-4-4-4-4-4-|-----------------|-4-4-4-4-4-4-4-4-|-4-4-4-4-4-4-4-4-|
|-----------------|-4-4-4-4-4-4-4-4-|-----------------|-----------------|


  E E E E E E E E   E E E E E E E E   E E E E E E E E   E E E E E E E E
|-----------------|-----------------|-----------------|-----------------|
|-----------------|-----------------|-1-1-1-1-1-1-1-1-|-1-1-1-1-1-1-1-1-|
|-----------------|-----------------|-----------------|-----------------|
|-2-2-2-2-2-2-2-2-|-2-2-2-2-2-2-2-2-|-----------------|-----------------|


  E E E E E E E E   S S S S S S S S S S S S Q    E E E E E E E E
|-----------------|----------------------------|-----------------|
|-----------------|-6-6-6-6-6-6-6-6-6-6-6-6-6--|-----------------|
|-4-4-4-4-4-4-4-4-|----------------------------|-----------------|
|-----------------|----------------------------|-6-6-6-6-6-6-6-6-|


  E E E E E E E E   E E E E E E E E   E E E E E E E E   E E E E E E E E
|-----------------|-----------------|-----------------|-----------------|
|-----------------|-----------------|-----------------|-----------------|
|-----------------|-4-4-4-4-4-4-4-4-|-----------------|-----------------|
|-2-2-2-2-2-2-2-2-|-----------------|-4-4-4-4-4-4-4-4-|-6-6-6-6-6-6-6-6-|


  E E E E E E E E   E E E E E E E E   E E E E E E E E   E E E E E E E E
|-----------------|-----------------|-----------------|-----------------|
|-----------------|-----------------|-----------------|-----------------|
|-----------------|-4-4-4-4-4-4-4-4-|-----------------|-----------------|
|-2-2-2-2-2-2-2-2-|-----------------|-4-4-4-4-4-4-4-4-|-6-6-6-6-6-6-6-6-|


  E E E E E E E E   E E E E E E E E   E E E E E E E E   E E E E E E E E
|-----------------|-----------------|-----------------|-----------------|
|-----------------|-----------------|-----------------|-----------------|
|-----------------|-4-4-4-4-4-4-4-4-|-----------------|-----------------|
|-2-2-2-2-2-2-2-2-|-----------------|-4-4-4-4-4-4-4-4-|-6-6-6-6-6-6-6-6-|


  E E E E E E E E   E E E E E E E E   E E E E E E E E   E E E E E E E E
|-----------------|-----------------|-----------------|-----------------|
|-----------------|-----------------|-----------------|-----------------|
|-----------------|-4-4-4-4-4-4-4-4-|-----------------|-----------------|
|-2-2-2-2-2-2-2-2-|-----------------|-4-4-4-4-4-4-4-4-|-6-6-6-6-6-6-6-6-|


  E E E E E E E E   E E E E E E E E   E E E E E E E E   E E E E E E E E
|-----------------|-----------------|-----------------|-----------------|
|-----------------|-----------------|-----------------|-----------------|
|-----------------|-4-4-4-4-4-4-4-4-|-----------------|-----------------|
|-2-2-2-2-2-2-2-2-|-----------------|-4-4-4-4-4-4-4-4-|-6-6-6-6-6-6-6-6-|


  E E E E E E E E   E E E E E E E E   E E E E E E E E
|-----------------|-----------------|-----------------|
|-----------------|-----------------|-----------------|
|-----------------|-----------------|-----------------|
|-2-2-2-2-2-2-2-2-|-4-4-4-4-4-4-4-4-|-4-4-4-4-4-4-4-4-|


  S E S S S S S S S S S S S S S   S S S S S S S S S S S S S S S S
|-------------------------------|---------------------------------|
|-------------------------------|---------------------------------|
|-------------------------------|---------------------------------|
|-4-6-6-6-6-6-6-6-6-6-6-6-6-6-6-|-2-2-2-2-2-2-2-2-2-2-2-2-2-2-2-2-|


  S S S S S S S S S S S S S S S S   S S S S S S S S S S S S S S S S
|---------------------------------|---------------------------------|
|---------------------------------|---------------------------------|
|-4-4-4-4-4-4-4-4-4-4-4-4-4-4-4-4-|---------------------------------|
|---------------------------------|-4-4-4-4-4-4-4-4-4-4-4-4-4-4-4-4-|


  S S S S S S S S S S S S S S S S   S S S S S S S S S S S S S S S S
|---------------------------------|---------------------------------|
|---------------------------------|---------------------------------|
|---------------------------------|---------------------------------|
|-6-6-6-6-6-6-6-6-6-6-6-6-6-6-6-6-|-6-6-6-6-6-6-6-6-6-6-6-6-6-6-6-6-|


  S S S S S S S S S S S S S S S S   S S S S S S S S S S S S S S S S
|---------------------------------|---------------------------------|
|---------------------------------|---------------------------------|
|-8-8-8-8-8-8-8-8-8-8-8-8-8-8-8-8-|-8-8-8-8-8-8-8-8-8-8-8-8-8-8-8-8-|
|---------------------------------|---------------------------------|


  S S  S  S  S  S  S  S  S  S  S  S  S  S  S  S
|---6-10-15-18-18-17-17-15-15-------------------|
|-8---------------------------16-16-15-15-13-13-|
|-----------------------------------------------|
|-----------------------------------------------|


   S  S  S  S S S S S  E  S  S  S  S  S  S
|---------------------22-------------------|
|-11-11-10-10-8-8-6-6----23-20-------------|
|------------------------------20----------|
|---------------------------------21-18-16-|


   W
|-------*|
|-------*|
|-------*|
|-18----*|




--------------------------------------------------------------------------------


Duration Legend
---------------
W - whole; H - half; Q - quarter; E - 8th; S - 16th; T - 32nd; X - 64th; a - acciaccatura
+ - note tied to previous; . - note dotted; .. - note double dotted
Uncapitalized letters represent notes that are staccato (1/2 duration)
Irregular groupings are notated above the duration line
Duration letters will always appear directly above the note/fret number it represents the
duration for.  Duration letters with no fret number below them represent rests.  Multi-
bar rests are notated in the form Wxn, where n is the number of bars to rest for.  Low
melody durations appear below the staff

Tablature Legend
----------------
 h   - hammer-on
 p   - pull-off
 b   - bend
 pb  - pre-bend
 r   - bend release (if no number after the r, then release immediately)
 /\  - slide into or out of (from/to "nowhere")
 s   - legato slide
 S   - shift slide
 - natural harmonic
[n]  - artificial harmonic
n(n) - tapped harmonic
 ~   - vibrato
 tr  - trill
 T   - tap
 TP  - trem. picking
 PM  - palm muting
\n/  - tremolo bar dip; n = amount to dip
 \n  - tremolo bar down
 n/  - tremolo bar up
/n\  - tremolo bar inverted dip
 =   - hold bend; also acts as connecting device for hammers/pulls
 <> - volume swell (louder/softer)
 x   - on rhythm slash represents muted slash
 o   - on rhythm slash represents single note slash

Misc Legend
-----------
 |  - bar
||  - double bar
||o - repeat start
o|| - repeat end
*|  - double bar (ending)
 :  - bar (freetime)
 $  - Segno
 &  - Coda
Tempo markers -  = BPM(8/16=s8/s16), where s8 = swing 8ths, s16 = swing 16ths

comments
We did not receive enough feedback on this tab! Please rate:
print report bad tab
1 2 3 4 5
I want to post or [tab]
guest
You may want to rate the tab now too:
select rating
Please do not post tabs as comments. Select "correction" instead!