Oops, an error
Loading. Please wait.

Fields Of Despair Tab

3,319 views 3 this week
1 commentread comment
1 2 3 4 5
excellent!
x 1
Autoscroll
+/-
esc
set tempo
stop
Contributor
WARNING: You are trying to view
                                    content from Ultimate-Guitar.com
                                    in an unauthorized application,
                                    which is prohibited.

                                    Please use an official Ultimate
                                    Guitar Tabs application for iPhone,
                                    iPad or Android to access legitimate
                                    chords, guitar, bass, and drum tabs
                                    from Ultimate-Guitar.com database.

                                    Type "ultimate guitar tabs" in Apple
                                    App Store's or Android Market's
                                    search to find the application.
#----------------------------------PLEASE NOTE---------------------------------#
#This file is the author's own work and represents their interpretation of the #
#song. You may only use this file for private study, scholarship, or research. #
#------------------------------------------------------------------------------#

FIELDS OF DESPAIR
As recorded by DragonForce
(From the 2004 Album SONIC FIRESTORM)

Transcribed by Samurai Sweetie
	

Words and Music by Herman Li, Sam Totman

A5/E
x x 2 2 x x
	
F
x x 3 2 x x
	
C/G
x x 5 5 5 x
	
G
x x 5 4 3 x
D5
x x 0 2 3 x


Gtr I (E A D G B E) - 'Rhythm'
Gtr II (E A D G B E) - 'Herman Li'
Gtr III (E A D G B E) - 'Sam Totman'
Gtr IV (E A D G B E) - 'Keyboard Fill'

 Intro
  Q=200
 4/4
  Gtr I
   Q   Q    Q     Q     Q   Q    Q     Q
|--------------------|--------------------|
|--------------------|--------------------|
|--------------------|--------------------|
|------9----7-----9--|------5----4-----5--|
|--5-----------------|--3-----------------|
|--------------------|--------------------|
|
| Gtr II
|  Q   E  Q    E  Q     Q   E  Q    E  Q
|--------------------|--------------------|
|--------------------|--------------------|
|-12--12-11---12-11--|-----12-11---12-11--|
|--------------------|-14-----------------|
|--------------------|--------------------|
|--------------------|--------------------|
|
| Gtr III
|  Q   E  Q    E  Q     Q   E  Q    E  Q
|--------------------|--------------------|
|--------------------|--------------------|
|--------------------|--------------------|
|-14--14-12---14-12--|-----14-12---14-12--|
|--------------------|-15-----------------|
|--------------------|--------------------|


   Q   Q    Q     Q     Q   Q   Q    Q
|--------------------|------------------|
|--------------------|------------------|
|--------------------|------------------|
|------5----4-----5--|------7---5----7--|
|--4-----------------|--5---------------|
|--------------------|------------------|
|
|  Q   E  Q    E  Q     Q   E Q    E Q
|--------------------|------------------|
|--------------------|------------------|
|-----12-11---12-11--|-11---9-8----9-9--|
|-14-----------------|------------------|
|--------------------|------------------|
|--------------------|------------------|
|
|  Q   E  Q    E  Q     Q   E Q    E Q
|--------------------|------------------|
|--------------------|------------------|
|--------------------|------------------|
|-----14-12---14-12--|-12--10-9---10-9--|
|-16-----------------|------------------|
|--------------------|------------------|


   Q    Q    Q     Q       Q     Q      Q    Q
|-----------------------|-------------------------|
|-----------------------|-------------------------|
|-----------------------|-------------------------|
|-------9----7-----9----|--------5------4----5----|
|--5--------------------|--3----------------------|
|-----------------------|-------------------------|
|
|  E E  E E  E  E  E  E    E  E  E  E   Q    E  E
|-----------------------|-------------------------|
|---------8-10-12-13-12-|-13S17-17-15-[17]--17-19-|
|--9-8--9---------------|-------------------------|
|-----------------------|-------------------------|
|-----------------------|-------------------------|
|-----------------------|-------------------------|
|
|  E E  E E  E  E  E  E    E  E  E  E   Q    E  E
|-----------------------|-------------------------|
|-----------------------|-------------------------|
|---------9-11-12-14-12-|-14S17-17-16--17---17-19-|
|-10-9-10---------------|-------------------------|
|-----------------------|-------------------------|
|-----------------------|-------------------------|


   Q   Q    Q     Q     Q   Q    Q     Q
|--------------------|--------------------|
|--------------------|--------------------|
|--------------------|--------------------|
|------5----4-----5--|------7----5-----7--|
|--4-----------------|--5-----------------|
|--------------------|--------------------|
|
|  Q   E  Q    E  Q     Q   E  Q    E  Q
|-15--15-14---15-14--|-14--12-10---12-10--|
|--------------------|--------------------|
|--------------------|--------------------|
|--------------------|--------------------|
|--------------------|--------------------|
|--------------------|--------------------|
|
|  Q   E  Q    E  Q     Q   E  Q    E  Q
|--------------------|--------------------|
|-17--17-15---17-15--|-15--13-12---13-12--|
|--------------------|--------------------|
|--------------------|--------------------|
|--------------------|--------------------|
|--------------------|--------------------|


   Q   Q    Q     Q     Q   Q    Q     Q
|--------------------|--------------------|
|--------------------|--------------------|
|--------------------|--------------------|
|------9----7-----9--|------5----4-----5--|
|--5-----------------|--3-----------------|
|--------------------|--------------------|
|
|  Q   E  Q    E  Q     Q   E  Q    E  Q
|--------------------|--------------------|
|--------------------|--------------------|
|-12--12-11---12-11--|-----12-11---12-11--|
|--------------------|-14-----------------|
|--------------------|--------------------|
|--------------------|--------------------|
|
|  Q   E  Q    E  Q     Q   E  Q    E  Q
|--------------------|--------------------|
|--------------------|--------------------|
|--------------------|--------------------|
|-14--14-12---14-12--|-----14-12---14-12--|
|--------------------|-15-----------------|
|--------------------|--------------------|


   Q   Q    Q     Q     Q   Q   Q    Q
|--------------------|------------------|
|--------------------|------------------|
|--------------------|------------------|
|------5----4-----5--|------7---5----7--|
|--4-----------------|--5---------------|
|--------------------|------------------|
|
|  Q   E  Q    E  Q     Q   E Q    E Q
|--------------------|------------------|
|--------------------|------------------|
|-----12-11---12-11--|-11---9-8----9-9--|
|-14-----------------|------------------|
|--------------------|------------------|
|--------------------|------------------|
|
|  Q   E  Q    E  Q     Q   E Q    E Q
|--------------------|------------------|
|--------------------|------------------|
|--------------------|------------------|
|-----14-12---14-12--|-12--10-9---10-9--|
|-16-----------------|------------------|
|--------------------|------------------|


   Q   Q    Q     Q     Q   Q    Q     Q
|--------------------|----------------------|
|--------------------|----------------------|
|--------------------|----------------------|
|------9----7-----9--|------5----4-----5----|
|--5-----------------|--3-------------------|
|--------------------|----------------------|
|
|  Q   E  Q    E  Q     Q   E  Q    E  Q
|--------------------|----------------------|
|--------------------|----------------------|
|-12--12-11---12-11--|-----12-11---12-11----|
|--------------------|-14-------------------|
|--------------------|----------------------|
|--------------------|----------------------|
|
|  Q   E  Q    E  Q     Q   E  Q    E  E  E
|--------------------|----------------------|
|--------------------|----------------------|
|--------------------|-------------------11-|
|-14--14-12---14-12--|-----14-12---12-14----|
|--------------------|-15-------------------|
|--------------------|----------------------|


   W                                                 W
|------------------------------------------------|-------------||
|------------------------------------------------|-------------||
|------------------------------------------------|-------------||
|--7---------------------------------------------|---4---------||
|--5---------------------------------------------|---2---------||
|------------------------------------------------|-------------||
|
|                                                    ~~~~~~~~
|  S  S  S  S  S  S  S  S  S  S S  S  S  S  S  S     W
|------------------------------------------------|--15pb19r====||
|----------------------10-12-10-8-10-12-10-12-13-|-------------||
|-12-11--9-11-12-11-12---------------------------|-------------||
|------------------------------------------------|-------------||
|------------------------------------------------|-------------||
|------------------------------------------------|-------------||
|
|  S  S  S  S  S  S  S  S  S  S S  S  S  S  S  S     W
|------------------------------------------------|-[15]--------||
|---------------------------------------------10-|-------------||
|----------------------11-12-11-9-11-12-11-12----|-------------||
|-14-12-10-12-14-12-14---------------------------|-------------||
|------------------------------------------------|-------------||
|------------------------------------------------|-------------||


 Verse 1
  E S S S S S S S S S S S S S S   E S S S S E S S S S S S S S   W
|-------------------------------|-----------------------------|------|
|-------------------------------|-----------------------------|------|
|-------------------------------|-----------------------------|------|
|-2-----------------------------|-2---------2-----------------|------|
|-0-0-0-0-0-0-0-0-0-0-0-0-0-0-0-|-0-0-0-0-0-0-0-0-0-0-0-0-0-0-|-3----|
|-------------------------------|-----------------------------|-1----|


  W          E S S S S S S S S S S S S S S   E S S S S E S S S S S S S S
|----------|-------------------------------|-----------------------------|
|----------|-------------------------------|-----------------------------|
|----------|-------------------------------|-----------------------------|
|----------|-2-----------------------------|-2---------2-----------------|
|-5--------|-0-0-0-0-0-0-0-0-0-0-0-0-0-0-0-|-0-0-0-0-0-0-0-0-0-0-0-0-0-0-|
|-3--------|-------------------------------|-----------------------------|


  W          W          E S S S S E S S S S S S S S
|----------|----------|-----------------------------|
|----------|----------|-----------------------------|
|----------|----------|-----------------------------|
|-5--------|----------|-2---------2-----------------|
|-3--------|-5--------|-0-0-0-0-0-0-0-0-0-0-0-0-0-0-|
|----------|-3--------|-----------------------------|


  E S S S S E S S S S S S S S   W          W
|-----------------------------|----------|------|
|-----------------------------|----------|------|
|-----------------------------|----------|------|
|-2---------2-----------------|----------|------|
|-0-0-0-0-0-0-0-0-0-0-0-0-0-0-|-3--------|-5----|
|-----------------------------|-1--------|-3----|


  E S S S S E S S S S S S S S   E S S S S E S S S S S S S S   W          W
|-----------------------------|-----------------------------|----------|------||
|-----------------------------|-----------------------------|----------|------||
|-----------------------------|-----------------------------|----------|------||
|-2---------2-----------------|-2---------2-----------------|-5--------|------||
|-0-0-0-0-0-0-0-0-0-0-0-0-0-0-|-0-0-0-0-0-0-0-0-0-0-0-0-0-0-|-3--------|-5----||
|-----------------------------|-----------------------------|----------|-3----||


 Pre-Chorus
  W          +W           E S S S S S S S S S S S S S S
|----------|------------|-------------------------------|
|----------|------------|-------------------------------|
|----------|------------|-------------------------------|
|-2--------|-(2)--------|-------------------------------|
|-0--------|-(0)--------|-3-----------------------------|
|----------|------------|-1-1-1-1-1-1-1-1-1-1-1-1-1-1-1-|


  E S S S S E S S S S S S S S   W          +W
|-----------------------------|----------|--------|
|-----------------------------|----------|--------|
|-----------------------------|----------|--------|
|-----------------------------|-2--------|-(2)----|
|-3---------3-----------------|-0--------|-(0)----|
|-1-1-1-1-1-1-1-1-1-1-1-1-1-1-|----------|--------|


  W          W          W          +W           W          +W
|----------|----------|----------|------------|----------|--------|
|----------|----------|----------|------------|----------|--------|
|----------|----------|----------|------------|----------|--------|
|-5--------|----------|----------|------------|----------|--------|
|-3--------|-5--------|-2--------|-(2)--------|-3--------|-(3)----|
|----------|-3--------|-0--------|-(0)--------|-1--------|-(1)----|


  E S S S S S S S S S S S S S S   E S S S S E S S S S S S S S
|-------------------------------|-----------------------------|
|-------------------------------|-----------------------------|
|-------------------------------|-----------------------------|
|-7-----------------------------|-7---------7-----------------|
|-5-5-5-5-5-5-5-5-5-5-5-5-5-5-5-|-5-5-5-5-5-5-5-5-5-5-5-5-5-5-|
|-------------------------------|-----------------------------|


  E S S S S S S S S S S S S S S   E S S S S E S S S S S S S S
|-------------------------------|-----------------------------||
|-------------------------------|-----------------------------||
|-------------------------------|-----------------------------||
|-------------------------------|-----------------------------||
|-5-----------------------------|-5---------5-----------------||
|-3-3-3-3-3-3-3-3-3-3-3-3-3-3-3-|-3-3-3-3-3-3-3-3-3-3-3-3-3-3-||


 Chorus
   W                 W           W                 W
|-----------------|-----------|-----------------|-------|
|-----------------|-----------|-----------------|-------|
|-----------------|-----------|-----------------|-------|
|--2--------------|-----------|--5--------------|-------|
|--0--------------|--3--------|--3--------------|--5----|
|-----------------|--1--------|-----------------|--3----|
|
| Gtr II
|  Q.    Q.    Q     W           Q.    Q.    Q     W
|-----------------|-----------|-----------------|-------|
|-12----10--------|-10--------|-13----15----17--|-15----|
|-------------12--|-----------|-----------------|-------|
|-----------------|-----------|-----------------|-------|
|-----------------|-----------|-----------------|-------|
|-----------------|-----------|-----------------|-------|
|
| Gtr III
|  Q.    Q.    Q     W           Q.    Q.    Q     W
|-----------------|-----------|-----------------|-------|
|-----------------|-----------|-----------------|-------|
|--9-----9-----9--|-10--------|-12----16----17--|-16----|
|-----------------|-----------|-----------------|-------|
|-----------------|-----------|-----------------|-------|
|-----------------|-----------|-----------------|-------|


   W                 W                 W                 W
|-----------------|-----------------|----------------|---------------|
|-----------------|-----------------|----------------|---------------|
|-----------------|-----------------|----------------|---------------|
|--2--------------|-----------------|--5-------------|---------------|
|--0--------------|--3--------------|--3-------------|---5-----------|
|-----------------|--1--------------|----------------|---3-----------|
|
|  Q.    Q.    Q     Q.    Q.    Q     H.       E  E    +H.       Q
|-----------------|-----------------|----------------|---------------|
|-10--------------|-10----12----13--|-13-------10----|---------------|
|-------14----12--|-----------------|-------------12-|-(12)-------9--|
|-----------------|-----------------|----------------|---------------|
|-----------------|-----------------|----------------|---------------|
|-----------------|-----------------|----------------|---------------|
|
|  Q.    Q.    Q     Q.    Q.    Q     H.       E  E    +H.       Q
|-----------------|-----------------|----------------|---------------|
|-----------------|-----------------|----------------|---------------|
|--9-----9-----9--|-10----12----14--|-12--------9----|---------------|
|-----------------|-----------------|-------------12-|-(12)------10--|
|-----------------|-----------------|----------------|---------------|
|-----------------|-----------------|----------------|---------------|


   W                 W                 W                 W
|-----------------|-----------------|-----------------|-------|
|-----------------|-----------------|-----------------|-------|
|-----------------|-----------------|-----------------|-------|
|--2--------------|-----------------|--5--------------|-------|
|--0--------------|--3--------------|--3--------------|--5----|
|-----------------|--1--------------|-----------------|--3----|
|
|  Q.    Q.    Q     Q.    Q.    Q     Q.    Q.    Q     W
|-----------------|-----------------|-----------------|-------|
|-10--------------|-10----13----15--|-17----15----13--|-------|
|-------14----12--|-----------------|-----------------|-12----|
|-----------------|-----------------|-----------------|-------|
|-----------------|-----------------|-----------------|-------|
|-----------------|-----------------|-----------------|-------|
|
|  Q.    Q.    Q     Q.    Q.    Q     Q.    Q.    Q     W
|-----------------|-----------------|-----------------|-------|
|-----------------|-----------------|-----------------|-------|
|--9-----9-----9--|-10----14----16--|-17----16----14--|--7----|
|-----------------|-----------------|-----------------|-------|
|-----------------|-----------------|-----------------|-------|
|-----------------|-----------------|-----------------|-------|


   W                 W                 W                 W
|-----------------|-----------------|----------------|---------|
|-----------------|-----------------|----------------|---------|
|-----------------|-----------------|----------------|---------|
|--2--------------|-----------------|--5-------------|---------|
|--0--------------|--3--------------|--3-------------|---5-----|
|-----------------|--1--------------|----------------|---3-----|
|
|  Q.    Q.    Q     Q.    Q.    Q     H.       E  E    +W
|-----------------|-----------------|----------------|---------|
|-10--------------|-10----12----13--|-13-------10----|---------|
|-------14----12--|-----------------|-------------12-|-(12)----|
|-----------------|-----------------|----------------|---------|
|-----------------|-----------------|----------------|---------|
|-----------------|-----------------|----------------|---------|
|
|  Q.    Q.    Q     Q.    Q.    Q     H.       E  E    +W
|-----------------|-----------------|----------------|---------|
|-----------------|-----------------|----------------|---------|
|--9-----9-----9--|-10----12----14--|-12--------9----|---------|
|-----------------|-----------------|-------------12-|-(12)----|
|-----------------|-----------------|----------------|---------|
|-----------------|-----------------|----------------|---------|


  E S S S S E S S S S S S S S   E S S S S S S S S S S S S S S
|-----------------------------|-------------------------------|
|-----------------------------|-------------------------------|
|-----------------------------|-------------------------------|
|-2---------2-----------------|-2-----------------------------|
|-0-0-0-0-0-0-0-0-0-0-0-0-0-0-|-0-0-0-0-0-0-0-0-0-0-0-0-0-0-0-|
|-----------------------------|-------------------------------|


  E S S S S E S S S S S S S S   E S S S S E S S S S Q
|-----------------------------|------------------------|
|-----------------------------|------------------------|
|-5---------5-----------------|-5---------5---------5--|
|-3-3-3-3-3-3-3-3-3-3-3-3-3-3-|-3-3-3-3-3-3-3-3-3-3-3--|
|-----------------------------|------------------------|
|-----------------------------|------------------------|


  E S S S S E S S S S S S S S
|-------------------------------|
|-------------------------------|
|-7---------7-------------------|
|-5-5-5-5-5-5-5-5-5-5-5-5-5-5---|
|-------------------------------|
|-------------------------------|


  E S S S S E S S S S Q    Q  E Q  E E E   Q  E Q  E E E
|------------------------|---------------|---------------||
|------------------------|---------------|---------------||
|-7---------7---------7--|-9--7-9--------|-9--7-9--------||
|-5-5-5-5-5-5-5-5-5-5-5--|-7--5-7--------|-7--5-7--------||
|------------------------|-7--5-7--0-0-0-|-7--5-7--0-0-0-||
|------------------------|---------------|---------------||


 Verse 2
  E S S S S S S S S S S S S S S   E S S S S E S S S S S S S S   W
|-------------------------------|-----------------------------|------|
|-------------------------------|-----------------------------|------|
|-------------------------------|-----------------------------|------|
|-2-----------------------------|-2---------2-----------------|------|
|-0-0-0-0-0-0-0-0-0-0-0-0-0-0-0-|-0-0-0-0-0-0-0-0-0-0-0-0-0-0-|-3----|
|-------------------------------|-----------------------------|-1----|


  W          E S S S S S S S S S S S S S S   E S S S S E S S S S S S S S
|----------|-------------------------------|-----------------------------|
|----------|-------------------------------|-----------------------------|
|----------|-------------------------------|-----------------------------|
|----------|-2-----------------------------|-2---------2-----------------|
|-5--------|-0-0-0-0-0-0-0-0-0-0-0-0-0-0-0-|-0-0-0-0-0-0-0-0-0-0-0-0-0-0-|
|-3--------|-------------------------------|-----------------------------|


  W          W          E S S S S E S S S S S S S S
|----------|----------|-----------------------------|
|----------|----------|-----------------------------|
|----------|----------|-----------------------------|
|-5--------|----------|-2---------2-----------------|
|-3--------|-5--------|-0-0-0-0-0-0-0-0-0-0-0-0-0-0-|
|----------|-3--------|-----------------------------|


  E S S S S E S S S S S S S S   W          W
|-----------------------------|----------|------|
|-----------------------------|----------|------|
|-----------------------------|----------|------|
|-2---------2-----------------|----------|------|
|-0-0-0-0-0-0-0-0-0-0-0-0-0-0-|-3--------|-5----|
|-----------------------------|-1--------|-3----|


  E S S S S E S S S S S S S S   E S S S S E S S S S S S S S   W          W
|-----------------------------|-----------------------------|----------|------||
|-----------------------------|-----------------------------|----------|------||
|-----------------------------|-----------------------------|----------|------||
|-2---------2-----------------|-2---------2-----------------|-5--------|------||
|-0-0-0-0-0-0-0-0-0-0-0-0-0-0-|-0-0-0-0-0-0-0-0-0-0-0-0-0-0-|-3--------|-5----||
|-----------------------------|-----------------------------|----------|-3----||


 Pre-Chorus 2
  W          +W           E S S S S S S S S S S S S S S
|----------|------------|-------------------------------|
|----------|------------|-------------------------------|
|----------|------------|-------------------------------|
|-2--------|-(2)--------|-------------------------------|
|-0--------|-(0)--------|-3-----------------------------|
|----------|------------|-1-1-1-1-1-1-1-1-1-1-1-1-1-1-1-|


  E S S S S E S S S S S S S S   W          +W
|-----------------------------|----------|--------|
|-----------------------------|----------|--------|
|-----------------------------|----------|--------|
|-----------------------------|-2--------|-(2)----|
|-3---------3-----------------|-0--------|-(0)----|
|-1-1-1-1-1-1-1-1-1-1-1-1-1-1-|----------|--------|


  W          W          W          +W           W          +W
|----------|----------|----------|------------|----------|--------|
|----------|----------|----------|------------|----------|--------|
|----------|----------|----------|------------|----------|--------|
|-5--------|----------|----------|------------|----------|--------|
|-3--------|-5--------|-2--------|-(2)--------|-3--------|-(3)----|
|----------|-3--------|-0--------|-(0)--------|-1--------|-(1)----|


  E S S S S S S S S S S S S S S   E S S S S E S S S S S S S S
|-------------------------------|-----------------------------|
|-------------------------------|-----------------------------|
|-------------------------------|-----------------------------|
|-7-----------------------------|-7---------7-----------------|
|-5-5-5-5-5-5-5-5-5-5-5-5-5-5-5-|-5-5-5-5-5-5-5-5-5-5-5-5-5-5-|
|-------------------------------|-----------------------------|


  E S S S S S S S S S S S S S S   E S S S S E S S S S S S S S
|-------------------------------|-----------------------------||
|-------------------------------|-----------------------------||
|-------------------------------|-----------------------------||
|-------------------------------|-----------------------------||
|-5-----------------------------|-5---------5-----------------||
|-3-3-3-3-3-3-3-3-3-3-3-3-3-3-3-|-3-3-3-3-3-3-3-3-3-3-3-3-3-3-||


 Chorus
   W                 W           W                 W
|-----------------|-----------|-----------------|-------|
|-----------------|-----------|-----------------|-------|
|-----------------|-----------|-----------------|-------|
|--2--------------|-----------|--5--------------|-------|
|--0--------------|--3--------|--3--------------|--5----|
|-----------------|--1--------|-----------------|--3----|
|
| Gtr II
|  Q.    Q.    Q     W           Q.    Q.    Q     W
|-----------------|-----------|-----------------|-------|
|-12----10--------|-10--------|-13----15----17--|-15----|
|-------------12--|-----------|-----------------|-------|
|-----------------|-----------|-----------------|-------|
|-----------------|-----------|-----------------|-------|
|-----------------|-----------|-----------------|-------|
|
| Gtr III
|  Q.    Q.    Q     W           Q.    Q.    Q     W
|-----------------|-----------|-----------------|-------|
|-----------------|-----------|-----------------|-------|
|--9-----9-----9--|-10--------|-12----16----17--|-16----|
|-----------------|-----------|-----------------|-------|
|-----------------|-----------|-----------------|-------|
|-----------------|-----------|-----------------|-------|


   W                 W                 W                 W
|-----------------|-----------------|----------------|---------------|
|-----------------|-----------------|----------------|---------------|
|-----------------|-----------------|----------------|---------------|
|--2--------------|-----------------|--5-------------|---------------|
|--0--------------|--3--------------|--3-------------|---5-----------|
|-----------------|--1--------------|----------------|---3-----------|
|
|  Q.    Q.    Q     Q.    Q.    Q     H.       E  E    +H.       Q
|-----------------|-----------------|----------------|---------------|
|-10--------------|-10----12----13--|-13-------10----|---------------|
|-------14----12--|-----------------|-------------12-|-(12)-------9--|
|-----------------|-----------------|----------------|---------------|
|-----------------|-----------------|----------------|---------------|
|-----------------|-----------------|----------------|---------------|
|
|  Q.    Q.    Q     Q.    Q.    Q     H.       E  E    +H.       Q
|-----------------|-----------------|----------------|---------------|
|-----------------|-----------------|----------------|---------------|
|--9-----9-----9--|-10----12----14--|-12--------9----|---------------|
|-----------------|-----------------|-------------12-|-(12)------10--|
|-----------------|-----------------|----------------|---------------|
|-----------------|-----------------|----------------|---------------|


   W                 W                 W                 W
|-----------------|-----------------|-----------------|-------|
|-----------------|-----------------|-----------------|-------|
|-----------------|-----------------|-----------------|-------|
|--2--------------|-----------------|--5--------------|-------|
|--0--------------|--3--------------|--3--------------|--5----|
|-----------------|--1--------------|-----------------|--3----|
|
|  Q.    Q.    Q     Q.    Q.    Q     Q.    Q.    Q     W
|-----------------|-----------------|-----------------|-------|
|-10--------------|-10----13----15--|-17----15----13--|-------|
|-------14----12--|-----------------|-----------------|-12----|
|-----------------|-----------------|-----------------|-------|
|-----------------|-----------------|-----------------|-------|
|-----------------|-----------------|-----------------|-------|
|
|  Q.    Q.    Q     Q.    Q.    Q     Q.    Q.    Q     W
|-----------------|-----------------|-----------------|-------|
|-----------------|-----------------|-----------------|-------|
|--9-----9-----9--|-10----14----16--|-17----16----14--|--7----|
|-----------------|-----------------|-----------------|-------|
|-----------------|-----------------|-----------------|-------|
|-----------------|-----------------|-----------------|-------|


   W                 W                 W                 W
|-----------------|-----------------|----------------|---------|
|-----------------|-----------------|----------------|---------|
|-----------------|-----------------|----------------|---------|
|--2--------------|-----------------|--5-------------|---------|
|--0--------------|--3--------------|--3-------------|---5-----|
|-----------------|--1--------------|----------------|---3-----|
|
|  Q.    Q.    Q     Q.    Q.    Q     H.       E  E    +W
|-----------------|-----------------|----------------|---------|
|-10--------------|-10----12----13--|-13-------10----|---------|
|-------14----12--|-----------------|-------------12-|-(12)----|
|-----------------|-----------------|----------------|---------|
|-----------------|-----------------|----------------|---------|
|-----------------|-----------------|----------------|---------|
|
|  Q.    Q.    Q     Q.    Q.    Q     H.       E  E    +W
|-----------------|-----------------|----------------|---------|
|-----------------|-----------------|----------------|---------|
|--9-----9-----9--|-10----12----14--|-12--------9----|---------|
|-----------------|-----------------|-------------12-|-(12)----|
|-----------------|-----------------|----------------|---------|
|-----------------|-----------------|----------------|---------|


  E S S S S E S S S S S S S S   E S S S S E S S S S Q
|-----------------------------|-------------------------|
|-----------------------------|-------------------------|
|-----------------------------|-------------------------|
|-2---------2-----------------|-2---------2---------2---|
|-0-0-0-0-0-0-0-0-0-0-0-0-0-0-|-0-0-0-0-0-0-0-0-0-0-0---|
|-----------------------------|-------------------------|


  E S S S S E S S S S S S S S   E S S S S E S S S S Q
|-----------------------------|------------------------|
|-----------------------------|------------------------|
|-5---------5-----------------|-5---------5---------5--|
|-3-3-3-3-3-3-3-3-3-3-3-3-3-3-|-3-3-3-3-3-3-3-3-3-3-3--|
|-----------------------------|------------------------|
|-----------------------------|------------------------|


  E S S S S E S S S S S S S S
|-------------------------------|
|-------------------------------|
|-7---------7-------------------|
|-5-5-5-5-5-5-5-5-5-5-5-5-5-5---|
|-------------------------------|
|-------------------------------|


  E S S S S E S S S S Q    Q  E Q  E E E   Q  E Q  E E E
|------------------------|---------------|---------------|
|------------------------|---------------|---------------|
|-7---------7---------7--|-9--7-9--------|-9--7-9--------|
|-5-5-5-5-5-5-5-5-5-5-5--|-7--5-7--------|-7--5-7--------|
|------------------------|-7--5-7--0-0-0-|-7--5-7--0-0-0-|
|------------------------|---------------|---------------|


  E S S S S E S S S S S S S S   E S S S S E S S S S Q
|-----------------------------|-------------------------|
|-----------------------------|-------------------------|
|-----------------------------|-------------------------|
|-2---------2-----------------|-2---------2---------2---|
|-0-0-0-0-0-0-0-0-0-0-0-0-0-0-|-0-0-0-0-0-0-0-0-0-0-0---|
|-----------------------------|-------------------------|


  E S S S S E S S S S S S S S   E S S S S E S S S S Q
|-----------------------------|------------------------|
|-----------------------------|------------------------|
|-5---------5-----------------|-5---------5---------5--|
|-3-3-3-3-3-3-3-3-3-3-3-3-3-3-|-3-3-3-3-3-3-3-3-3-3-3--|
|-----------------------------|------------------------|
|-----------------------------|------------------------|


  E S S S S E S S S S S S S S
|-------------------------------|
|-------------------------------|
|-7---------7-------------------|
|-5-5-5-5-5-5-5-5-5-5-5-5-5-5---|
|-------------------------------|
|-------------------------------|


  E S S S S E S S S S Q    Q  E Q  E E E   Q  E Q  E E E
|------------------------|---------------|---------------||
|------------------------|---------------|---------------||
|-7---------7---------7--|-9--7-9--------|-9--7-9--------||
|-5-5-5-5-5-5-5-5-5-5-5--|-7--5-7--------|-7--5-7--------||
|------------------------|-7--5-7--0-0-0-|-7--5-7--0-0-0-||
|------------------------|---------------|---------------||


 Keyboard Solo 1
  Wx15          W          W          W          W          E E E E E Q.
|-------------|----------|----------|----------|----------|-----------------|
|-------------|----------|----------|----------|----------|-----------------|
|-------------|----------|----------|----------|----------|-----------------|
|-------------|----------|----------|----------|----------|-----------------|
|-------------|-7--------|-7--------|-3--------|-5--------|-7---7---7-------|
|-------------|-5--------|-5--------|-1--------|-3--------|-5---5---5-------|


  W          W          W          E E E E E Q.
|----------|----------|----------|----------------||
|----------|----------|----------|----------------||
|----------|----------|----------|----------------||
|----------|----------|----------|----------------||
|-5--------|-3--------|-2--------|-2---2---2------||
|-3--------|-1--------|-0--------|-0---0---0------||


 Solo 1
  E   S S S S S  S S S S S S S S S
|----------------------------------|
|----------------------------------|
|----------------------------------|
|-2--------------------------------|
|-0---0-0-0-0-0--0-0-0-0-0-0-0-0-0-|
|----------------------------------|
|
| Gtr II
| Q.          Q.           Q
|----------------------------------|
|----------------------------------|
|-7b9---------7------------5-------|
|----------------------------------|
|----------------------------------|
|----------------------------------|


  E S S S S E S S S S S S S S   W
|-----------------------------|--------------------------|
|-----------------------------|--------------------------|
|-----------------------------|--------------------------|
|-2---------2-----------------|--------------------------|
|-0-0-0-0-0-0-0-0-0-0-0-0-0-0-|-3------------------------|
|-----------------------------|-1------------------------|
|
| E E   E   Q     E   E   E     E.. +T    E E E E E S S
|-----------------------------|--------------------------|
|-------------------------5---|-5---(5)b6---6---5--------|
|-4-5-----------------5-------|---------------------7-5--|
|-----------7-----7-----------|--------------------------|
|-----------------------------|--------------------------|
|-----------------------------|--------------------------|


  W                 E    S   S    S S S  S S S  S S S S S S
|-----------------|-----------------------------------------|
|-----------------|-----------------------------------------|
|-----------------|-----------------------------------------|
|-----------------|-2---------------------------------------|
|-5---------------|-0----0---0----0-0-0--0-0-0--0-0-0-0-0-0-|
|-3---------------|-----------------------------------------|
|
| ~~~~~~~~~~~~         T          T      T      T
|          |-3--|        |--3--|
| H.      +E  E E   S  S S S   S  S S S  S S S  S S S S S S
|-----------------|---------------------------------------8-|
|-----------------|-------------------------------------8---|
|-7-------(7)-5-7-|-9-17-7p5h==9-17-7h9-17-7p5-12-5h7h9-----|
|-----------------|-----------------------------------------|
|-----------------|-----------------------------------------|
|-----------------|-----------------------------------------|


   E     S S  S S E    S  S  S S  S  S  S S
|---------------------------------------------|
|---------------------------------------------|
|---------------------------------------------|
|--2--------------2---------------------------|
|--0-----0-0--0-0-0----0--0--0-0--0--0--0-0---|
|---------------------------------------------|
|
|  S  S  S S  S S S S  S  S  S S  S  S  S S
|-10-12-10-8--------8-10-12-10-8--------------|
|------------12-8----------------12-10--------|
|-----------------9--------------------12-9---|
|---------------------------------------------|
|---------------------------------------------|
|---------------------------------------------|


   W                     W
|---------------------|------------------------|
|---------------------|------------------------|
|---------------------|------------------------|
|--5------------------|------------------------|
|--3------------------|--5---------------------|
|---------------------|--3---------------------|
|
|  E E  E  E E  Q   E    E  E  E  E     +H
|---------------------|------------------------|
|---------13----------|-13-12-13-13b15-(13)----|
|-12-9-12------12--12-|------------------------|
|---------------------|------------------------|
|---------------------|------------------------|
|---------------------|------------------------|


   E    S  S  S S  E  S  S  S  S  S S  S S
|------------------------------------------|
|------------------------------------------|

|------------------------------------------|
|--2---------------2-----------------------|
|--0----0--0--0-0--0--0--0--0--0--0-0--0-0-|
|------------------------------------------|
|
|  S S  S  S  E    E  S  S  S  S  E    E
|------------------------------------------|
|-10-9-10-12-13---10-15-10-12-17-13---10---|
|------------------------------------------|
|------------------------------------------|
|------------------------------------------|
|------------------------------------------|


   E     S  S  S S  E  S  S  S  S  S S  S S
|-------------------------------------------|
|-------------------------------------------|
|-------------------------------------------|
|--2----------------2-----------------------|
|--0-----0--0--0-0--0--0--0--0--0--0-0--0-0-|
|-------------------------------------------|
|
|  S  S  S  S  E    E  S  S  S  S  E    E
|-15-12------------12-13-12-----------------|
|-------15-13-15------------15-13-15---13---|
|-------------------------------------------|
|-------------------------------------------|
|-------------------------------------------|
|-------------------------------------------|


  W
|---------------------------------------------|
|---------------------------------------------|
|---------------------------------------------|
|---------------------------------------------|
|-3-------------------------------------------|
|-1-------------------------------------------|
|
| S S S S  S  S  S  S  S  S  S  S  S  S  S  S
|---------------------------------------13-13-|
|---------------------------------13-13-------|
|---------------10-10-10-10-10-10-------------|
|---------10-10-------------------------------|
|-8-8-8-8-------------------------------------|
|---------------------------------------------|


   W
|-------------------------------------------------------|
|-------------------------------------------------------|
|-------------------------------------------------------|
|-------------------------------------------------------|
|--5----------------------------------------------------|
|--3----------------------------------------------------|
|
|                          |------------3-------------|
|  S  S  S  S  S  S  S  S  S  S  S  S  S  S S S S S S S
|-------------19-19-22-22-------------------------------|
|-20-20-20-20-------20-20-15S14S13S12S11S10S9S8S7S6S5S4-|
|-------------------------------------------------------|
|-------------------------------------------------------|
|-------------------------------------------------------|
|-------------------------------------------------------|


   E     S  S  S  S  E    S  S S  S  S  S  S  S
|-----------------------------------------------|
|-----------------------------------------------|
|-----------------------------------------------|
|--2-----------------2--------------------------|
|--0-----0--0--0--0--0----0--0-0--0--0--0--0--0-|
|-----------------------------------------------|
|
|  S  S  S  S  S  S  S S  S  S S  S  S  S  S  S
|-12-10-----------------------------------------|
|-------13-12-10--------------------------------|
|----------------12-10-9------------------------|
|------------------------12-10-9----------------|
|--------------------------------12-10----------|
|--------------------------------------13-12-10-|


   E     S  S  S S  E     S    S     S  S  S  S  S  S
|-----------------------------------------------------|
|-----------------------------------------------------|
|-----------------------------------------------------|
|--2----------------2---------------------------------|
|--0-----0--0--0-0--0-----0----0-----0--0--0--0--0--0-|
|-----------------------------------------------------|
|
|                         |---3---|
|  S  S  S  S  S S  S  S  S  S    S  S  S  S  S  S  S
|---------------------------10---12-10----10----------|
|-13-12-10---------------13------------13----13-12-10-|
|----------12-10-9------------------------------------|
|------------------12-10------------------------------|
|-----------------------------------------------------|
|-----------------------------------------------------|


    W                                        W
|-----------------------------------------|--------------------------||
|-----------------------------------------|--------------------------||
|-----------------------------------------|--------------------------||
|---5-------------------------------------|--------------------------||
|---3-------------------------------------|--5-----------------------||
|-----------------------------------------|--3-----------------------||
|
|                                                            ~~~~~
|   E    E   S  S  S  S  E  S  S  E  S  S    S S  E  e   E   H
|-----------12-13----10-12-12-10-------10-|-12S8S15-19-[20]-20b22----||
|-----------------10-------------13-13----|--------------------------||
|-[12]-[12]-------------------------------|--------------------------||
|-----------------------------------------|--------------------------||
|-----------------------------------------|--------------------------||
|-----------------------------------------|--------------------------||


 Keyboard Solo 2
  E5/B                    F
  Gtr IV
  W          +W           W
  |           |           |
  /           /           /

  W          +W           E S S S S S S S S S S S S S S
|----------|------------|-------------------------------|
|----------|------------|-------------------------------|
|----------|------------|-------------------------------|
|-2--------|-(2)--------|-------------------------------|
|-0--------|-(0)--------|-3-----------------------------|
|----------|------------|-1-1-1-1-1-1-1-1-1-1-1-1-1-1-1-|


                                 E5/B
  +W                             W          +W
   |                             |           |
   /                             /           /

   E S S S S E S S S S S S S S   W          +W
|------------------------------|----------|--------|
|------------------------------|----------|--------|
|------------------------------|----------|--------|
|------------------------------|-2--------|-(2)----|
|--3---------3-----------------|-0--------|-(0)----|
|--1-1-1-1-1-1-1-1-1-1-1-1-1-1-|----------|--------|


  C/G        G          A5/E                    C/G
  W          W          W          +W           W          +W
  |          |          |           |           |           |
  /          /          /           /           /           /

  W          W          W          +W           W          +W
|----------|----------|----------|------------|----------|--------|
|----------|----------|----------|------------|----------|--------|
|----------|----------|----------|------------|----------|--------|
|-5--------|----------|----------|------------|----------|--------|
|-3--------|-5--------|-2--------|-(2)--------|-3--------|-(3)----|
|----------|-3--------|-0--------|-(0)--------|-1--------|-(1)----|


  D5
  W                               +W
  |                                |
  /                                /

  E S S S S S S S S S S S S S S    E S S S S E S S S S S S S S
|-------------------------------|------------------------------|
|-------------------------------|------------------------------|
|-------------------------------|------------------------------|
|-7-----------------------------|--7---------7-----------------|
|-5-5-5-5-5-5-5-5-5-5-5-5-5-5-5-|--5-5-5-5-5-5-5-5-5-5-5-5-5-5-|
|-------------------------------|------------------------------|


  G
  W                               +W
  |                                |
  /                                /

  E S S S S S S S S S S S S S S    E S S S S E S S S S S S S S
|-------------------------------|------------------------------||
|-------------------------------|------------------------------||
|-------------------------------|------------------------------||
|-------------------------------|------------------------------||
|-5-----------------------------|--5---------5-----------------||
|-3-3-3-3-3-3-3-3-3-3-3-3-3-3-3-|--3-3-3-3-3-3-3-3-3-3-3-3-3-3-||


 Solo 2
   Q        Q           Q        Q
|-------------------------------------------|
|-------------------------------------------|
|-------------------------------------------|
|--2----------------------------------------|
|--0--------------------5-------------------|
|-----------------------3-------------------|
|
| Gtr II
|  E  S  S  S  S  S  S  E  S  S  S  S  S  S
|----12-13-15-13-12----------10-12-10-------|
|-13----------------15-12-13----------13-12-|
|-------------------------------------------|
|-------------------------------------------|
|-------------------------------------------|
|-------------------------------------------|
|
| Gtr III
|  E  S  S  S  S  S  S  E  S  S  S  S  S  S
|-------------------------------------------|
|----13-15-17-15-13----------12-13-12-------|
|-14----------------16-12-14----------14-12-|
|-------------------------------------------|
|-------------------------------------------|
|-------------------------------------------|


   Q        Q           Q        Q             Q        Q           Q        Q
|-------------------------------------------|-------------------------------------------|
|-------------------------------------------|-------------------------------------------|
|-------------------------------------------|-------------------------------------------|
|-------------------------------------------|--2----------------------------------------|
|--3--------------------5-------------------|--0--------------------5-------------------|
|--1--------------------3-------------------|-----------------------3-------------------|
|
|  E  S  S  S  S  S  S  E  S  S  S  S  S  S    E  S  S  S  S  S  S  E  S  S  S  S  S  S
|-------10-12-10-------------12-13-12-------|----12-13-15-13-12----------10-12-10-------|
|-10-13----------13-10-12-15----------15-13-|-13----------------15-12-13----------13-12-|
|-------------------------------------------|-------------------------------------------|
|-------------------------------------------|-------------------------------------------|
|-------------------------------------------|-------------------------------------------|
|-------------------------------------------|-------------------------------------------|
|
|  E  S  S  S  S  S  S  E  S  S  S  S  S  S    E  S  S  S  S  S  S  E  S  S  S  S  S  S
|-------------------------------------------|-------------------------------------------|
|-------12-13-12-------------13-15-13-------|----13-15-17-15-13----------12-13-12-------|
|-10-14----------14-10-12-16----------16-14-|-14----------------16-12-14----------14-12-|
|-------------------------------------------|-------------------------------------------|
|-------------------------------------------|-------------------------------------------|
|-------------------------------------------|-------------------------------------------|


   Q        Q           Q        Q
|-------------------------------------------|
|-------------------------------------------|
|-------------------------------------------|
|-------------------------------------------|
|--3--------------------5-------------------|
|--1--------------------3-------------------|
|
|  E  S  S  S  S  S  S  E  S  S  S  S  S  S
|-------10-12-10-------------12-13-12-------|
|-10-13----------13-10-12-15----------15-13-|
|-------------------------------------------|
|-------------------------------------------|
|-------------------------------------------|
|-------------------------------------------|
|
|  E  S  S  S  S  S  S  E  S  S  S  S  S  S
|-------------------------------------------|
|-------12-13-12-------------13-15-13-------|
|-10-14----------14-10-12-16----------16-14-|
|-------------------------------------------|
|-------------------------------------------|
|-------------------------------------------|


   Q        Q           Q        Q             Q        Q           Q        Q
|-------------------------------------------|-------------------------------------------|
|-------------------------------------------|-------------------------------------------|
|-------------------------------------------|-------------------------------------------|
|--2--------------------5-------------------|-----------------------5-------------------|
|--0--------------------3-------------------|--5--------------------3-------------------|
|-------------------------------------------|--3----------------------------------------|
|
|  E  S  S  S  S  S  S  E  S  S  S  S  S  S    E  S  S  S  S  S  S  E  S  S  S  S  S  S
|----12-13-15-13-12----------10-12-10-------|----12-13-15-13-12-------12-13-15-13-12----|
|-13----------------15-12-13----------13-12-|-15----------------15-12----------------15-|
|-------------------------------------------|-------------------------------------------|
|-------------------------------------------|-------------------------------------------|
|-------------------------------------------|-------------------------------------------|
|-------------------------------------------|-------------------------------------------|
|
|  E  S  S  S  S  S  S  E  S  S  S  S  S  S    E  S  S  S  S  S  S  E  S  S  S  S  S  S
|-------------------------------------------|-------------------------------------------|
|----13-15-17-15-13----------12-13-12-------|----13-15-17-15-13-------13-15-17-15-13----|
|-14----------------16-12-14----------14-12-|-16----------------16-12----------------16-|
|-------------------------------------------|-------------------------------------------|
|-------------------------------------------|-------------------------------------------|
|-------------------------------------------|-------------------------------------------|


   Q        Q           Q        Q
|-------------------------------------------|
|-------------------------------------------|
|-------------------------------------------|
|--2--------------------5-------------------|
|--0--------------------3-------------------|
|-------------------------------------------|
|
|  E  S  S  S  S  S  S  E  S  S  S  S  S  S
|----12-13-15-13-12-------12-13-15-13-12----|
|-13----------------15-12----------------13-|
|-------------------------------------------|
|-------------------------------------------|
|-------------------------------------------|
|-------------------------------------------|
|
|  E  S  S  S  S  S  S  E  S  S  S  S  S  S
|-------------------------------------------|
|----13-15-17-15-13-------13-15-17-15-13----|
|-14----------------16-12----------------14-|
|-------------------------------------------|
|-------------------------------------------|
|-------------------------------------------|


   Q        Q           Q        Q             Q        Q           Q        Q
|-------------------------------------------|-------------------------------------------|
|-------------------------------------------|-------------------------------------------|
|-------------------------------------------|-------------------------------------------|
|-----------------------5-------------------|--2----------------------------------------|
|--5--------------------3-------------------|--0--------------------5-------------------|
|--3----------------------------------------|-----------------------3-------------------|
|
|  E  S  S  S  S  S  S  E  S  S  S  S  S  S    E  S  S  S  S  S  S  E  S  S  S  S  S  S
|----12-13-15-13-12-------12-13-15-13-12----|----12-13-15-13-12----------10-12-10-------|
|-15----------------15-13----------------15-|-13----------------15-12-13----------13-12-|
|-------------------------------------------|-------------------------------------------|
|-------------------------------------------|-------------------------------------------|
|-------------------------------------------|-------------------------------------------|
|-------------------------------------------|-------------------------------------------|
|
|  E  S  S  S  S  S  S  E  S  S  S  S  S  S    E  S  S  S  S  S  S  E  S  S  S  S  S  S
|-------------------------------------------|-------------------------------------------|
|----13-15-17-15-13-------13-15-17-15-13----|----13-15-17-15-13----------12-13-12-------|
|-16----------------16-12----------------16-|-14----------------16-12-14----------14-12-|
|-------------------------------------------|-------------------------------------------|
|-------------------------------------------|-------------------------------------------|
|-------------------------------------------|-------------------------------------------|


   Q        Q           Q        Q            W
|-------------------------------------------|-----------------------------------------------|
|-------------------------------------------|-----------------------------------------------|
|-------------------------------------------|-----------------------------------------------|
|-----------------------7-------------------|-2---------------------------------------------|
|--3--------------------5-------------------|-2---------------------------------------------|
|--1----------------------------------------|-0---------------------------------------------|
|
|  E  S  S  S  S  S  S  E  S  S  S  S  S  S   S  S S  S  S  S  S  S  S  S  S  S  S  S  S  S
|-------10-12-10----------------------------|-----------------------12h13p12h13-16h17p16h17-|
|-10-13----------13-12-10-12-13-15-13-12-10-|-9h10p9h10-12h13p12h13-------------------------|
|-------------------------------------------|-----------------------------------------------|
|-------------------------------------------|-----------------------------------------------|
|-------------------------------------------|-----------------------------------------------|
|-------------------------------------------|-----------------------------------------------|
|
|  E  S  S  S  S  S  S  E  S  S  S  S  S  S   S  S S  S  S  S  S  S  S  S  S  S  S  S  S  S
|-------------------------------------------|-----------------------------------------------|
|-------12-13-12----------------------------|-----------------------12h13p12h13-17h18p17h18-|
|-10-14----------14-12-10-12-14-16-14-12-10-|-9h10p9h10-13h14p13h14-------------------------|
|-------------------------------------------|-----------------------------------------------|
|-------------------------------------------|-----------------------------------------------|
|-------------------------------------------|-----------------------------------------------|


   E     E     E     E     E     E     E     E
|---------------------------------------------------||
|---------------------------------------------------||
|---------------------------------------------------||
|---------------------------------------------------||
|--2-----------3-----------5-----------3------------||
|--0-----------1-----------3-----------1------------||
|
|  S  S  S  S  S  S  S  S  S  S  S  S  S  S  S  S
|-19h20p19h20p19h20p19h20p19h20p19h20p19h20p19h20---||
|---------------------------------------------------||
|---------------------------------------------------||
|---------------------------------------------------||
|---------------------------------------------------||
|---------------------------------------------------||
|
|  S  S  S  S  S  S  S  S  S  S  S  S  S  S  S  S
|---------------------------------------------------||
|-21h22p21h22p21h22p21h22p21h22p21h22p21h22p21h22---||
|---------------------------------------------------||
|---------------------------------------------------||
|---------------------------------------------------||
|---------------------------------------------------||


 Solo 3
   E     S  S  S  S  S  S  S  S  S  S S  S  S  S
|------------------------------------------------|
|------------------------------------------------|
|------------------------------------------------|
|------------------------------------------------|
|--7---------------------------------------------|
|--5-----5--5--5--5--5--5--5--5--5--5-5--5--5--5-|
|
|        T     T           T     T          T
|  S  S  S  S  S  S  S  S  S  S  S  S S  S  S  S
|--8-12-15-12-15-12--8-12-13-10-13-10-7-10-13-10-|
|------------------------------------------------|
|------------------------------------------------|
|------------------------------------------------|
|------------------------------------------------|
|------------------------------------------------|
|
|        T     T           T     T          T
|  S  S  S  S  S  S  S  S  S  S  S  S S  S  S  S
|------------------------------------------------|
|-10-13-17-13-17-13-10-13-15-12-15-12-8-12-15-12-|
|------------------------------------------------|
|------------------------------------------------|
|------------------------------------------------|
|------------------------------------------------|


  S  S  S  S  S  S S  S  S  S  S  S S  S  S  S
|----------------------------------------------|
|----------------------------------------------|
|----------------------------------------------|
|----------------------------------------------|
|----------------------------------------------|
|-1--1--1--1--1--1-1--1--3--3--3--3-3--3--3--3-|
|
|       T     T          T     T          T
| S  S  S  S  S  S S  S  S  S  S  S S  S  S  S
|-5--8-12--8-12--8-5--8-13-10-13-10-7-10-13-10-|
|----------------------------------------------|
|----------------------------------------------|
|----------------------------------------------|
|----------------------------------------------|
|----------------------------------------------|
|
|       T     T          T     T          T
| S  S  S  S  S  S S  S  S  S  S  S S  S  S  S
|----------------------------------------------|
|-6-10-13-10-13-10-6-10-15-12-15-12-8-12-15-12-|
|----------------------------------------------|
|----------------------------------------------|
|----------------------------------------------|
|----------------------------------------------|


   S  S  S  S  S  S  S  S  S  S  S  S S  S  S  S
|------------------------------------------------|
|------------------------------------------------|
|------------------------------------------------|
|------------------------------------------------|
|------------------------------------------------|
|--5--5--5--5--5--5--5--5--3--3--3--3-3--3--3--3-|
|
|        T     T           T     T          T
|  S  S  S  S  S  S  S  S  S  S  S  S S  S  S  S
|--8-12-15-12-15-12--8-12-13-10-13-10-7-10-13-10-|
|------------------------------------------------|
|------------------------------------------------|
|------------------------------------------------|
|------------------------------------------------|
|------------------------------------------------|
|
|        T     T           T     T          T
|  S  S  S  S  S  S  S  S  S  S  S  S S  S  S  S
|------------------------------------------------|
|-10-13-17-13-17-13-10-13-15-12-15-12-8-12-15-12-|
|------------------------------------------------|
|------------------------------------------------|
|------------------------------------------------|
|------------------------------------------------|


  S  S  S  S  S  S S  S  S  S  S  S S  S  S  S
|----------------------------------------------|
|----------------------------------------------|
|----------------------------------------------|
|----------------------------------------------|
|----------------------------------------------|
|-1--1--1--1--1--1-1--1--3--3--3--3-3--3--3--3-|
|
|       T     T          T     T          T
| S  S  S  S  S  S S  S  S  S  S  S S  S  S  S
|-5--8-12--8-12--8-5--8-13-10-13-10-7-10-13-10-|
|----------------------------------------------|
|----------------------------------------------|
|----------------------------------------------|
|----------------------------------------------|
|----------------------------------------------|
|
|       T     T          T     T          T
| S  S  S  S  S  S S  S  S  S  S  S S  S  S  S
|----------------------------------------------|
|-6-10-13-10-13-10-6-10-15-12-15-12-8-12-15-12-|
|----------------------------------------------|
|----------------------------------------------|
|----------------------------------------------|
|----------------------------------------------|


   H                       H
|------------------------------------------------|
|------------------------------------------------|
|--------------------------5---------------------|
|--7-----------------------5---------------------|
|--7-----------------------3---------------------|
|--5---------------------------------------------|
|
|        T     T           T     T          T
|  S  S  S  S  S  S  S  S  S  S  S  S S  S  S  S
|--8-12-15-12-15-12--8-12-15-12-15-12-8-12-15-12-|
|------------------------------------------------|
|------------------------------------------------|
|------------------------------------------------|
|------------------------------------------------|
|------------------------------------------------|
|
|        T     T           T     T          T
|  S  S  S  S  S  S  S  S  S  S  S  S S  S  S  S
|------------------------------------------------|
|-10-13-17-13-17-13-10-13-17-13-17-13-8-13-17-13-|
|------------------------------------------------|
|------------------------------------------------|
|------------------------------------------------|
|------------------------------------------------|


   H                       H
|------------------------------------------------|
|------------------------------------------------|
|--------------------------5---------------------|
|--5-----------------------5---------------------|
|--5-----------------------3---------------------|
|--3---------------------------------------------|
|
|        T     T           T     T          T
|  S  S  S  S  S  S  S  S  S  S  S  S S  S  S  S
|--8-10-13-10-13-10--8-10-15-12-15-12-8-12-15-12-|
|------------------------------------------------|
|------------------------------------------------|
|------------------------------------------------|
|------------------------------------------------|
|------------------------------------------------|
|
|        T     T           T     T          T
|  S  S  S  S  S  S  S  S  S  S  S  S S  S  S  S
|------------------------------------------------|
|-10-12-15-12-15-12-10-12-17-13-17-13-8-13-17-13-|
|------------------------------------------------|
|------------------------------------------------|
|------------------------------------------------|
|------------------------------------
comments
We did not receive enough feedback on this tab! Please rate:
1 2 3 4 5
1 comment total.
0 reply
Ratt n' Roll wrote on November 5 2008, 10:48 am

Thanks so Much, I've been waiting for somebody to tab this song for so long. It's a kick ass song, and what an awesome tab.

I want to post or [tab]
guest
You may want to rate the tab now too:
select rating
Please do not post tabs as comments. Select "correction" instead!