Oops, an error
Loading. Please wait.

Fields Of Despair Bass Tab

ver2
ver2

Whole song

Interactive

More versions @911Tabs.com
240 views 1 this week
no commentswrite comment
1 2 3 4 5
please rate
Autoscroll
+/-
esc
set tempo
stop
Contributor
WARNING: You are trying to view
                                    content from Ultimate-Guitar.com
                                    in an unauthorized application,
                                    which is prohibited.

                                    Please use an official Ultimate
                                    Guitar Tabs application for iPhone,
                                    iPad or Android to access legitimate
                                    chords, guitar, bass, and drum tabs
                                    from Ultimate-Guitar.com database.

                                    Type "ultimate guitar tabs" in Apple
                                    App Store's or Android Market's
                                    search to find the application.
#----------------------------------PLEASE NOTE---------------------------------#
#This file is the author's own work and represents their interpretation of the #
#song. You may only use this file for private study, scholarship, or research. #
#------------------------------------------------------------------------------#

FIELDS OF DESPAIR (Bassline)
As recorded by DragonForce
(From the 2004 Album SONIC FIRESTORM)

Transcribed by Samurai Sweetie

Words and Music by Herman Li, Sam Totman
Gtr I (B E A D G) - 'Bass'
Gtr II (E A D G B E) - 'Main Keyboards'
Gtr III (E A D G B E) - 'More Keyboards'

 Intro
  Q=200
 4/4
  Gtr I
   S S S S S S S S S S S S S S S S     S  S S S S S S S S S S S S S S S
|----------------------------------|-------------------------------------|
|--2-2-2-2-2-2-2-2-2-2-2-2-2-2-2-2-|-------------------------------------|
|----------------------------------|---3--3-3-3-3-3-3-3-3-3-3-3-3-3-3-3--|
|----------------------------------|-------------------------------------|
|----------------------------------|-------------------------------------|
|
| Gtr II
|  W                                  +W
|-24-------------------------------|-(24)--------------------------------|
|-17-------------------------------|-(17)--------------------------------|
|----------------------------------|-------------------------------------|
|----------------------------------|-------------------------------------|
|----------------------------------|-------------------------------------|
|----------------------------------|-------------------------------------|


    S  S S S S S S S S S S S S S S S     S  S S S S S S S S S S S S S S S
|------------------------------------|------------------------------------|
|------------------------------------|---0--0-0-0-0-0-0-0-0-0-0-0-0-0-0-0-|
|---4--4-4-4-4-4-4-4-4-4-4-4-4-4-4-4-|------------------------------------|
|------------------------------------|------------------------------------|
|------------------------------------|------------------------------------|
|
|  +W                                   +W
|-(24)-------------------------------|-(24)-------------------------------|
|-(17)-------------------------------|-(17)-------------------------------|
|------------------------------------|------------------------------------|
|------------------------------------|------------------------------------|
|------------------------------------|------------------------------------|
|------------------------------------|------------------------------------|


   E E E E E E E E     E  E E E E E E E
|------------------|--------------------|
|--2-2-2-2-2-2-2-2-|--------------------|
|------------------|---3--3-3-3-3-3-3-3-|
|------------------|--------------------|
|------------------|--------------------|
|
|  W                  +W
|-19---------------|-(19)---------------|
|-12---------------|-(12)---------------|
|------------------|--------------------|
|------------------|--------------------|
|------------------|--------------------|
|------------------|--------------------|


    E  E E E E E E E     E  E E E E E E E
|--------------------|--------------------|
|--------------------|---0--0-0-0-0-0-0-0-|
|---4--4-4-4-4-4-4-4-|--------------------|
|--------------------|--------------------|
|--------------------|--------------------|
|
|  +W                   +W
|-(19)---------------|-(19)---------------|
|-(12)---------------|-(12)---------------|
|--------------------|--------------------|
|--------------------|--------------------|
|--------------------|--------------------|
|--------------------|--------------------|


   S S S S S S S S S S S S S S S S     S  S S S S S S S S S S S S S S S
|----------------------------------|------------------------------------|
|--2-2-2-2-2-2-2-2-2-2-2-2-2-2-2-2-|------------------------------------|
|----------------------------------|---3--3-3-3-3-3-3-3-3-3-3-3-3-3-3-3-|
|----------------------------------|------------------------------------|
|----------------------------------|------------------------------------|
|
|  W                                  +W
|-24-------------------------------|-(24)-------------------------------|
|-17-------------------------------|-(17)-------------------------------|
|----------------------------------|------------------------------------|
|----------------------------------|------------------------------------|
|----------------------------------|------------------------------------|
|----------------------------------|------------------------------------|


    S  S S S S S S S S S S S S S S S     S  S S S S S S S S S S S S S S S
|------------------------------------|------------------------------------|
|------------------------------------|---0--0-0-0-0-0-0-0-0-0-0-0-0-0-0-0-|
|---4--4-4-4-4-4-4-4-4-4-4-4-4-4-4-4-|------------------------------------|
|------------------------------------|------------------------------------|
|------------------------------------|------------------------------------|
|
|  +W                                   +W
|-(24)-------------------------------|-(24)-------------------------------|
|-(17)-------------------------------|-(17)-------------------------------|
|------------------------------------|------------------------------------|
|------------------------------------|------------------------------------|
|------------------------------------|------------------------------------|
|------------------------------------|------------------------------------|


   E E E E E E E E     E  E E E E E E E
|------------------|--------------------|
|--2-2-2-2-2-2-2-2-|--------------------|
|------------------|---3--3-3-3-3-3-3-3-|
|------------------|--------------------|
|------------------|--------------------|
|
|  W                  +W
|-19---------------|-(19)---------------|
|-12---------------|-(12)---------------|
|------------------|--------------------|
|------------------|--------------------|
|------------------|--------------------|
|------------------|--------------------|


    E  E E E E E E E     Q   E S S E E Q
|--------2-2---------|--------------------||
|---0--0-----4-4-1-1S|===9---9-9-9-9-9-9--||
|--------------------|--------------------||
|--------------------|--------------------||
|--------------------|--------------------||
|
|  +W                   +W
|-(19)---------------|-(19)---------------||
|-(12)---------------|-(12)---------------||
|--------------------|--------------------||
|--------------------|--------------------||
|--------------------|--------------------||
|--------------------|--------------------||


 Verse 1
  E S S S S S S S S S S S S S S
|-------------------------------|
|-------------------------------|
|-0-0-0-0-0-0-0-0-0-0-0-0-0-0-0-|
|-------------------------------|
|-------------------------------|
|
| W
|-------------------------------|
|-------------------------------|
|-2-----------------------------|
|-2-----------------------------|
|-------------------------------|
|-------------------------------|


   E  S S S S E S S S S S S S S   E E E E E E E E
|-------------------------------|-----------------|
|-------------------------------|-----------------|
|--0--0-0-0-0-0-0-0-0-0-0-0-0-0-|-----------------|
|-------------------------------|-1-1-1-1-1-1-1-1-|
|-------------------------------|-----------------|
|
| +W                              W
|-------------------------------|-----------------|
|-------------------------------|-----------------|
|-(2)---------------------------|-2---------------|
|-(2)---------------------------|-3---------------|
|-------------------------------|-----------------|
|-------------------------------|-----------------|


  E E E E E E E E   E S S S S S S S S S S S S S S
|-----------------|-------------------------------|
|-----------------|-------------------------------|
|-----------------|-0-0-0-0-0-0-0-0-0-0-0-0-0-0-0-|
|-3-3-3-3-3-3-3-3-|-------------------------------|
|-----------------|-------------------------------|
|
| W                 W
|-----------------|-------------------------------|
|-----------------|-------------------------------|
|-4---------------|-2-----------------------------|
|-5---------------|-2-----------------------------|
|-----------------|-------------------------------|
|-----------------|-------------------------------|


   E  S S S S E S S S S S S S S
|-------------------------------|
|-------------------------------|
|--0--0-0-0-0-0-0-0-0-0-0-0-0-0-|
|-------------------------------|
|-------------------------------|
|
| +W
|-------------------------------|
|-------------------------------|
|-(2)---------------------------|
|-(2)---------------------------|
|-------------------------------|
|-------------------------------|


  E E E E E E E E   E E E E E E E E   E S S S S E S S S S S S S S
|-----------------|-----------------|-----------------------------|
|-----------------|-----------------|-----------------------------|
|-3-3-3-3-3-3-3-3-|-----------------|-0-0-0-0-0-0-0-0-0-0-0-0-0-0-|
|-----------------|-3-3-3-3-3-3-3-3-|-----------------------------|
|-----------------|-----------------|-----------------------------|
|
| W                 W                 W
|-----------------|-----------------|-----------------------------|
|-5---------------|-3---------------|-----------------------------|
|-5---------------|-4---------------|-2---------------------------|
|-5---------------|-5---------------|-2---------------------------|
|-----------------|-----------------|-----------------------------|
|-----------------|-----------------|-----------------------------|


   E  S S S S E S S S S S S S S   E E E E E E E E   E E E E E E E E
|-------------------------------|-----------------|-----------------|
|-------------------------------|-----------------|-----------------|
|--0--0-0-0-0-0-0-0-0-0-0-0-0-0-|-----------------|-----------------|
|-------------------------------|-1-1-1-1-1-1-1-1-|-3-3-3-3-3-3-3-3-|
|-------------------------------|-----------------|-----------------|
|
| +W                              W                 W
|-------------------------------|-----------------|-----------------|
|-------------------------------|-----------------|-----------------|
|-(2)---------------------------|-2---------------|-4---------------|
|-(2)---------------------------|-3---------------|-5---------------|
|-------------------------------|-----------------|-----------------|
|-------------------------------|-----------------|-----------------|


  E S S S S E S S S S S S S S    E  S S S S E S S S S S S S S
|-----------------------------|-------------------------------|
|-----------------------------|-------------------------------|
|-0-0-0-0-0-0-0-0-0-0-0-0-0-0-|--0--0-0-0-0-0-0-0-0-0-0-0-0-0-|
|-----------------------------|-------------------------------|
|-----------------------------|-------------------------------|
|
| W                             +W
|-----------------------------|-------------------------------|
|-----------------------------|-------------------------------|
|-2---------------------------|-(2)---------------------------|
|-2---------------------------|-(2)---------------------------|
|-----------------------------|-------------------------------|
|-----------------------------|-------------------------------|


  E E E Q.   Q    E E E E E E Q
|-------0-------|-5-4-0-2--------||
|-----2------2--|---------2---2--||
|-3-2-----------|-----------3----||
|---------------|----------------||
|---------------|----------------||
|
| W               W
|---------------|----------------||
|-5-------------|-3--------------||
|-5-------------|-4--------------||
|-5-------------|-5--------------||
|---------------|----------------||
|---------------|----------------||


 Pre-Chorus
   E  S S  S S  S S  S S  S S  S S  S S
|---------------------------------------|
|---------------------------------------|
|--0--0-0--0-0--0-0--0-0--0-0--0-0--0-0-|
|---------------------------------------|
|---------------------------------------|
|
|  E  E    E    E    E    E    E    E
|-24-----------22---24-------------22---|
|-17-22---25---15---17---22---25---15---|
|----14---17-------------14---17--------|
|---------------------------------------|
|---------------------------------------|
|---------------------------------------|


   S S  S S  S S  S S  S S  S S  S S  S S
|-----------------------------------------|
|-----------------------------------------|
|--0-0--0-0--0-0--0-0--0-0--0-0--0-0--0-0-|
|-----------------------------------------|
|-----------------------------------------|
|
|  E    E    E    E    E    E    E    E
|-22-------------22---24---25---24---22---|
|-17---22---25---15---17---18---17---15---|
|------14---17----------------------------|
|-----------------------------------------|
|-----------------------------------------|
|-----------------------------------------|


   S S  S S  S S  S S  S S  S S  S S  S S
|-----------------------------------------|
|-----------------------------------------|
|-----------------------------------------|
|--1-1--1-1--1-1--1-1--1-1--1-1--1-1--1-1-|
|-----------------------------------------|
|
|  E    E    E    E    E    E    E    E
|-25------------------25------------------|
|-18---22---24---25---18---22---24---25---|
|------14---16---17--------14---16---17---|
|-----------------------------------------|
|-----------------------------------------|
|-----------------------------------------|


   S S  S S  S S  S S  S S  S S  S S  S S
|-----------------------------------------|
|-----------------------------------------|
|-----------------------------------------|
|--1-1--1-1--1-1--1-1--1-1--1-1--1-1--1-1-|
|-----------------------------------------|
|
|  E    E    E    E    E    E    E    E
|-25------------------25---24---22--------|
|-18---22---24---25---18---17---15---25---|
|------14---16---17------------------17---|
|-----------------------------------------|
|-----------------------------------------|
|-----------------------------------------|


   E  S S  S S  S S  S S  S S  S S  S S
|---------------------------------------|
|---------------------------------------|
|--0--0-0--0-0--0-0--0-0--0-0--0-0--0-0-|
|---------------------------------------|
|---------------------------------------|
|
|  E  E    E    E    E    E    E    E
|-24-----------22---24-------------22---|
|-17-22---25---15---17---22---25---15---|
|----14---17-------------14---17--------|
|---------------------------------------|
|---------------------------------------|
|---------------------------------------|


   S S  S S  S S  S S  S S  S S  S S  S S
|-----------------------------------------|
|-----------------------------------------|
|--0-0--0-0--0-0--0-0--0-0--0-0--0-0--0-0-|
|-----------------------------------------|
|-----------------------------------------|
|
|  E    E    E    E    E    E    E    E
|-22-------------22---24---25---24---22---|
|-17---22---25---15---17---18---17---15---|
|------14---17----------------------------|
|-----------------------------------------|
|-----------------------------------------|
|-----------------------------------------|


   E  E  E  E  E  E  E  E    E  E  E  E  E  E  E  E
|-------------------------|--0--0--0--0--0--0--0--0-|
|-----------------------2-|-------------------------|
|--3--3--3--3--3--3--3----|-------------------------|
|-------------------------|-------------------------|
|-------------------------|-------------------------|
|
|  E  E  E  E  E  E  E  E    E  E  E  E  E  E  E  E
|----------22-24-22-------|-------------22-24-22----|
|-25----25-15-17-15-25----|-25----24-25-15-17-15-24-|
|-17-24-17----------17-24-|-17-24-16-17----------16-|
|----17----------------17-|----17-------------------|
|-------------------------|-------------------------|
|-------------------------|-------------------------|


   S S S S S S S S S S S S S S S S
|-----------------------------------|
|-----------------------------------|
|-----------------------------------|
|--0-0-0-0-0-0-0-0-0-0-0-0-0-0-0-0--|
|-----------------------------------|
|
|  W
|-19--------------------------------|
|-12--------------------------------|
|-----------------------------------|
|-----------------------------------|
|-----------------------------------|
|-----------------------------------|


   S S S S S S S S  S S S S S S S S    S S S S S S S S S S S S S S S S
|-----------------------------------|----------------------------------|
|-----------------------------------|----------------------------------|
|-----------------------------------|----------------------------------|
|--0-0-0-0-0-0-0-0--0-0-0-0-0-0-0-0-|--1-1-1-1-1-1-1-1-1-1-1-1-1-1-1-1-|
|-----------------------------------|----------------------------------|
|
|  H                H                  W
|-24---------------19---------------|-20-------------------------------|
|-17---------------12---------------|-13-------------------------------|
|-----------------------------------|----------------------------------|
|-----------------------------------|----------------------------------|
|-----------------------------------|----------------------------------|
|-----------------------------------|----------------------------------|


   S S S S S S S S  S S S S S S S S    S S S S S S S S S S S S S S S S
|-----------------------------------|----------------------------------|
|-----------------------------------|--0-0-0-0-0-0-0-0-0-0-0-0-0-0-0-0-|
|-----------------------------------|----------------------------------|
|--1-1-1-1-1-1-1-1--1-1-1-1-1-1-1-1-|----------------------------------|
|-----------------------------------|----------------------------------|
|
|  H                H                  W
|-17---------------19---------------|-20-------------------------------|
|-10---------------12---------------|-13-------------------------------|
|-----------------------------------|----------------------------------|
|-----------------------------------|----------------------------------|
|-----------------------------------|----------------------------------|
|-----------------------------------|----------------------------------|


   S S S S S S S S  S S S S S S S S
|-----------------------------------|
|--0-0-0-0-0-0-0-0--0-0-0-0-0-0-0-0-|
|-----------------------------------|
|-----------------------------------|
|-----------------------------------|
|
|  H                H
|-22---------------24---------------|
|-15---------------17---------------|
|-----------------------------------|
|-----------------------------------|
|-----------------------------------|
|-----------------------------------|


   S S S S S S S S S S S S S S S S    E E E E E E E E
|--0-0-0-0-0-0-0-0-0-0-0-0-0-0-0-0-|--0-2-4-5-4-2-0-----||
|----------------------------------|----------------2---||
|----------------------------------|--------------------||
|----------------------------------|--------------------||
|----------------------------------|--------------------||
|
|  W                                  W
|-27-------------------------------|-22-----------------||
|-20-------------------------------|-15-----------------||
|----------------------------------|--------------------||
|----------------------------------|--------------------||
|----------------------------------|--------------------||
|----------------------------------|--------------------||


 Chorus
   E E E E E E E E     E  E E E E E E E
|------------------|--------------------|
|------------------|--------------------|
|--0-0-0-0-0-0-0-0-|--------------------|
|------------------|---1--1-1-1-1-1-1-1-|
|------------------|--------------------|
|
|  W                   W
|-20---------------|-(20)---------------|
|-22---------------|-(22)---------------|
|-17---------------|--17----------------|
|------------------|--------------------|
|------------------|--------------------|
|------------------|--------------------|


    E  E E E E E E E     E  E E E E E E E
|--------------------|--------------------|
|--------------------|--------------------|
|---3--3-3-3-3-3-3-3-|--------------------|
|--------------------|---3--3-3-3-3-3-3-3-|
|--------------------|--------------------|
|
|   W                    W
|-(20)---------------|--19----------------|
|--20----------------|-(20)---------------|
|--17----------------|--16----------------|
|--------------------|--------------------|
|--------------------|--------------------|
|--------------------|--------------------|


   E E E E E E E E     E  E E E E E E E
|------------------|--------------------|
|------------------|--------------------|
|--0-0-0-0-0-0-0-0-|--------------------|
|------------------|---1--1-1-1-1-1-1-1-|
|------------------|--------------------|
|
|  W                   W
|-20---------------|-(20)---------------|
|-22---------------|-(22)---------------|
|-17---------------|--17----------------|
|------------------|--------------------|
|------------------|--------------------|
|------------------|--------------------|


    E  E E E E E E E    E E E E   E  E E E
|--------------------|---------------------|
|--------------------|---------------------|
|---3--3-3-3-3-3-3-3-|---------------------|
|--------------------|--3---3-----3----3---|
|--------------------|----4---4------4---4-|
|
|   W                   H         H
|-(20)---------------|-15--------22--------|
|--20----------------|-12-------(12)-------|
|--17----------------|-12-------(12)-------|
|--------------------|---------------------|
|--------------------|---------------------|
|--------------------|---------------------|


   E E E E E E E E     E  E E E E E E E
|------------------|--------------------|
|------------------|--------------------|
|--0-0-0-0-0-0-0-0-|--------------------|
|------------------|---1--1-1-1-1-1-1-1-|
|------------------|--------------------|
|
|  W                   W
|-20---------------|-(20)---------------|
|-22---------------|-(22)---------------|
|-17---------------|--17----------------|
|------------------|--------------------|
|------------------|--------------------|
|------------------|--------------------|


    E  E E E E E E E     E  E E E E E E E
|--------------------|--------------------|
|--------------------|--------------------|
|---3--3-3-3-3-3-3-3-|--------------------|
|--------------------|---3--3-3-3-3-3-3-3-|
|--------------------|--------------------|
|
|   W                    W
|-(20)---------------|--19----------------|
|--20----------------|-(20)---------------|
|--17----------------|--16----------------|
|--------------------|--------------------|
|--------------------|--------------------|
|--------------------|--------------------|


   E E E E E E E E     E  E E E E E E E
|------------------|--------------------|
|------------------|--------------------|
|--0-0-0-0-0-0-0-0-|--------------------|
|------------------|---1--1-1-1-1-1-1-1-|
|------------------|--------------------|
|
|  W                   W
|-20---------------|-(20)---------------|
|-22---------------|-(22)---------------|
|-17---------------|--17----------------|
|------------------|--------------------|
|------------------|--------------------|
|------------------|--------------------|


    E  E E E E E E E    E E E E E E E E
|--------------------|------------------|
|--------------------|------------------|
|---3--3-3-3-3-3-3-3-|------------------|
|--------------------|--3-3-3-3-3-3-3-3-|
|--------------------|------------------|
|
|   W                   W
|-(20)---------------|-15---------------|
|--20----------------|-12---------------|
|--17----------------|-12---------------|
|--------------------|------------------|
|--------------------|------------------|
|--------------------|------------------|


   E  S S  S S  S S  S S  S S  S S  S S    E  S S  S S  E  S S  S S  Q
|---------------------------------------|---------------------------------|
|---------------------------------------|---------------------------------|
|--0--0-0--0-0--0-0--0-0--0-0--0-0--0-0-|--0--0-0--0-0--0--0-0--0-0--0S===|
|---------------------------------------|---------------------------------|
|---------------------------------------|---------------------------------|
|
|  E  E    E    E    E    E    E    E      E  E    E    E  E    E    E  E
|----24---22---24---20---24--------24---|----20---22---24-22---20---22-24-|
|-22--------------------------24--------|-22------------------------------|
|---------------------------------------|---------------------------------|
|---------------------------------------|---------------------------------|
|---------------------------------------|---------------------------------|
|---------------------------------------|---------------------------------|


   S S  S S  S S  S S  S S  S S  S S  S S
|-----------------------------------------|
|-----------------------------------------|
|--8-8--8-8--8-8--8-8--8-8--8-8--8-8--8-8-|
|-----------------------------------------|
|-----------------------------------------|
|
|  E    E    E    E    E    E    E    E
|------20--------20--------20--------20---|
|-18--------24--------22--------20--------|
|-----------------------------------------|
|-----------------------------------------|
|-----------------------------------------|
|-----------------------------------------|


   S S  S S  S S  S S  S S  S S  S S  S S
|-----------------------------------------|
|-----------------------------------------|
|--8-8--8-8--8-8--8-8--8-8--8-8--8-8--8-8-|
|-----------------------------------------|
|-----------------------------------------|
|
|  E    E    E    E    E    E    E    E
|------17--------20--------17--------20---|
|-18--------24--------24--------24--------|
|-----------------------------------------|
|-----------------------------------------|
|-----------------------------------------|
|-----------------------------------------|


   S S  S S  S S  S S  S S  S S  S S  S S
|-----------------------------------------|
|--5-5--5-5--5-5--5-5--5-5--5-5--5-5--5-5-|
|-----------------------------------------|
|-----------------------------------------|
|-----------------------------------------|
|
|  E    E    E    E    E    E    E    E
|------22---20---22--------22--------22---|
|-20------------------24--------22--------|
|-----------------------------------------|
|-----------------------------------------|
|-----------------------------------------|
|-----------------------------------------|


   S S  S S  S S  S S  S S  S S  Q
|---------------------------------------|
|--5-5--5-5--5-5--5-5--5-5--5-5--5\-----|
|---------------------------------------|
|---------------------------------------|
|---------------------------------------|
|
|  E    E    E    E    E    E    E   E
|-----------20---22---20--------20--22--|
|-20---24------------------24-----------|
|---------------------------------------|
|---------------------------------------|
|---------------------------------------|
|---------------------------------------|


   Q   E  Q  E  E E    Q   E  Q  E  E E
|-------------------|-------------------||
|-------------------|-------------------||
|-------------------|-------------------||
|--5---3--5--5--5-5-|--5---3--5--5--5-5-||
|-------------------|-------------------||
|
|  Q   E  Q  Q.        Q   E  Q  Q.
|-17--15-17---------|-17--15-17---------||
|-------------------|-------------------||
|-------------------|-------------------||
|-------------------|-------------------||
|-------------------|-------------------||
|-------------------|-------------------||
|
| Gtr III
|  Q   E  Q  Q.        Q   E  Q  Q.
|-20--19-20---------|-20--19-20---------||
|-22--20-22---------|-22--20-22---------||
|-------------------|-------------------||
|-------------------|-------------------||
|-------------------|-------------------||
|-------------------|-------------------||


 Verse 2
  E S S S S S S S S S S S S S S
|-------------------------------|
|-------------------------------|
|-0-0-0-0-0-0-0-0-0-0-0-0-0-0-0-|
|-------------------------------|
|-------------------------------|
|
| W
|-------------------------------|
|-------------------------------|
|-2-----------------------------|
|-2-----------------------------|
|-------------------------------|
|-------------------------------|


   E  S S S S E S S S S S S S S   E E E E E E E E
|-------------------------------|-----------------|
|-------------------------------|---------3-3-----|
|--0--0-0-0-0-0-0-0-0-0-0-0-0-0-|-----3-3-----3-3-|
|-------------------------------|-1-1-------------|
|-------------------------------|-----------------|
|
| +W                              W
|-------------------------------|-----------------|
|-------------------------------|-----------------|
|-(2)---------------------------|-2---------------|
|-(2)---------------------------|-3---------------|
|-------------------------------|-----------------|
|-------------------------------|-----------------|


  E E E E E E E E   E S S S S S S S S S S S S S S
|-----------------|-------------------------------|
|-----------------|-------------------------------|
|-----------------|-0-0-0-0-0-0-0-0-0-0-0-0-0-0-0-|
|-3-3---0-2-3---4-|-------------------------------|
|-----4-------4---|-------------------------------|
|
| W                 W
|-----------------|-------------------------------|
|-----------------|-------------------------------|
|-4---------------|-2-----------------------------|
|-5---------------|-2-----------------------------|
|-----------------|-------------------------------|
|-----------------|-------------------------------|


   E  S S S S E S S S S S S S S
|-------------------------------|
|-------------------------------|
|--0--0-0-0-0-0-0-0-0-0-0-0-0-0-|
|-------------------------------|
|-------------------------------|
|
| +W
|-------------------------------|
|-------------------------------|
|-(2)---------------------------|
|-(2)---------------------------|
|-------------------------------|
|-------------------------------|


  E E E E E E E E   E E E E E E E E   E S S S S E S S S S S S S S
|---------0-0-----|-----------------|-----------------------------|
|-----2-2-----2---|-----------------|-----------------------------|
|-3-3-----------3-|-----------------|-0-0-0-0-0-0-0-0-0-0-0-0-0-0-|
|-----------------|-3-3-3-3-3-3-3-3-|-----------------------------|
|-----------------|-----------------|-----------------------------|
|
| W                 W                 W
|-----------------|-----------------|-----------------------------|
|-5---------------|-3---------------|-----------------------------|
|-5---------------|-4---------------|-2---------------------------|
|-5---------------|-5---------------|-2---------------------------|
|-----------------|-----------------|-----------------------------|
|-----------------|-----------------|-----------------------------|


   E  S S S S E S S S S S S S S   E E E E E E E E   E E E E E E E E
|-------------------------------|-----------------|-----------------|
|-------------------------------|---------3-3-----|-----------------|
|--0--0-0-0-0-0-0-0-0-0-0-0-0-0-|-----3-3-----3-3-|-----------------|
|-------------------------------|-1-1-------------|-3-3-0-0-3-3-4-4-|
|-------------------------------|-----------------|-----------------|
|
| +W                              W                 W
|-------------------------------|-----------------|-----------------|
|-------------------------------|-----------------|-----------------|
|-(2)---------------------------|-2---------------|-4---------------|
|-(2)---------------------------|-3---------------|-5---------------|
|-------------------------------|-----------------|-----------------|
|-------------------------------|-----------------|-----------------|


  E S S S S E S S S S S S S S    E  S S S S E S S S S S S S S
|-----------------------------|-------------------------------|
|-----------------------------|-------------------------------|
|-0-0-0-0-0-0-0-0-0-0-0-0-0-0-|--0--0-0-0-0-0-0-0-0-0-0-0-0-0-|
|-----------------------------|-------------------------------|
|-----------------------------|-------------------------------|
|
| W                             +W
|-----------------------------|-------------------------------|
|-----------------------------|-------------------------------|
|-2---------------------------|-(2)---------------------------|
|-2---------------------------|-(2)---------------------------|
|-----------------------------|-------------------------------|
|-----------------------------|-------------------------------|


  E E E Q.   Q    E E E E E E Q
|-------0-------|----------------||
|-----2------2--|-2---2---2------||
|-3-2-----------|---3---3---3-2--||
|---------------|----------------||
|---------------|----------------||
|
| W               W
|---------------|----------------||
|-5-------------|-3--------------||
|-5-------------|-4--------------||
|-5-------------|-5--------------||
|---------------|----------------||
|---------------|----------------||


 Pre-Chorus
   E  S S  S S  S S  S S  S S  S S  S S
|---------------------------------------|
|---------------------------------------|
|--0--0-0--0-0--0-0--0-0--0-0--0-0--0-0-|
|---------------------------------------|
|---------------------------------------|
|
|  E  E    E    E    E    E    E    E
|-24-----------22---24-------------22---|
|-17-22---25---15---17---22---25---15---|
|----14---17-------------14---17--------|
|---------------------------------------|
|---------------------------------------|
|---------------------------------------|


   S S  S S  S S  S S  S S  S S  S S  S S
|-----------------------------------------|
|-----------------------------------------|
|--0-0--0-0--0-0--0-0--0-0--0-0--0-0--0-0-|
|-----------------------------------------|
|-----------------------------------------|
|
|  E    E    E    E    E    E    E    E
|-22-------------22---24---25---24---22---|
|-17---22---25---15---17---18---17---15---|
|------14---17----------------------------|
|-----------------------------------------|
|-----------------------------------------|
|-----------------------------------------|


   S S  S S  S S  S S  S S  S S  S S  S S
|-----------------------------------------|
|-----------------------------------------|
|-----------------------------------------|
|--1-1--1-1--1-1--1-1--1-1--1-1--1-1--1-1-|
|-----------------------------------------|
|
|  E    E    E    E    E    E    E    E
|-25------------------25------------------|
|-18---22---24---25---18---22---24---25---|
|------14---16---17--------14---16---17---|
|-----------------------------------------|
|-----------------------------------------|
|-----------------------------------------|


   S S  S S  S S  S S  S S  S S  S S  S S
|-----------------------------------------|
|-----------------------------------------|
|-----------------------------------------|
|--1-1--1-1--1-1--1-1--1-1--1-1--1-1--1-1-|
|-----------------------------------------|
|
|  E    E    E    E    E    E    E    E
|-25------------------25---24---22--------|
|-18---22---24---25---18---17---15---25---|
|------14---16---17------------------17---|
|-----------------------------------------|
|-----------------------------------------|
|-----------------------------------------|


   E  S S  S S  S S  S S  S S  S S  S S
|---------------------------------------|
|---------------------------------------|
|--0--0-0--0-0--0-0--0-0--0-0--0-0--0-0-|
|---------------------------------------|
|---------------------------------------|
|
|  E  E    E    E    E    E    E    E
|-24-----------22---24-------------22---|
|-17-22---25---15---17---22---25---15---|
|----14---17-------------14---17--------|
|---------------------------------------|
|---------------------------------------|
|---------------------------------------|


   S S  S S  S S  S S  S S  S S  S S  S S
|-----------------------------------------|
|-----------------------------------------|
|--0-0--0-0--0-0--0-0--0-0--0-0--0-0--0-0-|
|-----------------------------------------|
|-----------------------------------------|
|
|  E    E    E    E    E    E    E    E
|-22-------------22---24---25---24---22---|
|-17---22---25---15---17---18---17---15---|
|------14---17----------------------------|
|-----------------------------------------|
|-----------------------------------------|
|-----------------------------------------|


   E  E  E  E  E  E  E  E    E  E  E  E  E  E  E  E
|-------------------------|-------------------------|
|-------------------------|-------------------------|
|--3--3--3--3--3--3--3--3-|-------------------------|
|-------------------------|--3--3--3--3--3--3--3--3-|
|-------------------------|-------------------------|
|
|  E  E  E  E  E  E  E  E    E  E  E  E  E  E  E  E
|----------22-24-22-------|-------------22-24-22----|
|-25----25-15-17-15-25----|-25----24-25-15-17-15-24-|
|-17-24-17----------17-24-|-17-24-16-17----------16-|
|----17----------------17-|----17-------------------|
|-------------------------|-------------------------|
|-------------------------|-------------------------|


   S S S S S S S S S S S S S S S S
|-----------------------------------|
|-----------------------------------|
|-----------------------------------|
|--0-0-0-0-0-0-0-0-0-0-0-0-0-0-0-0--|
|-----------------------------------|
|
|  W
|-19--------------------------------|
|-12--------------------------------|
|-----------------------------------|
|-----------------------------------|
|-----------------------------------|
|-----------------------------------|


   S S S S S S S S  S S S S S S S S    S S S S S S S S S S S S S S S S
|-----------------------------------|----------------------------------|
|-----------------------------------|----------------------------------|
|-----------------------------------|----------------------------------|
|--0-0-0-0-0-0-0-0--0-0-0-0-0-0-0-0-|--1-1-1-1-1-1-1-1-1-1-1-1-1-1-1-1-|
|-----------------------------------|----------------------------------|
|
|  H                H                  W
|-24---------------19---------------|-20-------------------------------|
|-17---------------12---------------|-13-------------------------------|
|-----------------------------------|----------------------------------|
|-----------------------------------|----------------------------------|
|-----------------------------------|----------------------------------|
|-----------------------------------|----------------------------------|


   S S S S S S S S  S S S S S S S S    S S S S S S S S S S S S S S S S
|-----------------------------------|----------------------------------|
|-----------------------------------|--0-0-0-0-0-0-0-0-0-0-0-0-0-0-0-0-|
|-----------------------------------|----------------------------------|
|--1-1-1-1-1-1-1-1--1-1-1-1-1-1-1-1-|----------------------------------|
|-----------------------------------|----------------------------------|
|
|  H                H                  W
|-17---------------19---------------|-20-------------------------------|
|-10---------------12---------------|-13-------------------------------|
|-----------------------------------|----------------------------------|
|-----------------------------------|----------------------------------|
|-----------------------------------|----------------------------------|
|-----------------------------------|----------------------------------|


   S S S S S S S S  S S S S S S S S
|-----------------------------------|
|--0-0-0-0-0-0-0-0--0-0-0-0-0-0-0-0-|
|-----------------------------------|
|-----------------------------------|
|-----------------------------------|
|
|  H                H
|-22---------------24---------------|
|-15---------------17---------------|
|-----------------------------------|
|-----------------------------------|
|-----------------------------------|
|-----------------------------------|


   S S S S S S S S S S S S S S E    E E S S E E E Q
|--0-0-0-0-0-0-0-0-0-0-0-0-0-0-5-|--7-9-9-9-9-9-9-9\----||
|--------------------------------|----------------------||
|--------------------------------|----------------------||
|--------------------------------|----------------------||
|--------------------------------|----------------------||
|
|  W                                W
|-27-----------------------------|-22-------------------||
|-20-----------------------------|-15-------------------||
|--------------------------------|----------------------||
|--------------------------------|----------------------||
|--------------------------------|----------------------||
|--------------------------------|----------------------||


 Chorus
   E E E E E E E E     E  E E E E E E E
|------------------|--------------------|
|------------------|--------------------|
|--0-0-0-0-0-0-0-0-|--------------------|
|------------------|---1--1-1-1-1-1-1-1-|
|------------------|--------------------|
|
|  W                   W
|-20---------------|-(20)---------------|
|-22---------------|-(22)---------------|
|-17---------------|--17----------------|
|------------------|--------------------|
|------------------|--------------------|
|------------------|--------------------|


    E  E E E E E E E     E  E E E E E E E
|--------------------|--------------------|
|--------------------|--------------------|
|---3--3-3-3-3-3-3-3-|--------------------|
|--------------------|---3--3-3-3-3-3-3-3-|
|--------------------|--------------------|
|
|   W                    W
|-(20)---------------|--19----------------|
|--20----------------|-(20)---------------|
|--17----------------|--16----------------|
|--------------------|--------------------|
|--------------------|--------------------|
|--------------------|--------------------|


   E E E E E E E E     E  E E E E E E E
|------------------|--------------------|
|------------------|--------------------|
|--0-0-0-0-0-0-0-0-|--------------------|
|------------------|---1--1-1-1-1-1-1-1-|
|------------------|--------------------|
|
|  W                   W
|-20---------------|-(20)---------------|
|-22---------------|-(22)---------------|
|-17---------------|--17----------------|
|------------------|--------------------|
|------------------|--------------------|
|------------------|--------------------|


    E  E E E E E E E    E E E E   E  E E E
|--------------------|---------------------|
|--------------------|---------------------|
|---3--3-3-3-3-3-3-3-|---------------------|
|--------------------|--3-3-3-3---3--3-3-3-|
|--------------------|---------------------|
|
|   W                   H         H
|-(20)---------------|-15--------22--------|
|--20----------------|-12-------(12)-------|
|--17----------------|-12-------(12)-------|
|--------------------|---------------------|
|--------------------|---------------------|
|--------------------|---------------------|


   E E E E E E E E     E  E E E E E E E
|------------------|--------------------|
|------------------|--------------------|
|--0-0-0-0-0-0-0-0-|--------------------|
|------------------|---1--1-1-1-1-1-1-1-|
|------------------|--------------------|
|
|  W                   W
|-20---------------|-(20)---------------|
|-22---------------|-(22)---------------|
|-17---------------|--17----------------|
|------------------|--------------------|
|------------------|--------------------|
|------------------|--------------------|


    E  E E E E E E E     E  E E E E E E E
|--------------------|--------------------|
|--------------------|--------------------|
|---3--3-3-3-3-3-3-3-|--------------------|
|--------------------|---3--3-3-3-3-3-3-3-|
|--------------------|--------------------|
|
|   W                    W
|-(20)---------------|--19----------------|
|--20----------------|-(20)---------------|
|--17----------------|--16----------------|
|--------------------|--------------------|
|--------------------|--------------------|
|--------------------|--------------------|


   E E E E E E E E     E  E E E E E E E
|------------------|--------------------|
|------------------|--------------------|
|--0-0-0-0-0-0-0-0-|--------------------|
|------------------|---1--1-1-1-1-1-1-1-|
|------------------|--------------------|
|
|  W                   W
|-20---------------|-(20)---------------|
|-22---------------|-(22)---------------|
|-17---------------|--17----------------|
|------------------|--------------------|
|------------------|--------------------|
|------------------|--------------------|


    E  E E E E E E E    E E E E E E E E
|--------------------|------------------|
|--------------------|------------------|
|---3--3-3-3-3-3-3-3-|------------------|
|--------------------|--3-3-3-3-3-3-3-3-|
|--------------------|------------------|
|
|   W                   W
|-(20)---------------|-15---------------|
|--20----------------|-12---------------|
|--17----------------|-12---------------|
|--------------------|------------------|
|--------------------|------------------|
|--------------------|------------------|


   S S  S S  S S  S S  S S  S S  S S  S S
|-----------------------------------------|
|-----------------------------------------|
|--0-0--0-0--0-0--0-0--0-0--0-0--0-0--0-0-|
|-----------------------------------------|
|-----------------------------------------|
|
|  E    E    E    E    E    E    E    E
|------24---22---24---20---24--------24---|
|-22----------------------------24--------|
|-----------------------------------------|
|-----------------------------------------|
|-----------------------------------------|
|-----------------------------------------|


   S S  S S  S S  S S  S S  S S  Q
|--------------------------------------|
|--------------------------------------|
|--0-0--0-0--0-0--0-0--0-0--0-0--0S====|
|--------------------------------------|
|--------------------------------------|
|
|  E    E    E    E    E    E    E  E
|------20---22---24---22---20---22-24--|
|-22-----------------------------------|
|--------------------------------------|
|--------------------------------------|
|--------------------------------------|
|--------------------------------------|


   S S  S S  S S  S S  S S  S S  S S  S S
|-----------------------------------------|
|-----------------------------------------|
|--8-8--8-8--8-8--8-8--8-8--8-8--8-8--8-8-|
|-----------------------------------------|
|-----------------------------------------|
|
|  E    E    E    E    E    E    E    E
|------20--------20--------20--------20---|
|-18--------24--------22--------20--------|
|-----------------------------------------|
|-----------------------------------------|
|-----------------------------------------|
|-----------------------------------------|


   S S  S S  S S  S S  S S  S S  S S  E
|---------------------------------------|
|---------------------------------------|
|--8-8--8-8--8-8--8-8--8-8--8-8--8-8--8-|
|---------------------------------------|
|---------------------------------------|
|
|  E    E    E    E    E    E    E    E
|------17--------20--------17--------20-|
|-18--------24--------24--------24------|
|---------------------------------------|
|---------------------------------------|
|---------------------------------------|
|---------------------------------------|


   S S  S S  S S  S S  S S  S S  S S  S S
|-----------------------------------------|
|--5-5--5-5--5-5--5-5--5-5--5-5--5-5--5-5-|
|-----------------------------------------|
|-----------------------------------------|
|-----------------------------------------|
|
|  E    E    E    E    E    E    E    E
|------22---20---22--------22--------22---|
|-20------------------24--------22--------|
|-----------------------------------------|
|-----------------------------------------|
|-----------------------------------------|
|-----------------------------------------|


   S S  S S  S S  S S  S S  S S  Q
|---------------------------------------|
|--5-5--5-5--5-5--5-5--5-5--5-5--5\-----|
|---------------------------------------|
|---------------------------------------|
|---------------------------------------|
|
|  E    E    E    E    E    E    E   E
|-----------20---22---20--------20--22--|
|-20---24------------------24-----------|
|---------------------------------------|
|---------------------------------------|
|---------------------------------------|
|---------------------------------------|


   Q   E  Q  E  E E    Q   E  Q  E  E E
|-------------------|-------------------|
|-------------------|-------------------|
|-------------------|-------------------|
|--5---3--5--5--5-5-|--5---3--5--5--5-5-|
|-------------------|-------------------|
|
|  Q   E  Q  Q.        Q   E  Q  Q.
|-17--15-17---------|-17--15-17---------|
|-------------------|-------------------|
|-------------------|-------------------|
|-------------------|-------------------|
|-------------------|-------------------|
|-------------------|-------------------|
|
| Gtr III
|  Q   E  Q  Q.        Q   E  Q  Q.
|-20--19-20---------|-20--19-20---------|
|-22--20-22---------|-22--20-22---------|
|-------------------|-------------------|
|-------------------|-------------------|
|-------------------|-------------------|
|-------------------|-------------------|


   S S  S S  S S  S S  S S  S S  S S  S S
|-----------------------------------------|
|-----------------------------------------|
|--0-0--0-0--0-0--0-0--0-0--0-0--0-0--0-0-|
|-----------------------------------------|
|-----------------------------------------|
|
|  E    E    E    E    E    E    E    E
|------24---22---24---20---24--------24---|
|-22----------------------------24--------|
|-----------------------------------------|
|-----------------------------------------|
|-----------------------------------------|
|-----------------------------------------|


   S S  S S  S S  S S  S S  S S  Q
|--------------------------------------|
|--------------------------------------|
|--0-0--0-0--0-0--0-0--0-0--0-0--0S====|
|--------------------------------------|
|--------------------------------------|
|
|  E    E    E    E    E    E    E  E
|------20---22---24---22---20---22-24--|
|-22-----------------------------------|
|--------------------------------------|
|--------------------------------------|
|--------------------------------------|
|--------------------------------------|


   S S  S S  S S  S S  S S  S S  S S  S S
|-----------------------------------------|
|-----------------------------------------|
|--8-8--8-8--8-8--8-8--8-8--8-8--8-8--8-8-|
|-----------------------------------------|
|-----------------------------------------|
|
|  E    E    E    E    E    E    E    E
|------20--------20--------20--------20---|
|-18--------24--------22--------20--------|
|-----------------------------------------|
|-----------------------------------------|
|-----------------------------------------|
|-----------------------------------------|


   S S  S S  S S  S S  S S  S S  S S  E
|---------------------------------------|
|---------------------------------------|
|--8-8--8-8--8-8--8-8--8-8--8-8--8-8--8-|
|---------------------------------------|
|---------------------------------------|
|
|  E    E    E    E    E    E    E    E
|------17--------20--------17--------20-|
|-18--------24--------24--------24------|
|---------------------------------------|
|---------------------------------------|
|---------------------------------------|
|---------------------------------------|


   S S  S S  S S  S S  S S  S S  S S  S S
|-----------------------------------------|
|--5-5--5-5--5-5--5-5--5-5--5-5--5-5--5-5-|
|-----------------------------------------|
|-----------------------------------------|
|-----------------------------------------|
|
|  E    E    E    E    E    E    E    E
|------22---20---22--------22--------22---|
|-20------------------24--------22--------|
|-----------------------------------------|
|-----------------------------------------|
|-----------------------------------------|
|-----------------------------------------|


   S S  S S  S S  S S  S S  S S  Q
|---------------------------------------|
|--5-5--5-5--5-5--5-5--5-5--5-5--5\-----|
|---------------------------------------|
|---------------------------------------|
|---------------------------------------|
|
|  E    E    E    E    E    E    E   E
|-----------20---22---20--------20--22--|
|-20---24------------------24-----------|
|---------------------------------------|
|---------------------------------------|
|---------------------------------------|
|---------------------------------------|


   T   T    T    T      T      T   T    T    T
   S S S S  S S  Q  E   E E    S S S S  S S  Q  S  S S S S S
|---------------------------|--------------------------------||
|---------------------------|--------------------------------||
|--7-0-3-0--5-0--7--0--12-0-|--7-0-5-0--4-0--3--0--0-0-0-0-0-||
|---------------------------|--------------------------------||
|---------------------------|--------------------------------||
|
|  Q        E    Q  Q.         Q        E    Q  Q.
|-17-------15---17----------|-17-------15---17---------------||
|---------------------------|--------------------------------||
|---------------------------|--------------------------------||
|---------------------------|--------------------------------||
|---------------------------|--------------------------------||
|---------------------------|--------------------------------||
|
| Gtr III
|  Q        E    Q  Q.         Q        E    Q  Q.
|-20-------19---20----------|-20-------19---20---------------||
|-22-------20---22----------|-22-------20---22---------------||
|---------------------------|--------------------------------||
|---------------------------|--------------------------------||
|---------------------------|--------------------------------||
|---------------------------|--------------------------------||


 Keyboard Solo 1
   W              +W            +W                +W
|--------------|-------------|-----------------|-----------------------|
|--------------|-------------|-----------------|-----------------------|
|--0-----------|--(0)--------|--(0)------------|--(0)------------------|
|--------------|-------------|-----------------|-----------------------|
|--------------|-------------|-----------------|-----------------------|
|
|  W              +W             W                +W
|--------------|-------------|-----------------|-----------------------|
|--------------|-------------|-----------------|-----------------------|
|-14-----------|-(14)--------|--10-------------|-(10)------------------|
|-15-----------|-(15)--------|--10-------------|-(10)------------------|
|-15-----------|-(15)--------|--12-------------|-(12)------------------|
|-17-----------|-(17)--------|--13-------------|-(13)------------------|
|
|                  ~~~~~~~~~~~~~~~~~               ~~~~~~~
|  W              +W            +Q    Q   H        W              a
|-10b12--------|-(10)--------|-(10)--10--12----|--15b17=========(15)r--|
|-12b13--------|-(12)--------|-(12)--12--13----|--15b17=========(15)r--|
|--------------|-------------|-----------------|-----------------------|
|--------------|-------------|-----------------|-----------------------|
|--------------|-------------|-----------------|-----------------------|
|--------------|-------------|-----------------|-----------------------|


  +W              +W               +W                   +W
|--------------|-----------------|-------------------|---------------|
|--------------|-----------------|-------------------|---------------|
|-(0)----------|--(0)------------|-(0)---------------|--(0)----------|
|--------------|-----------------|-------------------|---------------|
|--------------|-----------------|-------------------|---------------|
|
|  W              +W                W                   +W
|--------------|-----------------|-------------------|---------------|
|--------------|-----------------|-------------------|---------------|
|-14-----------|-(14)------------|-10----------------|-(10)----------|
|-15-----------|-(15)------------|-10----------------|-(10)----------|
|-15-----------|-(15)------------|-12----------------|-(12)----------|
|-17-----------|-(17)------------|-13----------------|-(13)----------|
|
|                  ~~~~
|  W              +Q    Q   H       Q.    S  S  H        H      H
|-10b12--------|-(10)--13--15----|-13----15-13-12----|--10-----12----|
|-12b13--------|-(12)--15--17----|-15----17-15-13----|--12-----13----|
|--------------|-----------------|-------------------|---------------|
|--------------|-----------------|-------------------|---------------|
|--------------|-----------------|-------------------|---------------|
|--------------|-----------------|-------------------|---------------|


  Gtr II
   W              +W                  +W                     +W
|--------------|-------------------|----------------------|--------------------|
|--------------|-------------------|----------------------|--------------------|
|-14-----------|-(14)--------------|-(14)-----------------|-(14)---------------|
|-14-----------|-(14)--------------|-(14)-----------------|-(14)---------------|
|-15-----------|-(15)--------------|-(15)-----------------|-(15)---------------|
|-17-----------|-(17)--------------|-(17)-----------------|-(17)---------------|
|
| Gtr III
|                  ~~~~      ~~~~
|  W              +Q    Q    H         W              a       Q    Q   Q   Q
|-15b17--------|-(15)--19---20-----|--22b24=========(22)r-|--20---19--20--22---|
|-15b17--------|-(15)--17--(17)----|--18b20=========(18)--|--17---15--17--18---|
|--------------|-------------------|----------------------|--------------------|
|--------------|-------------------|----------------------|--------------------|
|--------------|-------------------|----------------------|--------------------|
|--------------|-------------------|----------------------|--------------------|


   W
|-------------------------------------------------|
|-------------------------------------------------|
|-10----------------------------------------------|
|-10----------------------------------------------|
|-12----------------------------------------------|
|-13----------------------------------------------|
|
|  S  S  S  S  S  S  S  S  S  S  S  S  S  S  S  S
|-20-19-17----19-17-------------------------------|
|-22-20-18-20-20-18-20-18-17----17-18-20-18-17----|
|----------21-------21-19-17-19-17-19-21-19-17-19-|
|----------------------------21----------------21-|
|-------------------------------------------------|
|-------------------------------------------------|


   +W
|---------------------------------------------------|
|---------------------------------------------------|
|-(10)----------------------------------------------|
|-(10)----------------------------------------------|
|-(12)----------------------------------------------|
|-(13)----------------------------------------------|
|
|   S   S  S  S  S  S  S  S  S  S  S  S  S  S  S  S
|--15--13-12----13-12----------------12-------------|
|------------15-------15-13-12-13-15----15-13-12-10-|
|---------------------------------------------------|
|---------------------------------------------------|
|---------------------------------------------------|
|---------------------------------------------------|


   W
|-------------------------------------------------|
|-------------------------------------------------|
|-14----------------------------------------------|
|-14----------------------------------------------|
|-15----------------------------------------------|
|-17----------------------------------------------|
|
|  S  S  S  S  S  S  S  S  S  S  S  S  S  S  S  S
|----19-20-22-24-22-20-19----19-20-22-24-22-20-19-|
|-22-20-22-24-25-24-22-20-22-20-22-24-25-24-22-20-|
|-22----------------------22----------------------|
|-------------------------------------------------|
|-------------------------------------------------|
|-------------------------------------------------|


   W
|-------------------------------------------------|
|-------------------------------------------------|
|--9----------------------------------------------|
|--9----------------------------------------------|
|-11----------------------------------------------|
|-12----------------------------------------------|
|
|  S  S  S  S  S  S  S  S  S  S  S  S  S  S  S  S
|----19-20-22-24-22-20-19----19-20-22-24-22-20-19-|
|-22-20-22-24-25-24-22-20-22-20-22-24-25-24-22-20-|
|-22----------------------22----------------------|
|-------------------------------------------------|
|-------------------------------------------------|
|-------------------------------------------------|


  Gtr I
   W                                     W
|-------------------------------------|-------------------------------------|
|-------------------------------------|-------------------------------------|
|-------------------------------------|-------------------------------------|
|--5----------------------------------|--1----------------------------------|
|-------------------------------------|-------------------------------------|
|
| Gtr II
|  W                                     W
|-------------------------------------|-------------------------------------|
|-10----------------------------------|--6----------------------------------|
|--9----------------------------------|--5----------------------------------|
|-------------------------------------|-------------------------------------|
|-------------------------------------|-------------------------------------|
|-------------------------------------|-------------------------------------|
|
| Gtr III
|  |---------------3----------------|    |---------------3----------------|
|  E  E  E  E  E  E  E  E  E  E  E  E    E  E  E  E  E  E  E  E  E  E  E  E
|-------12-17-12-17-12-------12----12-|----------13----13-------------------|
|----13----13----13----13-15-13-15-13-|-15-13-13----13----13----12-13-12-13-|
|-14----14----------14----14----------|----14----14----14----14----14----14-|
|-------------------------------------|-15----15----------15----15----------|
|-------------------------------------|-------------------------------------|
|-------------------------------------|-------------------------------------|


   W
|--------------------------------------|
|--------------------------------------|
|--------------------------------------|
|--3-----------------------------------|
|--------------------------------------|
|
|  W
|--------------------------------------|
|--8-----------------------------------|
|--7-----------------------------------|
|--------------------------------------|
|--------------------------------------|
|--------------------------------------|
|
|  |---------------3----------------|
|  E  E  E  E  E  E  E  E  E  E  E  E
|-------10-15-10-15-10-------10----10--|
|-12-12----12----12----12-13-15-13-12--|
|-12-14-12----------12----12-----------|
|--------------------------------------|
|--------------------------------------|
|--------------------------------------|


   E     E     E     E     E     Q.
|--------------------------------------------|
|--------------------------------------------|
|--------------------------------------------|
|--5-----------5-----------5-----------------|
|--------------------------------------------|
|
|  E     E     E     E     E     Q.
|-17----------17----------17-----------------|
|-17----------17----------17-----------------|
|-14----------14----------14-----------------|
|--------------------------------------------|
|--------------------------------------------|
|--------------------------------------------|
|
|                                |--3---|
|  S  S  S  S  S  S  S  S  S  S  E   E  E  E
|-------17-12-17-12-------12-17-12-----------|
|----13-------------13--------------13-------|
|-14-------------------14--------------14----|
|-----------------------------------------14-|
|--------------------------------------------|
|--------------------------------------------|


   W
|-------------------------------------------|
|-------------------------------------------|
|-------------------------------------------|
|--3----------------------------------------|
|-------------------------------------------|
|
|  W
|-------------------------------------------|
|--8----------------------------------------|
|--7----------------------------------------|
|-------------------------------------------|
|-------------------------------------------|
|-------------------------------------------|
|
|  |--3--|                          |--3--|
|  E  E  E  S  S  S  S  S  S  S  S  E  E  E
|-------------------------------------------|
|-------------15-20-15-20-15----------------|
|----------16----------------16-------------|
|-------17----------------------17----------|
|----17----------------------------17-------|
|-19----------------------------------19-15-|


   W                                           W
|-------------------------------------------|-------------------------------------------|
|-------------------------------------------|-------------------------------------------|
|-------------------------------------------|-------------------------------------------|
|--1----------------------------------------|--0----------------------------------------|
|-------------------------------------------|-------------------------------------------|
|
|  W                                           W
|-------------------------------------------|-------------------------------------------|
|--6----------------------------------------|--5----------------------------------------|
|--5----------------------------------------|--4----------------------------------------|
|-------------------------------------------|-------------------------------------------|
|-------------------------------------------|-------------------------------------------|
|-------------------------------------------|-------------------------------------------|
|
|  |--3--|                          |--3--|    |--3--|                          |--3--|
|  E  E  E  S  S  S  S  S  S  S  S  E  E  E    E  E  E  S  S  S  S  S  S  S  S  E  E  E
|-------------------------------------------|-------------------------------------------|
|-------------13-18-13-18-13----------------|-------------12-17-12-17-12----------------|
|----------14----------------14-------------|----------13----------------13-------------|
|-------15----------------------15----------|-------14----------------------14----------|
|----15----------------------------15-------|----14----------------------------14-------|
|-17----------------------------------17-13-|-16----------------------------------16-12-|


   E     E     E     E     E     Q.
|---------------------------------------------------||
|---------------------------------------------------||
|---------------------------------------------------||
|--0-----------0-----------0------------------------||
|---------------------------------------------------||
|
|  E     E     E     E     E     Q.
|-19----------19----------19------------------------||
|-17----------17----------17------------------------||
|--9-----------9-----------9------------------------||
|---------------------------------------------------||
|---------------------------------------------------||
|---------------------------------------------------||
|
|  S  S  S  S  S  S  S  S  S  S  S   S  S  S  S  S
|-----------------------------------------------16--||
|--------------------------------------------17-----||
|-------------------------13----13--16-13-16--------||
|-------------14-------14----14---------------------||
|-------11-14----11-14------------------------------||
|--7-12---------------------------------------------||


 Solo 1
  E S S S S S S S S S S S S S S
|-------------------------------|
|-------------------------------|
|-0-0-0-0-0-0-0-0-0-0-0-0-0-0-0-|
|-------------------------------|
|-------------------------------|
|
| W
|-------------------------------|
|-------------------------------|
|-2-----------------------------|
|-2-----------------------------|
|-------------------------------|
|-------------------------------|


   E  S S S S E S S S S S S S S   E E E E E E E E
|-------------------------------|-----------------|
|-------------------------------|-----------------|
|--0--0-0-0-0-0-0-0-0-0-0-0-0-0-|-----------------|
|-------------------------------|-1-1-1-1-1-1-1-1-|
|-------------------------------|-----------------|
|
| +W                              W
|-------------------------------|-----------------|
|-------------------------------|-----------------|
|-(2)---------------------------|-2---------------|
|-(2)---------------------------|-3---------------|
|-------------------------------|-----------------|
|-------------------------------|-----------------|


  E E E E E E E E   E S S S S S S S S S S S S S S
|-----------------|-------------------------------|
|-----------------|-------------------------------|
|-----------------|-0-0-0-0-0-0-0-0-0-0-0-0-0-0-0-|
|-3-3-3-3-3-3-3-3-|-------------------------------|
|-----------------|-------------------------------|
|
| W                 W
|-----------------|-------------------------------|
|-----------------|-------------------------------|
|-4---------------|-2-----------------------------|
|-5---------------|-2-----------------------------|
|-----------------|-------------------------------|
|-----------------|-------------------------------|


   E  S S S S E S S S S S S S S
|-------------------------------|
|-------------------------------|
|--0--0-0-0-0-0-0-0-0-0-0-0-0-0-|
|-------------------------------|
|-------------------------------|
|
| +W
|-------------------------------|
|-------------------------------|
|-(2)---------------------------|
|-(2)---------------------------|
|-------------------------------|
|-------------------------------|


  E E E E E E E E   E E E E E E E E   E S S S S E S S S S S S S S
|-----------------|-----------------|-----------------------------|
|-----------------|-----------------|-----------------------------|
|-3-3-3-3-3-3-3-3-|-----------------|-0-0-0-0-0-0-0-0-0-0-0-0-0-0-|
|-----------------|-3-3-3-3-3-3-3-3-|-----------------------------|
|-----------------|-----------------|-----------------------------|
|
| W                 W                 W
|-----------------|-----------------|-----------------------------|
|-5---------------|-3---------------|-----------------------------|
|-5---------------|-4---------------|-2---------------------------|
|-5---------------|-5---------------|-2---------------------------|
|-----------------|-----------------|-----------------------------|
|-----------------|-----------------|-----------------------------|


   E  S S S S E S S S S S S S S   E E E E E E E E   E E E E E E E E
|-------------------------------|-----------------|-----------------|
|-------------------------------|-----------------|-----------------|
|--0--0-0-0-0-0-0-0-0-0-0-0-0-0-|-----------------|-----------------|
|-------------------------------|-1-1-1-1-1-1-1-1-|-3-3-3-3-3-3-3-3-|
|-------------------------------|-----------------|-----------------|
|
| +W                              W                 W
|-------------------------------|-----------------|-----------------|
|-------------------------------|-----------------|-----------------|
|-(2)---------------------------|-2---------------|-4---------------|
|-(2)---------------------------|-3---------------|-5---------------|
|-------------------------------|-----------------|-----------------|
|-------------------------------|-----------------|-----------------|


  E S S S S S S S S S S S S S S    E  S S S S E S S S S S S S S
|-------------------------------|-------------------------------|
|-------------------------------|-------------------------------|
|-0-0-0-0-0-0-0-0-0-0-0-0-0-0-0-|--0--0-0-0-0-0-0-0-0-0-0-0-0-0-|
|-------------------------------|-------------------------------|
|-------------------------------|-------------------------------|
|
| W                               +W
|-------------------------------|-------------------------------|
|-------------------------------|-------------------------------|
|-2-----------------------------|-(2)---------------------------|
|-2-----------------------------|-(2)---------------------------|
|-------------------------------|-------------------------------|
|-------------------------------|-------------------------------|


  E E E E E E E E   E E E E E E E E
|-----------------|-------------------||
|-----------------|-------------------||
|-3-3-3-3-3-3-3-3-|-------------------||
|-----------------|-3-3-3-3-3-3-3-3---||
|-----------------|-------------------||
|
| W                 W
|-----------------|-------------------||
|-5---------------|-3-----------------||
|-5---------------|-4-----------------||
|-5---------------|-5-----------------||
|-----------------|-------------------||
|-----------------|-------------------||


 Keyboard Solo 2
   E     S  S  S  S  S  S  S  S  S  S  S  S  S  S
|-------------------------------------------------|
|-------------------------------------------------|
|--0-----0--0--0--0--0--0--0--0--0--0--0--0--0--0-|
|-------------------------------------------------|
|-------------------------------------------------|
|
| Gtr III
|  S  S  S  S  S  S  S  S  S  S  S  S  S  S  S  S
|-17-15-13----15-13----------------13-------------|
|----------17-------17-15----15-17----17-15-------|
|-------------------------17----------------17-16-|
|-------------------------------------------------|
|-------------------------------------------------|
|-------------------------------------------------|


   S  S  S  S  S  S  S  S  S  S  S  S  S  S  S  S
|-------------------------------------------------|
|-------------------------------------------------|
|--0--0--0--0--0--0--0--0--0--0--0--0--0--0--0--0-|
|-------------------------------------------------|
|-------------------------------------------------|
|
|  S  S  S  S  S  S  S  S  S  S  S  S  S  S  S  S
|-17----19----20----22----24----22----20----19----|
|-------------------------------------------------|
|----14----14----14----14----14----14----14----14-|
|-------------------------------------------------|
|-------------------------------------------------|
|-------------------------------------------------|


   S S    S    S  S S    S    S  S S    S    S  S S    S    S
|-------------------------------------------------------------|
|-------------------------------------------------------------|
|-------------------------------------------------------------|
|--1-1----1----1--1-1----1----1--1-1----1----1--1-1----1----1-|
|-------------------------------------------------------------|
|
|  |--------------------------3---------------------------|
|  E    E    E    E    E    E    E    E    E    E    E    E
|------17---19---20---19---17---------------------------------|
|-18----------------------------18---17---18---17---15--------|
|--------------------------------------------------------17---|
|-------------------------------------------------------------|
|-------------------------------------------------------------|
|-------------------------------------------------------------|


   S     S S S S S S S        S S S S  S S    S    S
|----------------------------------------------------|
|----------------------------------------------------|
|----------------------------------------------------|
|--1-----1-1-1-1-1-1-1--------1-1-1-1--1-1----1----1-|
|----------------------------------------------------|
|
|                             ~~
|                                      |----3----|
|  H                     a    Q        E    E    E
|----------------------------------------------------|
|-18b20================(18)r-18-------17---15--------|
|-----------------------------------------------17---|
|----------------------------------------------------|
|----------------------------------------------------|
|----------------------------------------------------|


   E        S  S  S  S  S  S  S  S  S  S  S  S  S  S
|----------------------------------------------------|
|----------------------------------------------------|
|--0--------0--0--0--0--0--0--0--0--0--0--0--0--0--0-|
|----------------------------------------------------|
|----------------------------------------------------|
|
|  |--3--|
|  S  S  S  S  S  S  S  S  S  S  S  S  S  S  S  S  S
|-12-17-12-------15-13-------13----------------------|
|----------15----------17-15----17-15----17-15-------|
|-------------17----------------------17-------17-16-|
|----------------------------------------------------|
|----------------------------------------------------|
|----------------------------------------------------|


   S  S  S  S  S  S  S  S  S  S  S  S  S  S  S  S
|--------------------------------------------------|
|--------------------------------------------------|
|--0--0--0--0--0--0--0--0--0--0--0--0--0--0--0--0--|
|--------------------------------------------------|
|--------------------------------------------------|
|
|  S  S  S  S  S  S  S  S  S  S  S  S  S  S  S  S
|-------------------------13-15-------13-15-17-19--|
|----------15-------15-17-------15-17--------------|
|-14-16-17----16-17--------------------------------|
|--------------------------------------------------|
|--------------------------------------------------|
|--------------------------------------------------|


   E     E E E E E         E      E       E     E E E E E        E     E
|--------------------------------------|------------------------------------|
|--------------------------------------|------------------------------------|
|--3-----3-3-3-3-3---------3------3----|------------------------------------|
|--------------------------------------|--3-----3-3-3-3-3--------3-----3----|
|--------------------------------------|------------------------------------|
|
|  H.                a    +S   S  S  S    H.                a    S  S  S  S
|-20b22============(20)r-(20)-20-19-17-|------------------------------------|
|--------------------------------------|-15b17============(15)r-15-13-12-10-|
|--------------------------------------|------------------------------------|
|--------------------------------------|------------------------------------|
|--------------------------------------|------------------------------------|
|--------------------------------------|------------------------------------|


   S  S  S  S  S  S  S  S  S  S  S  S  S  S  S  S
|--------------------------------------------------|
|--------------------------------------------------|
|--------------------------------------------------|
|--0--0--0--0--0--0--0--0--0--0--0--0--0--0--0--0--|
|--------------------------------------------------|
|
|  S  S  S  S  S  S  S  S  S  S  S  S  S  S  S  S
|-------12-16-------16-19-------19-24-19-----------|
|----12----------17----------21----------21----21--|
|-13----------16----------21----------------21-----|
|--------------------------------------------------|
|--------------------------------------------------|
|--------------------------------------------------|


   S  S  S  S  S  S  S  S  S  S  S  S  S  S  S  S
|-------------------------------------------------|
|-------------------------------------------------|
|-------------------------------------------------|
|--0--0--0--0--0--0--0--0--0--0--0--0--0--0--0--0-|
|-------------------------------------------------|
|
|  S  S  S  S  S  S  S  S  S  S  S  S  S  S  S  S
|-------------------------------------------------|
|-22-21-17-21-17-------------------------------13-|
|----------------16-21-17-16-17-16-14-13-14-16----|
|-------------------------------------------------|
|-------------------------------------------------|
|-------------------------------------------------|


   S  S  S  S  S  S  S  S  S  S  S  S  S  S  S  S
|-------------------------------------------------|
|-------------------------------------------------|
|-------------------------------------------------|
|--1--1--1--1--1--1--1--1--1--1--1--1--1--1--1--1-|
|-------------------------------------------------|
|
|  S  S  S  S  S  S  S  S  S  S  S  S  S  S  S  S
|-13----------------------13----------------------|
|----13----------------13----13----------------13-|
|-------14----------14----------14----------14----|
|----------15----15----------------15----15-------|
|-------------15----------------------15----------|
|-------------------------------------------------|


   S S  S    S     S S  S S  S S  S S  S S  S    S
|-----------------------------------------------------|
|-----------------------------------------------------|
|-----------------------------------------------------|
|--1-1--1----1-----1-1--1-1--1-1--1-1--1-1--1----1----|
|-----------------------------------------------------|
|
|       |---3---|                           |---3---|
|  E    S  S    S  E    E    E    E    E    S  S    S
|-13---12-13---12------12-----------------------------|
|-----------------15--------15---13---15---13-15---13-|
|-----------------------------------------------------|
|-----------------------------------------------------|
|-----------------------------------------------------|
|-----------------------------------------------------|


   S  S S S S S S S S S S S  S S S S
|------------------------------------|
|------------------------------------|
|--0--0-0-0-0-0-0-0-0-0-0-0--0-0-0-0-|
|------------------------------------|
|------------------------------------|
|
|  H.                        Q
|------------------------------------|
|-10------------------------12-------|
|------------------------------------|
|------------------------------------|
|------------------------------------|
|------------------------------------|


   S S S S S S S S  S S S S  S S S S    S  E     S  S  S  S  S  S  S  S  S  S  S  S  S
|------------------------------------|-------------------------------------------------|
|------------------------------------|-------------------------------------------------|
|--0-0-0-0-0-0-0-0--0-0-0-0--0-0-0-0-|--3h=5-----5--5--5--5--5--5--5--5--5--5--5--5--5-|
|------------------------------------|-------------------------------------------------|
|------------------------------------|-------------------------------------------------|
|
|  H                Q        Q          S  S  S  S  S  S  S  S  S  S  S  S  S  S  S  S
|---------------------------13-------|-15----------------------------------------------|
|-13---------------12----------------|----15-------------------------------------------|
|------------------------------------|-------16-------------------------16----16-17-19-|
|------------------------------------|----------17----------17----17-19----17----------|
|------------------------------------|-------------17----17----17----------------------|
|------------------------------------|----------------19-------------------------------|


   S  S  S  S  S  S  S  S  S  S  S  S  S  S  S  S
|-------------------------------------------------||
|-------------------------------------------------||
|--5--5--5--5--5--5--5--5--5--5--5--5--5--5--5--5-||
|-------------------------------------------------||
|-------------------------------------------------||
|
|  S  S  S  S  S  S  S  S  S  S  S  S  S  S  S  S
|-------------------------------------------------||
|-------------------------------------------------||
|-22-12-21-12-19-12-17-12-16-12-17-12-19-12-16-12-||
|-------------------------------------------------||
|-------------------------------------------------||
|-------------------------------------------------||


 Solo 2
  Q  Q  Q  Q    Q  Q  Q  Q    Q  Q  Q  Q    Q  Q  Q  Q
|-------------|-------------|-------------|-------------|
|-------------|-------------|-------------|-------------|
|-0-----------|-------------|-0-----------|-------------|
|-------3-----|-1-----3-----|-------3-----|-1-----3-----|
|-------------|-------------|-------------|-------------|
|
| Gtr II
| Q  Q  Q  Q    Q  Q  Q  Q    Q  Q  Q  Q    Q  Q  Q  Q
|-------------|-------------|-------------|-------------|
|-------------|-------------|-------------|-------------|
|-2-----------|-2-----------|-2-----------|-2-----------|
|-2-----5-----|-3-----5-----|-2-----5-----|-3-----5-----|
|-------------|-------------|-------------|-------------|
|-------3-----|-------3-----|-------3-----|-------3-----|


  Q  Q  Q  Q    Q  Q  Q  Q    Q  Q  Q  Q    Q  Q  Q  Q
|-------------|-------------|-------------|-------------|
|-------------|-------------|-------------|-------------|
|-0-----3-----|-------3-----|-0-----3-----|-------3-----|
|-------------|-3-----------|-------------|-3-----------|
|-------------|-------------|-------------|-------------|
|
| Q  Q  Q  Q    Q  Q  Q  Q    Q  Q  Q  Q    Q  Q  Q  Q
|-------------|-------------|-------------|-------------|
|-------------|-------------|-------------|-------------|
|-2-----5-----|-------5-----|-2-----5-----|-------5-----|
|-2-----5-----|-5-----5-----|-2-----5-----|-5-----5-----|
|-------------|-------------|-------------|-------------|
|-------------|-3-----------|-------------|-3-----------|


  Q  Q  Q  Q    Q  Q  Q  Q    W          E E E E E E E E
|-------------|-------------|----------|-----------------||
|-------------|-------------|----------|-----------------||
|-0-----------|-------5-----|-7--------|-----------------||
|-------3-----|-1-----------|-0--------|-0---1---3---1---||
|-------------|-------------|----------|-----------------||
|
| Q  Q  Q  Q    Q  Q  Q  Q    W          E E E E E E E E
|-------------|-------------|----------|-----------------||
|-------------|-------------|----------|-----------------||
|-2-----------|-2-----7-----|----------|-----------------||
|-2-----5-----|-3-----7-----|-2--------|-----------------||
|-------------|-------------|-2--------|-2---3---5---3---||
|-------3-----|-------------|-0--------|-0---1---3---1---||


 Solo 3
  S S S S S S S S S S S S S S S S   S S S S S S S S S S S S S S S S
|---------------------------------|---------------------------------|
|---------------------------------|---------------------------------|
|-0-0-0-0-0-0-0-0-----------------|---------------------------------|
|-----------------3-3-3-3-3-3-3-3-|-1-1-1-1-1-1-1-1-3-3-3-3-3-3-3-3-|
|---------------------------------|---------------------------------|
|
| H               H                 H               H
|---------------------------------|---------------------------------|
|---------------------------------|---------------------------------|
|---------------------------------|---------------------------------|
|---------------------------------|---------------------------------|
|-7---------------5---------------|-3---------------5---------------|
|-5---------------3---------------|-1---------------3---------------|


  S S S S S S S S S S S S S S S S   S S S S S S S S S S S S S S S S
|---------------------------------|---------------------------------|
|---------------------------------|---------------------------------|
|-0-0-0-0-0-0-0-0-----------------|---------------------------------|
|-----------------3-3-3-3-3-3-3-3-|-1-1-1-1-1-1-1-1-3-3-3-3-3-3-3-3-|
|---------------------------------|---------------------------------|
|
| H               H                 H               H
|---------------------------------|---------------------------------|
|---------------------------------|---------------------------------|
|---------------------------------|---------------------------------|
|---------------------------------|---------------------------------|
|-7---------------5---------------|-3---------------5---------------|
|-5---------------3---------------|-1---------------3---------------|


  S S S S S S S S S S S S S S S S   S S S S S S S S S S S S S S S S
|---------------------------------|---------------------------------|
|---------------------------------|---------------------------------|
|-0-0-0-0-0-0-0-0-3-3-3-3-3-3-3-3-|-----------------3-3-3-3-3-3-3-3-|
|---------------------------------|-3-3-3-3-3-3-3-3-----------------|
|---------------------------------|---------------------------------|
|
| H               H                 H               H
|---------------------------------|---------------------------------|
|---------------------------------|---------------------------------|
|-----------------5---------------|-----------------5---------------|
|-7---------------5---------------|-5---------------5---------------|
|-7-------------------------------|-5-------------------------------|
|---------------------------------|---------------------------------|


  S S S S S S S S S S S S S S S S   S S S S S S S S S S S S S S S S
|---------------------------------|---------------------------------|
|---------------------------------|---------------------------------|
|-0-0-0-0-0-0-0-0-3-3-3-3-3-3-3-3-|-----------------3-3-3-3-3-3-3-3-|
|---------------------------------|-3-3-3-3-3-3-3-3-----------------|
|---------------------------------|---------------------------------|
|
| H               H                 H               H
|---------------------------------|---------------------------------|
|---------------------------------|---------------------------------|
|-----------------5---------------|-----------------5---------------|
|-7---------------5---------------|-5---------------5---------------|
|-7-------------------------------|-5-------------------------------|
|---------------------------------|---------------------------------|


  S S S S S S S S S S S S S S S S   S S S S S S S S S S S S S S S S
|---------------------------------|---------------------------------|
|---------------------------------|---------------------------------|
|-0-0-0-0-0-0-0-0-3-3-3-3-3-3-3-3-|-----------------3-3-3-3-3-3-3-3-|
|---------------------------------|-3-3-3-3-3-3-3-3-----------------|
|---------------------------------|---------------------------------|
|
| H               H                 H               H
|---------------------------------|---------------------------------|
|---------------------------------|---------------------------------|
|-----------------5---------------|-----------------5---------------|
|-7---------------5---------------|-5---------------5---------------|
|-7-------------------------------|-5-------------------------------|
|---------------------------------|---------------------------------|


  W          E E E E E E E E
|----------|-----------------||
|----------|-----------------||
|-7--------|-----------------||
|-0--------|-0---1---3---1---||
|----------|-----------------||
|
| W          E E E E E E E E
|----------|-----------------||
|----------|-----------------||
|----------|-----------------||
|-2--------|-----------------||
|-2--------|-2---3---5---3---||
|-0--------|-0---1---3---1---||


 Solo 4
  E E E E E E E E    E  E E E E E E E   E E E E E E E E    E  E E E E E E E
|-----------------|-------------------|-----------------|-------------------|
|-----------------|-------------------|-----------------|-------------------|
|-3-3-3-3-3-3-3-3-|-------------------|-----------------|-------------------|
|-----------------|--3--3-3-3-3-3-3-3-|-1-1-1-1-1-1-1-1-|--1--1-1-1-1-1-1-1-|
|-----------------|-------------------|-----------------|-------------------|
|
| W                 +W                  W                 +W
|-----------------|-------------------|-----------------|-------------------|
|-5---------------|-(5)---------------|-----------------|-------------------|
|-5---------------|-(5)---------------|-2---------------|-(2)---------------|
|-5---------------|-(5)---------------|-3---------------|-(3)---------------|
|-----------------|-------------------|-----------------|-------------------|
|-----------------|-------------------|-----------------|-------------------|


  E E E E E E E E    E  E E E E E E E   E E E E E E E E   E E E E E E E E
|-----------------|-------------------|-----------------|------------------|
|-0-0-0-0-0-0-0-0-|--0--0-0-0-0-0-0-0-|-----------------|------------------|
|-----------------|-------------------|-3-3-3-3-3-3-3-3-|------------------|
|-----------------|-------------------|-----------------|-3-3-3-3-3-3-3-3/-|
|-----------------|-------------------|-----------------|------------------|
|
| W                 +W                  W                 W
|-----------------|-------------------|-----------------|------------------|
|-----------------|-------------------|-5---------------|-3----------------|
|-7---------------|-(7)---------------|-5---------------|-4----------------|
|-7---------------|-(7)---------------|-5---------------|-5----------------|
|-5---------------|-(5)---------------|-----------------|------------------|
|-----------------|-------------------|-----------------|------------------|


  E E E E E E E E    E  E E E E E E E   E E E E E E E E    E  E E E E E E E
|-----------------|-------------------|-----------------|-------------------|
|-----------------|-------------------|-----------------|-------------------|
|-3-3-3-3-3-3-3-3-|--3--3-3-3-3-3-3-3-|-----------------|-------------------|
|-----------------|-------------------|-1-1-1-1-1-1-1-1-|--1--1-1-1-1-1-1-1-|
|-----------------|-------------------|-----------------|-------------------|
|
| W                 +W                  W                 +W
|-----------------|-------------------|-----------------|-------------------|
|-5---------------|-(5)---------------|-----------------|-------------------|
|-5---------------|-(5)---------------|-2---------------|-(2)---------------|
|-5---------------|-(5)---------------|-3---------------|-(3)---------------|
|-----------------|-------------------|-----------------|-------------------|
|-----------------|-------------------|-----------------|-------------------|


  E E E E E E E E    E  E E E E E E E
|-----------------|-------------------|
|-0-0-0-0-0-0-0-0-|--0--0-0-0-0-0-0-0-|
|-----------------|-------------------|
|-----------------|-------------------|
|-----------------|-------------------|
|
| W                 +W
|-----------------|-------------------|
|-----------------|-------------------|
|-7---------------|-(7)---------------|
|-7---------------|-(7)---------------|
|-5---------------|-(5)---------------|
|-----------------|-------------------|


  E E E E E E E E    S S S S S S S S S S S S Q
|------------------|-----------------------------||
|------------------|-5-5-5-5-5-5-5-5-5-5-5-5-5\--||
|-3-3-3-3-3-3-3-3/-|-----------------------------||
|------------------|-----------------------------||
|------------------|-----------------------------||
|
| W                  W
|------------------|-----------------------------||
|-5----------------|-3---------------------------||
|-5----------------|-4---------------------------||
|-5----------------|-5---------------------------||
|------------------|-----------------------------||
|------------------|-----------------------------||


 Chorus
   E E E E E E E E     E  E E E E E E E
|------------------|--------------------|
|------------------|--------------------|
|--0-0-0-0-0-0-0-0-|--------------------|
|------------------|---1--1-1-1-1-1-1-1-|
|------------------|--------------------|
|
|  W                   W
|-20---------------|-(20)---------------|
|-22---------------|-(22)---------------|
|-17---------------|--17----------------|
|------------------|--------------------|
|------------------|--------------------|
|------------------|--------------------|


    E  E E E E E E E     E  E E E E E E E
|--------------------|--------------------|
|--------------------|--------------------|
|---3--3-3-3-3-3-3-3-|--------------------|
|--------------------|---3--3-3-3-3-3-3-3-|
|--------------------|--------------------|
|
|   W                    W
|-(20)---------------|--19----------------|
|--20----------------|-(20)---------------|
|--17----------------|--16----------------|
|--------------------|--------------------|
|--------------------|--------------------|
|--------------------|--------------------|


   E E E E E E E E     E  E E E E E E E
|------------------|--------------------|
|------------------|--------------------|
|--0-0-0-0-0-0-0-0-|--------------------|
|------------------|---1--1-1-1-1-1-1-1-|
|------------------|--------------------|
|
|  W                   W
|-20---------------|-(20)---------------|
|-22---------------|-(22)---------------|
|-17---------------|--17----------------|
|------------------|--------------------|
|------------------|--------------------|
|------------------|--------------------|


    E  E E E E E E E    E E E E   E  E E E
|--------------------|---------------------|
|--------------------|---------------------|
|---3--3-3-3-3-3-3-3-|---------------------|
|--------------------|--3-3-3-3---3--3-3-3-|
|--------------------|---------------------|
|
|   W                   H         H
|-(20)---------------|-15--------22--------|
|--20----------------|-12-------(12)-------|
|--17----------------|-12-------(12)-------|
|--------------------|---------------------|
|--------------------|---------------------|
|--------------------|---------------------|


   E E E E E E E E     E  E E E E E E E
|------------------|--------------------|
|------------------|--------------------|
|--0-0-0-0-0-0-0-0-|--------------------|
|------------------|---1--1-1-1-1-1-1-1-|
|------------------|--------------------|
|
|  W                   W
|-20---------------|-(20)---------------|
|-22---------------|-(22)---------------|
|-17---------------|--17----------------|
|------------------|--------------------|
|------------------|--------------------|
|------------------|--------------------|


    E  E E E E E E E     E  E E E E E E E
|--------------------|--------------------|
|--------------------|--------------------|
|---3--3-3-3-3-3-3-3-|--------------------|
|--------------------|---3--3-3-3-3-3-3-3-|
|--------------------|--------------------|
|
|   W                    W
|-(20)---------------|--19----------------|
|--20----------------|-(20)---------------|
|--17----------------|--16----------------|
|--------------------|--------------------|
|--------------------|--------------------|
|--------------------|--------------------|


   E E E E E E E E     E  E E E E E E E
|------------------|--------------------|
|------------------|--------------------|
|--0-0-0-0-0-0-0-0-|--------------------|
|------------------|---1--1-1-1-1-1-1-1-|
|------------------|--------------------|
|
|  W                   W
|-20---------------|-(20)---------------|
|-22---------------|-(22)---------------|
|-17---------------|--17----------------|
|------------------|--------------------|
|------------------|--------------------|
|------------------|--------------------|


    E  E E E E E E E    E E E E E E E E
|--------------------|------------------||
|--------------------|------------------||
|---3--3-3-3-3-3-3-3-|------------------||
|--------------------|--3-3-3-3-3-3-3-3-||
|--------------------|------------------||
|
|   W                   W
|-(20)---------------|-15---------------||
|--20----------------|-12---------------||
|--17----------------|-12---------------||
|--------------------|------------------||
|--------------------|------------------||
|--------------------|------------------||


 Out-Chorus
  E E E E E E E E   E E E E E E E E   E E E E E E E E   E E E E E E E E
|-----------------|-----------------|-----------------|-----------------|
|-----------------|-----------------|-----------------|-----------------|
|-0-0-0-0-0-0-0-0-|-----------------|-3-3-3-3-3-3-3-3-|-----------------|
|-----------------|-1-1-1-1-1-1-1-1-|-----------------|-3-3-3-3-3-3-3-3-|
|-----------------|-----------------|-----------------|-----------------|
|
| W                 W                 W                 W
|-----------------|-----------------|-----------------|-----------------|
|-----------------|-----------------|-5---------------|-3---------------|
|-2---------------|-2---------------|-5---------------|-4---------------|
|-2---------------|-3---------------|-5---------------|-5---------------|
|-----------------|-----------------|-----------------|-----------------|
|-----------------|-----------------|-----------------|-----------------|


  E E E E E E E E   E E E E E E E E   E E E E E E E E    E  E E E E E E E
|-----------------|-----------------|-----------------|-------------------|
|-----------------|-----------------|-----------------|-------------------|
|-0-0-0-0-0-0-0-0-|-----------------|-----------------|-------------------|
|-----------------|-1-1-1-1-1-1-1-1-|-3-3-3-3-3-3-3-3-|--3--3-3-3-3-3-3-3-|
|-----------------|-----------------|-----------------|-------------------|
|
| W                 W                 W                 +W
|-----------------|-----------------|-----------------|-------------------|
|-----------------|-----------------|-----------------|-------------------|
|-2---------------|-2---------------|-----------------|-------------------|
|-2---------------|-3---------------|-5---------------|-(5)---------------|
|-----------------|-----------------|-----------------|-------------------|
|-----------------|-----------------|-3---------------|-(3)---------------|


  S E S S S S S S S S S S S S S   S S S S S S S S S S S S S S S S
|-------------------------------|---------------------------------|
|-------------------------------|---------------------------------|
|-------------------------------|---------------------------------|
|-3h5-5-5-5-5-5-5-5-5-5-5-5-5-5-|-1-1-1-1-1-1-1-1-1-1-1-1-1-1-1-1-|
|-------------------------------|---------------------------------|
|
| W                               W
|-------------------------------|---------------------------------|
|-------------------------------|---------------------------------|
|-2-----------------------------|-2-------------------------------|
|-2-----------------------------|-3-------------------------------|
|-------------------------------|---------------------------------|
|-------------------------------|---------------------------------|


  S S S S S S S S S S S S S S S S   S S S S S S S S S S S S S S S S
|---------------------------------|---------------------------------|
|---------------------------------|---------------------------------|
|-3-3-3-3-3-3-3-3-3-3-3-3-3-3-3-3-|---------------------------------|
|---------------------------------|-3-3-3-3-3-3-3-3-3-3-3-3-3-3-3-3-|
|---------------------------------|---------------------------------|
|
| W                                 W
|---------------------------------|---------------------------------|
|-5-------------------------------|-3-------------------------------|
|-5-------------------------------|-4-------------------------------|
|-5-------------------------------|-5-------------------------------|
|---------------------------------|---------------------------------|
|---------------------------------|---------------------------------|


  S S S S S S S S S S S S S S S S    S  S S S S S S S S S S S S S S S
|---------------------------------|-----------------------------------|
|---------------------------------|-----------------------------------|
|-0-0-0-0-0-0-0-0-0-0-0-0-0-0-0-0-|--0--0-0-0-0-0-0-0-0-0-0-0-0-0-0-0-|
|---------------------------------|-----------------------------------|
|---------------------------------|-----------------------------------|
|
| W                                 +W
|---------------------------------|-----------------------------------|
|---------------------------------|-----------------------------------|
|-2-------------------------------|-(2)-------------------------------|
|-2-------------------------------|-(2)-------------------------------|
|---------------------------------|-----------------------------------|
|---------------------------------|-----------------------------------|


  S S S S S S S S S S S S S S S S    S  S S S S S S S S S S S S S S S
|---------------------------------|-----------------------------------|
|---------------------------------|-----------------------------------|
|-7-7-7-7-7-7-7-7-7-7-7-7-7-7-7-7-|--7--7-7-7-7-7-7-7-7-7-7-7-7-7-7-7-|
|---------------------------------|-----------------------------------|
|---------------------------------|-----------------------------------|
|
| W                                 +W
|---------------------------------|-----------------------------------|
|-5-------------------------------|-(5)-------------------------------|
|-4-------------------------------|-(4)-------------------------------|
|-5-------------------------------|-(5)-------------------------------|
|---------------------------------|-----------------------------------|
|---------------------------------|-----------------------------------|


   S  S  S  S  S  S  S  S  S  S  S  S  S  S  S  S
|-------------17-17-16-16-14-14-------------------|
|----------19-------------------15-15-14-14-12-12-|
|-------19----------------------------------------|
|----20-------------------------------------------|
|-22----------------------------------------------|
|
|  W
|-------------------------------------------------|
|-------------------------------------------------|
|--2----------------------------------------------|
|--2----------------------------------------------|
|-------------------------------------------------|
|-------------------------------------------------|


   S   S S S S S S S  E  S  S  S  S  S  S
|--------------------21-------------------|
|-10--10-9-9-7-7-5-5----22-19-------------|
|-----------------------------19----------|
|--------------------------------20-17-15-|
|-----------------------------------------|
|
| +W
|-----------------------------------------|
|-----------------------------------------|
|-(2)-------------------------------------|
|-(2)-------------------------------------|
|-----------------------------------------|
|-----------------------------------------|


   W            W
|------------|--------*|
|------------|--------*|
|-12\--------|--------*|
|------------|--------*|
|------------|--------*|
|
|  W           +W
|------------|--------*|
|------------|--------*|
|--9---------|-(9)----*|
|--7---------|-(7)----*|
|------------|--------*|
|------------|--------*|



Duration Legend
---------------
W - whole; H - half; Q - quarter; E - 8th; S - 16th; T - 32nd; X - 64th; a - acciaccatura
+ - note tied to previous; . - note dotted; .. - note double dotted
Uncapitalized letters represent notes that are staccato (1/2 duration)
Irregular groupings are notated above the duration line
Duration letters will always appear directly above the note/fret number it represents the
duration for.  Duration letters with no fret number below them represent rests.  Multi-
bar rests are notated in the form Wxn, where n is the number of bars to rest for.  Low
melody durations appear below the staff

Tablature Legend
----------------
 h   - hammer-on
 p   - pull-off
 b   - bend
 pb  - pre-bend
 r   - bend release (if no number after the r, then release immediately)
 /\  - slide into or out of (from/to "nowhere")
 s   - legato slide
 S   - shift slide
<n> - natural harmonic
[n]  - artificial harmonic
n(n) - tapped harmonic
 ~   - vibrato
 tr  - trill
 T   - tap
 TP  - trem. picking
 PM  - palm muting
\n/  - tremolo bar dip; n = amount to dip
 \n  - tremolo bar down
 n/  - tremolo bar up
/n\  - tremolo bar inverted dip
 =   - hold bend; also acts as connecting device for hammers/pulls
 <> - volume swell (louder/softer)
 x   - on rhythm slash represents muted slash
 o   - on rhythm slash represents single note slash

Misc Legend
-----------
 |  - bar
||  - double bar
||o - repeat start
o|| - repeat end
*|  - double bar (ending)
 :  - bar (freetime)
 $  - Segno
 &  - Coda
Tempo markers - <E/E./Q/Q./H/H.> = BPM(8/16=s8/s16), where s8 = swing 8ths, s16 = swing 16ths

comments
We did not receive enough feedback on this tab! Please rate:
print report bad tab
1 2 3 4 5
I want to post or [tab]
guest
You may want to rate the tab now too:
select rating
Please do not post tabs as comments. Select "correction" instead!