Oops, an error
Loading. Please wait.

Fury Of The Storm Tab

ver1
ver1

Solo

Whole song

Interactive

More versions @911Tabs.com
12,210 views 3 this week
1 commentread comment
1 2 3 4 5
not so good
x 1
Autoscroll
+/-
esc
set tempo
stop
Contributor
Difficulty
advanced
Hey! There's an official Ultimate Guitar app which is ideal
for learning songs when you're away from computer. Get the app
WARNING: You are trying to view
                                    content from Ultimate-Guitar.com
                                    in an unauthorized application,
                                    which is prohibited.

                                    Please use an official Ultimate
                                    Guitar Tabs application for iPhone,
                                    iPad or Android to access legitimate
                                    chords, guitar, bass, and drum tabs
                                    from Ultimate-Guitar.com database.

                                    Type "ultimate guitar tabs" in Apple
                                    App Store's or Android Market's
                                    search to find the application.
1st Guitar Solo
  E5
|----------12-14-15-14-12-------------------------|
|-12-13-15----------------15-12-13-12-------------|
|-------------------------------------14-12-11-12-|
|-------------------------------------------------|
|-------------------------------------------------|
|-------------------------------------------------|
|
|----------------12-------------------------------|
|-------12-13-15----15-13-12----------------------|
|-12-14----------------------12-14-12-11----------|
|----------------------------------------14-12-14-|
|-------------------------------------------------|
|-------------------------------------------------|
|
|              PM---------------------------|
|-------------------------------------------------|
|-------------------------------------------------|
|--9----------------------------------------------|
|--9----------------------------------------------|
|--7-----------7-----7-----7-----7-----7-----7----|
|-------------------------------------------------|


|-----------------------------------------------|
|-----------------------------------------------|
|-14-12-11---------------------------11-[12]----|
|----------14-12-11-10----10-12---14------------|
|----------------------14-----------------------|
|-----------------------------------------------|
|
|-----------------------------------------------|
|-----------------------------------------------|
|-11--9-------------------------------7-[12]----|
|-------12-10--9--8--7--5--7--9---10------------|
|-----------------------------------------------|
|-----------------------------------------------|
|
|        PM          PM
|-----------------------------------------------|
|-----------------------------------------------|
|-----------------------------------------------|
|-10-----------9-----------7h===9-----7h=====9--|
|--7-----7-----7-----7-----7----7-----7------7--|
|-----------------------------------------------|


  D5
                                        T
|----------------------7-8-10-8-7----|-----------------------------|
|-7-8-7---------7-8-10------------10-|-12p10p8p7h8p7---[8]--/24\---|
|-------9-7---9----------------------|---------------9-------------|
|------------------------------------|-----------------------------|
|------------------------------------|-----------------------------|
|------------------------------------|-----------------------------|
|
|------------------------------------|-----------------------------|
|------------------------------------|-----------------------------|
|------------------------------------|-----------------------------|
|------------------------------------|-----------------------------|
|------------------------------------|-----------------------------|
|------------------------------------|-----------------------------|
|
|       PM--------------------|              PM      PM
|------------------------------------|-----------------------------|
|------------------------------------|-----------------------------|
|------------------------------------|-----------------------------|
|-7----------------------------------|--9--------7------5h7---5h7--|
|-5-----5---5---5----5---5----5------|--5----5---5---5--5-5---5-5--|
|------------------------------------|-----------------------------|


  C5
                                        ~~
|-22-15-15-------14-15-15-|-20---20-20-19-----15-17-|
|----------17-17----------|-------------------------|
|-------------------------|-------------------------|
|-------------------------|-------------------------|
|-------------------------|-------------------------|
|-------------------------|-------------------------|
|
|                                       ~~
|-19-15-15----------12-12-|-17---17-17-15-----12-14-|
|----------13-13-15-------|-------------------------|
|-------------------------|-------------------------|
|-------------------------|-------------------------|
|-------------------------|-------------------------|
|-------------------------|-------------------------|
|
|        PM-----------------------------------|
|-------------------------|-------------------------|
|-------------------------|-------------------------|
|-------------------------|-------------------------|
|--5----------------------|--5----5-----2---2-------|
|--3-----3--3--3--3--3--3-|--3-3--3--3--3-3-3--3----|
|-------------------------|-------------------------|


  B5
|-19-15------------15-19-15--------------|
|-------19-15-19------------19-15-19b20--|
|----------------------------------------|
|----------------------------------------|
|----------------------------------------|
|----------------------------------------|
|
|----------------------------------------|
|----------------------------------------|
|----------------------------------------|
|----------------------------------------|
|----------------------------------------|
|----------------------------------------|
|
|           PM--------------|
|----------------------------------------|
|----------------------------------------|
|--4-------------------------------4-----|
|--4-------------------------------4-----|
|--2--------2----2-----2-----2-----2-----|
|----------------------------------------|


  C5                      D5
|-15-17-15-----------------------------------17-||
|----------19-17-15-----------------------20----||
|-------------------17-16-17-19-/17-19-21-------||
|-----------------------------------------------||
|-----------------------------------------------||
|-----------------------------------------------||
|
|-----------------------------------------------||
|-----------------------------------------------||
|-----------------------------------------------||
|-----------------------------------------------||
|-----------------------------------------------||
|-----------------------------------------------||
|
|  PM---|                  PM---|
|-----------------------------------------------||
|-----------------------------------------------||
|--------------5------------------------7-------||
|--5-----5-----5-----------7------7-----7-------||
|--3-----3-----3-----------5------5-----5-------||
|-----------------------------------------------||


 2nd Guitar Solo
  E5
   ~~~~~
|-22b24-----------------------|-----------------------|
|-----------------------------|-----------------------|
|-----------------------------|-----------------------|
|-----------------------------|-----------------------|
|-----------------------------|-----------------------|
|-----------------------------|-----------------------|
|
|-----------------------------|-----------------------|
|-10b12--10b12---10b12---10-8-|-10-8-7-------12-13-15-|
|-----------------------------|--------[9]------------|
|-----------------------------|-----------------------|
|-----------------------------|-----------------------|
|-----------------------------|-----------------------|
|
|         PM---------------------------|
|-----------------------------|-----------------------|
|-----------------------------|-----------------------|
|--9--------------------------|-----------------------|
|--9--------------------------|-10---9-----7h=9--7h=9-|
|--7------7----7--7----7--7-7-|--7-7-7--7--7--7--7--7-|
|-----------------------------|-----------------------|


  D5
|---------------------------|----------------------------|
|---------------------------|----------------------------|
|---------------------------|----------------------------|
|---------------------------|----------------------------|
|---------------------------|----------------------------|
|---------------------------|----------------------------|
|
|-------12----14----[15]----|-17---[17]b19-15------------|
|-[15]-----13----13------13-|-------------------17-15-15-|
|---------------------------|----------------------------|
|---------------------------|----------------------------|
|---------------------------|----------------------------|
|---------------------------|----------------------------|
|
|        PM--------------------------------|
|---------------------------|----------------------------|
|---------------------------|----------------------------|
|---7-----------------------|----------------------------|
|---7-----------------------|--9-----7--------5h=7--5h=7-|
|---5----5--5--5--5---5---5-|--5-5---5------5-5--5--5--5-|
|---------------------------|----------------------------|


  C5
|-12-15-15-17---15-12-15-|-15-14-15-14----12-------[15]----|
|------------------------|-------------12----15-12---------|
|------------------------|---------------------------------|
|------------------------|---------------------------------|
|------------------------|---------------------------------|
|------------------------|---------------------------------|
|
|-15-19-19-20---19-15-19-|-19-15-19-15----15-------[19]----|
|------------------------|-------------17----17-15---------|
|------------------------|---------------------------------|
|------------------------|---------------------------------|
|------------------------|---------------------------------|
|------------------------|---------------------------------|
|
|        PM-----------|
|------------------------|---------------------------------|
|------------------------|---------------------------------|
|--5----------------5----|---------------------------------|
|--5----------------5----|--5-----------5-----5------7p=5--|
|--3-----3--3-3--3--3--3-|--3--3--------3--3--3--3---3-(3)-|
|------------------------|---------------------------------|


  B5                        C5                      D5
|-------------------------|-----------------------------------------------||
|-------------------------|-----------------------------------------------||
|-16-16-16-14-14-14-12-12-|-16-14-12-11-14-12-11----12-11-------11-9------||
|-------------------------|----------------------14-------14-12------11-9-||
|-------------------------|-----------------------------------------------||
|-------------------------|-----------------------------------------------||
|
|-------------------------|-----------------------------------------------||
|-15-15-15-13-13-13-12-12-|-15-13-12-10-13-12-10--8-12-10--8--7-10-8--7---||
|-------------------------|---------------------------------------------7-||
|-------------------------|-----------------------------------------------||
|-------------------------|-----------------------------------------------||
|-------------------------|-----------------------------------------------||
|
|        PM-----------------------------------------------|
|-------------------------|-----------------------------------------------||
|-------------------------|-----------------------------------------------||
|--4----------------------|--------------------------------------7--------||
|--4----------------------|--4-----4-----4-----------7-----7-----7--------||
|--2-----2--2--2--2--2--2-|--3-----3-----3-----------5-----5-----5--------||
|-------------------------|-----------------------------------------------||
comments
We did not receive enough feedback on this tab! Please rate:
print report bad tab
1 2 3 4 5
1 comment total.
+1 reply
JudgeDredd wrote on June 10 2009, 12:38 pm

Very incomplete and their are much better tabs

I want to post or [tab]
guest
You may want to rate the tab now too:
select rating
Please do not post tabs as comments. Select "correction" instead!