Oops, an error
Loading. Please wait.

Fury Of The Storm Tab

ver1
ver1

Solo

Whole song

More versions @911Tabs.com
108,180 views 274 this week
43 commentsread comments
1 2 3 4 5
excellent!
x 41
Autoscroll
+/-
esc
set tempo
stop
Contributor
Difficulty
intermediate
WARNING: You are trying to view
                                    content from Ultimate-Guitar.com
                                    in an unauthorized application,
                                    which is prohibited.

                                    Please use an official Ultimate
                                    Guitar Tabs application for iPhone,
                                    iPad or Android to access legitimate
                                    chords, guitar, bass, and drum tabs
                                    from Ultimate-Guitar.com database.

                                    Type "ultimate guitar tabs" in Apple
                                    App Store's or Android Market's
                                    search to find the application.
#----------------------------------PLEASE NOTE---------------------------------#
#This file is the author's own work and represents their interpretation of the #
#song. You may only use this file for private study, scholarship, or research. #
#------------------------------------------------------------------------------#

FURY OF THE STORM
As recorded by Dragonforce
(From the 2000 Album SONIC FIRESTORM)

Transcribed by Nathan Brenton
        

Words by Dragonforce Music by Sam Totman
Arranged by Dragonforce

Gtr I (E A D G B E) - '1st Lead'
Gtr II (E A D G B E) - '2nd Lead'
Gtr III (E A D G B E) - 'Rhythm '
Gtr IV (E A D G B E) - 'lead guitar anti glitch'

 Intro
  Q=200
  E5                     D5                    B5
 4/4
  Gtr I
|----------------------|---------------------|-----------------------|
|----------------------|---------------------|-----------------------|
|----------------------|--------14-16-14-----|-----------------------|
|-14--14-16-17-16-14---|-17--17----------17--|-16--16-17-16-14-16-17-|
|----------------------|---------------------|-----------------------|
|----------------------|---------------------|-----------------------|
|
| Gtr II
|----------------------|---------------------|-----------------------|
|----------------------|---------7--8--7-----|-----------------------|
|---------7--9--7------|--9---9-----------9--|--7---7--9--7-----7--9-|
|--9---9-----------9---|---------------------|---------------9-------|
|----------------------|---------------------|-----------------------|
|----------------------|---------------------|-----------------------|
|
| Gtr III
|  PM              PM----|
|----------------------|---------------------|-----------------------|
|----------------------|---------------------|-----------------------|
|--9---------------9-9-|--7------------------|--4--------------------|
|--9---------------9-9-|--7------------------|--4--------------------|
|--7---------------7-7-|--5------------------|--2--------------------|
|----------------------|---------------------|-----------------------|


|----------------------------------------------------|
|----------------------------------------------------|
|-14--14-14-14---------------------------------------|
|--------------17-17-17-17-16-16-16-16---------------|
|--------------------------------------17-17-17-17---|
|----------------------------------------------------|
|
|----------------------------------------------------|
|--7---7--7--7---------------------------------------|
|---------------9--9--9--9--7--7--7--7---------------|
|---------------------------------------9--9--9--9---|
|----------------------------------------------------|
|----------------------------------------------------|
|
|----------------------------------------------------|
|----------------------------------------------------|
|-(4)------------------------------------------------|
|-(4)------------------------------------------------|
|-(2)------------------------------------------------|
|----------------------------------------------------|


  E5                    D5
|---------------------|---------------------|
|---------------------|---------------------|
|---------------------|--------14-16-14-----|
|-14--14-16-17-16-14--|-17--17----------17--|
|---------------------|---------------------|
|---------------------|---------------------|
|
|---------------------|---------------------|
|---------------------|---------7--8--7-----|
|---------7--9--7-----|--9---9-----------9--|
|--9---9-----------9--|---------------------|
|---------------------|---------------------|
|---------------------|---------------------|
|
|  PM
|---------------------|---------------------|
|---------------------|---------------------|
|--9------------------|--7------------------|
|--9------------------|--7------------------|
|--7------------------|--5------------------|
|---------------------|---------------------|


  B5
|-----------------|-----------------|
|-----------------|-----------------|
|-----------------|-----------------|
|-16--16--16--16--|-16--16--16--16--|
|-----------------|-----------------|
|-----------------|-----------------|
|
|-----------------|-----------------|
|-----------------|-----------------|
|--7---7---7---7--|--7---7---7---7--|
|-----------------|-----------------|
|-----------------|-----------------|
|-----------------|-----------------|
|
|  PM---------------------------|
|-----------------|-----------------|
|-----------------|-----------------|
|--4---4---4---4--|--4---4---4---4--|
|--4---4---4---4--|--4---4---4---4--|
|--2---2---2---2--|--2---2---2---2--|
|-----------------|-----------------|


  E5
|-------------------------------------------------|
|-------------------------------------------------|
|----------------------------14-16p14----14-------|
|-14-14-14-16-17-16-14-16-17----------17----17-14-|
|-------------------------------------------------|
|-------------------------------------------------|
|
|-------------------------------------------------|
|-----------------------------7--8--7-------------|
|-----------7--9p=7-----7--9-----------9p=7-------|
|--9--9--9-----------9-----------------------9----|
|-------------------------------------------------|
|-------------------------------------------------|
|
|  PM----------------------------------------------
|-------------------------------------------------|
|-------------------------------------------------|
|-------------------------------------------------|
|--9----------------------------------------------|
|--7--7--7--7--7--7--7--7--7--7--7--7--7--7--7--7-|
|-------------------------------------------------|


  G5
|-------------------------------------------------|
|-------------------------------------------------|
|----------14-16p14----14-14h16p14----14----------|
|-17----17----------17-------------17----17-14----|
|-------------------------------------------------|
|-------------------------------------------------|
|
|-------------------------------------------------|
|-----------7--8--7-----7--7--8--7-----7----------|
|--7-----7-----------7--------------7-----7-------|
|--------------------------------------------9----|
|-------------------------------------------------|
|-------------------------------------------------|
|
|----------------------------------------------|
|-------------------------------------------------|
|-------------------------------------------------|
|-------------------------------------------------|
|-12----------------------------------------------|
|-10-10-10-10-10-10-10-10-10-10-10-10-10-10-10-10-|
|-------------------------------------------------|


  C5
|------------------------------------------------|
|------------------------------------------------|
|---------14-16p14----14-16h17p16p14-16p14----14-|
|-17---17----------17----------------------17----|
|------------------------------------------------|
|------------------------------------------------|
|
|------------------------------------------------|
|----------7--8p=7-----7--8h10p=8p=7--8p=7-----7-|
|--9----9-----------9-----------------------9----|
|------------------------------------------------|
|------------------------------------------------|
|------------------------------------------------|
|
|  PM---------------------------------------------
|------------------------------------------------|
|------------------------------------------------|
|------------------------------------------------|
|------------------------------------------------|
|--3-3--3--3--3--3--3--3--3--3--3--3--3--3--3--3-|
|------------------------------------------------|


  D5
|------------------------------------------------|
|------------------------------------------------|
|-16-16-16-16-17-17-17-17-16-16-16-16-[14]-------|
|------------------------------------------------|
|------------------------------------------------|
|------------------------------------------------|
|
|------------------------------------------------|
|--8--8--8--8-10-10-10-10--8--8--8--8--[7]-------|
|------------------------------------------------|
|------------------------------------------------|
|------------------------------------------------|
|------------------------------------------------|
|
|----------------------------------------------|
|------------------------------------------------|
|------------------------------------------------|
|------------------------------------------------|
|------------------------------------------------|
|--5--5--5--5--5--5--5--5--5--5--5--5---5--5-5-5-|
|------------------------------------------------|


  E5
|-----------------------------------------------|
|-----------------------------------------------|
|---------14-16-14----14-14-16-14----14---------|
|-17---17----------17-------------17----17-14---|
|-----------------------------------------------|
|-----------------------------------------------|
|
|-----------------------------------------------|
|----------7--8p=7-----7--7h=8p=7-----7---------|
|--9----9-----------9--------------9-----9--9---|
|-----------------------------------------------|
|-----------------------------------------------|
|-----------------------------------------------|
|
|  PM--------------------------------------------
|-----------------------------------------------|
|-----------------------------------------------|
|-----------------------------------------------|
|-----------------------------------------------|
|--7-7--7--7--7--7--7--7--7--7--7--7--7--7--7-7-|
|-----------------------------------------------|


  G5
|-------------------------------------------------|
|-------------------------------------------------|
|----------14-16-14----14-14-16-14----14----------|
|-17----17----------17-------------17----17-------|
|-------------------------------------------17----|
|-------------------------------------------------|
|
|-------------------------------------------------|
|-----------7--8p=7-----7--7h=8p=7-----7----------|
|--7-----7-----------7--------------7-----7--7----|
|-------------------------------------------------|
|-------------------------------------------------|
|-------------------------------------------------|
|
|----------------------------------------------|
|-------------------------------------------------|
|-------------------------------------------------|
|-------------------------------------------------|
|-------------------------------------------------|
|-10-10-10-10-10-10-10-10-10-10-10-10-10-10-10-10-|
|-------------------------------------------------|


  C5
|-----------------------------------------------|
|-----------------------------------------------|
|---------14-16p14----14-16h17p16p14-16p14------|
|-17---17----------17----------------------17---|
|-----------------------------------------------|
|-----------------------------------------------|
|
|-----------------------------------------------|
|----------7--8p=7-----7--8h10p=8p=7--8p=7------|
|--9----9-----------9-----------------------9---|
|-----------------------------------------------|
|-----------------------------------------------|
|-----------------------------------------------|
|
|  PM--------------------------------------------
|-----------------------------------------------|
|-----------------------------------------------|
|-----------------------------------------------|
|-----------------------------------------------|
|--3-3--3--3--3--3--3--3--3--3--3--3--3--3--3-3-|
|-----------------------------------------------|


  B5
|----------------------------------------------|
|-15-15-15-15-13-13-13-13-12-12-12-12-10-------|
|----------------------------------------------|
|----------------------------------------------|
|----------------------------------------------|
|----------------------------------------------|
|
|----------------------------------------------|
|-12-12-12-12-10-10-10-10--8--8--8--8--7-------|
|----------------------------------------------|
|----------------------------------------------|
|----------------------------------------------|
|----------------------------------------------|
|
|--------------------------------------------|
|----------------------------------------------|
|----------------------------------------------|
|----------------------------------------------|
|----------------------------------------------|
|--2--2--2--2--2--2--2--2--2--2--2--2--2-2-2-2-|
|----------------------------------------------|


  E5
|----------------------------------------------|
|-----------------------------------------15---|
|---------14-16-14----16-17-16-14--------------|
|-17---17----------17-------------17-17--------|
|----------------------------------------------|
|----------------------------------------------|
|
|------------------------------------------7---|
|----------7--8p=7-----8-10--8--7--------------|
|--9----9-----------9--------------9--9--------|
|----------------------------------------------|
|----------------------------------------------|
|----------------------------------------------|
|
|    PM--------------------------------------|
|----------------------------------------------|
|----------------------------------------------|
|----------------------------------------------|
|--9-------------------------------------------|
|--7-7--7--7--7--7--7--7--7--7--7--7--7-7--7-7-|
|----------------------------------------------|


  G5
|-------------------------------------------------|
|-------------------------------------------------|
|-17-16-14----------14-16-17-16-14----14-16-------|
|----------17----17----------------17-------17----|
|-------------17----------------------------------|
|-------------------------------------------------|
|
|-------------------------------------------------|
|--8--7-----------------7--8--7--------7--8-------|
|--------9--7-----7--9-----------9--7--------9----|
|--------------9----------------------------------|
|-------------------------------------------------|
|-------------------------------------------------|
|
|     PM---------------------------------------|
|-------------------------------------------------|
|-------------------------------------------------|
|-------------------------------------------------|
|-12----------------------------------------------|
|-10-10-10-10-10-10-10-10-10-10-10-10-10-10-10-10-|
|-------------------------------------------------|


  C5
|------------------------------------------------|
|---------------------------------------------15-|
|---------14h16p14----16h17p16p14----14-16-17----|
|-17---17----------17-------------17-------------|
|------------------------------------------------|
|------------------------------------------------|
|
|----------------------------------------------7-|
|----------7--8--7-----8-10--8--7-----7--8-10----|
|--9----9-----------9--------------9-------------|
|------------------------------------------------|
|------------------------------------------------|
|------------------------------------------------|
|
|    PM-------------------------------------------
|------------------------------------------------|
|------------------------------------------------|
|------------------------------------------------|
|--5---------------------------------------------|
|--3-3--3--3--3--3--3--3--3--3--3--3--3--3--3--3-|
|------------------------------------------------|


  D5
|------------------------------------------------|
|-17-17-17-17-19-19-19-19-17-17-17-17-[15]-------|
|------------------------------------------------|
|------------------------------------------------|
|------------------------------------------------|
|------------------------------------------------|
|
|--8--8--8--8-10-10-10-10--8--8--8--8--[7]-------|
|------------------------------------------------|
|------------------------------------------------|
|------------------------------------------------|
|------------------------------------------------|
|------------------------------------------------|
|
|----------------------------------------------|
|------------------------------------------------|
|------------------------------------------------|
|------------------------------------------------|
|-----------7-----------7-----------7------------|
|--5--5--5--5--5--5--5--5--5--5--5--5---5--5-5-5-|
|------------------------------------------------|


  E5
|-----------------------------------------------|
|-----------------------------------------------|
|---------14-16-14----14-16-17-16-14-16-14------|
|-17---17----------17----------------------17---|
|-----------------------------------------------|
|-----------------------------------------------|
|
|-----------------------------------------------|
|----------7--8--7-----7--8-10--8--7--8--7------|
|--9----9-----------9-----------------------9---|
|-----------------------------------------------|
|-----------------------------------------------|
|-----------------------------------------------|
|
|    PM---------------------------------------|
|-----------------------------------------------|
|-----------------------------------------------|
|-----------------------------------------------|
|--9--------------------------------------------|
|--7-7--7--7--7--7--7--7--7--7--7--7--7--7--7-7-|
|-----------------------------------------------|


  G5
|-------------------------------------------------|
|----------------------------15-------------------|
|----------14-16-14----14-16----16-14-16-14-------|
|-17----17----------17----------------------17----|
|-------------------------------------------------|
|-------------------------------------------------|
|
|-----------------------------7-------------------|
|-----------7--8--7-----7--8-----8--7--8--7-------|
|--9-----9-----------9-----------------------9----|
|-------------------------------------------------|
|-------------------------------------------------|
|-------------------------------------------------|
|
|     PM---------------------------------------|
|-------------------------------------------------|
|-------------------------------------------------|
|-------------------------------------------------|
|-12----------------------------------------------|
|-10-10-10-10-10-10-10-10-10-10-10-10-10-10-10-10-|
|-------------------------------------------------|


  C5                                                B5
|-------------------------------------------------|----------|-----|
|----------------------15-17-15-------------------|----------|-----|
|-17-16-14----14-16-17----------17-16-14----14-16-|----------|-----|
|----------17----------------------------17-------|----------|-----|
|-------------------------------------------------|----------|-----|
|-------------------------------------------------|----------|-----|
|
|-----------------------7--8--7-------------------|----------|-----|
|-10--8--7-----7--8-10----------10--8--7-----7--8-|----------|-----|
|-----------9-----------------------------9-------|----------|-----|
|-------------------------------------------------|----------|-----|
|-------------------------------------------------|----------|-----|
|-------------------------------------------------|----------|-----|
|
|     PM---------------------------------------|
|-------------------------------------------------|----------|-----|
|-------------------------------------------------|----------|-----|
|--5----------------------------------------------|----------|-----|
|--5----------------------------------------------|-4--------|-----|
|--3--3--3--3--3--3--3--3--3--3--3--3--3--3--3--3-|-2--------|-----|
|-------------------------------------------------|----------|-----|


  E5
  Gtr I
|-----------------------------------------|
|-12-12-0-0-13-13-0-0-12-12-0-0-13-13-0-0-|
|-----------------------------------------|
|-----------------------------------------|
|-----------------------------------------|
|-----------------------------------------|
|
| Gtr II
|--3--3-0-0--5--5-0-0--3--3-0-0--5--5-0-0-|
|-----------------------------------------|
|-----------------------------------------|
|-----------------------------------------|
|-----------------------------------------|
|-----------------------------------------|
|
| Gtr III
|  PM--------------------------------------
|-----------------------------------------|
|-----------------------------------------|
|-----------------------------------------|
|--9--------------------------------------|
|--7--7-7-7--7--7-7-7--7--7-7-7--7--7-7-7-|
|-----------------------------------------|


|-----------------------------------------|
|-12-12-0-0-13-13-0-0-12-12-0-0-13-13-0-0-|
|-----------------------------------------|
|-----------------------------------------|
|-----------------------------------------|
|-----------------------------------------|
|
|--3--3-0-0--5--5-0-0--3--3-0-0--5--5-0-0-|
|-----------------------------------------|
|-----------------------------------------|
|-----------------------------------------|
|-----------------------------------------|
|-----------------------------------------|
|
|---------------------------------------|
|-----------------------------------------|
|-----------------------------------------|
|-----------------------------------------|
|--9--------------9-----------------------|
|--7--7-7-7--7--7-7-7--7--7-7-7--7--7-7-7-|
|-----------------------------------------|


  C5
|-----------------------------------------|
|-12-12-0-0-13-13-0-0-12-12-0-0-13-13-0-0-|
|-----------------------------------------|
|-----------------------------------------|
|-----------------------------------------|
|-----------------------------------------|
|
|--3--3-0-0--5--5-0-0--3--3-0-0--5--5-0-0-|
|-----------------------------------------|
|-----------------------------------------|
|-----------------------------------------|
|-----------------------------------------|
|-----------------------------------------|
|
|  PM--------------------------------------
|-----------------------------------------|
|-----------------------------------------|
|-----------------------------------------|
|--5--------------------------------------|
|--3--3-3-3--3--3-3-3--3--3-3-3--3--3-3-3-|
|-----------------------------------------|


|-----------------------------------------|
|-12-12-0-0-13-13-0-0-12-12-0-0-13-13-0-0-|
|-----------------------------------------|
|-----------------------------------------|
|-----------------------------------------|
|-----------------------------------------|
|
|--3--3-0-0--5--5-0-0--3--3-0-0--5--5-0-0-|
|-----------------------------------------|
|-----------------------------------------|
|-----------------------------------------|
|-----------------------------------------|
|-----------------------------------------|
|
|---------------------------------------|
|-----------------------------------------|
|-----------------------------------------|
|-----------------------------------------|
|--5--------------------------------------|
|--3--3-3-3--3--3-3-3--3--3-3-3--3--3-3-3-|
|-----------------------------------------|


  E5
|-----------------------------------------|
|-12-12-0-0-13-13-0-0-12-12-0-0-13-13-0-0-|
|-----------------------------------------|
|-----------------------------------------|
|-----------------------------------------|
|-----------------------------------------|
|
|--3--3-0-0--5--5-0-0--3--3-0-0--5--5-0-0-|
|-----------------------------------------|
|-----------------------------------------|
|-----------------------------------------|
|-----------------------------------------|
|-----------------------------------------|
|
|  PM--------------------------------------
|-----------------------------------------|
|-----------------------------------------|
|-----------------------------------------|
|--9--------------------------------------|
|--7--7-7-7--7--7-7-7--7--7-7-7--7--7-7-7-|
|-----------------------------------------|


|-----------------------------------------|
|-12-12-0-0-13-13-0-0-12-12-0-0-13-13-0-0-|
|-----------------------------------------|
|-----------------------------------------|
|-----------------------------------------|
|-----------------------------------------|
|
|--3--3-0-0--5--5-0-0--3--3-0-0--5--5-0-0-|
|-----------------------------------------|
|-----------------------------------------|
|-----------------------------------------|
|-----------------------------------------|
|-----------------------------------------|
|
|---------------------------------------|
|-----------------------------------------|
|-----------------------------------------|
|-----------------------------------------|
|--9--------------9-----------------------|
|--7--7-7-7--7--7-7-7--7--7-7-7--7--7-7-7-|
|-----------------------------------------|


  C5
|-----------------------------------------|
|-12-12-0-0-13-13-0-0-12-12-0-0-13-13-0-0-|
|-----------------------------------------|
|-----------------------------------------|
|-----------------------------------------|
|-----------------------------------------|
|
|--3--3-0-0--5--5-0-0--3--3-0-0--5--5-0-0-|
|-----------------------------------------|
|-----------------------------------------|
|-----------------------------------------|
|-----------------------------------------|
|-----------------------------------------|
|
|  PM--------------------------------------
|-----------------------------------------|
|-----------------------------------------|
|-----------------------------------------|
|--5--------------------------------------|
|--3--3-3-3--3--3-3-3--3--3-3-3--3--3-3-3-|
|-----------------------------------------|


|-----------------------------------------|
|-12-12-0-0-13-13-0-0-12-12-0-0-13-13-0-0-|
|-----------------------------------------|
|-----------------------------------------|
|-----------------------------------------|
|-----------------------------------------|
|
|--3--3-0-0--5--5-0-0--3--3-0-0--5--5-0-0-|
|-----------------------------------------|
|-----------------------------------------|
|-----------------------------------------|
|-----------------------------------------|
|-----------------------------------------|
|
|---------------------------------------|
|-----------------------------------------|
|-----------------------------------------|
|-----------------------------------------|
|--5--------------5-----------------------|
|--3--3-3-3--3--3-3-3--3--3-3-3--3--3-3-3-|
|-----------------------------------------|


  A5
|-----------------------------------------|
|-12-12-0-0-13-13-0-0-12-12-0-0-13-13-0-0-|
|-----------------------------------------|
|-----------------------------------------|
|-----------------------------------------|
|-----------------------------------------|
|
|--3--3-0-0--5--5-0-0--3--3-0-0--5--5-0-0-|
|-----------------------------------------|
|-----------------------------------------|
|-----------------------------------------|
|-----------------------------------------|
|-----------------------------------------|
|
|  PM--------------------------------------
|-----------------------------------------|
|-----------------------------------------|
|-----------------------------------------|
|-----------------------------------------|
|--7--------------------------------------|
|--5--5-5-5--5--5-5-5--5--5-5-5--5--5-5-5-|


|-----------------------------------------|
|-12-12-0-0-13-13-0-0-12-12-0-0-13-13-0-0-|
|-----------------------------------------|
|-----------------------------------------|
|-----------------------------------------|
|-----------------------------------------|
|
|--3--3-0-0--5--5-0-0--3--3-0-0--5--5-0-0-|
|-----------------------------------------|
|-----------------------------------------|
|-----------------------------------------|
|-----------------------------------------|
|-----------------------------------------|
|
|---------------------------------------|
|-----------------------------------------|
|-----------------------------------------|
|-----------------------------------------|
|-----------------------------------------|
|--7--------------------------------------|
|--5--5-5-5--5--5-5-5--5--5-5-5--5--5-5-5-|


  E5
|-----------------------------------------|
|-12-12-0-0-13-13-0-0-12-12-0-0-13-13-0-0-|
|-----------------------------------------|
|-----------------------------------------|
|-----------------------------------------|
|-----------------------------------------|
|
|--3--3-0-0--5--5-0-0--3--3-0-0--5--5-0-0-|
|-----------------------------------------|
|-----------------------------------------|
|-----------------------------------------|
|-----------------------------------------|
|-----------------------------------------|
|
|  PM--------------------------------------
|-----------------------------------------|
|-----------------------------------------|
|-----------------------------------------|
|--9--------------------------------------|
|--7--7-7-7--7--7-7-7--7--7-7-7--7--7-7-7-|
|-----------------------------------------|


|-----------------------------------------|
|-12-12-0-0-13-13-0-0-12-12-0-0-13-13-0-0-|
|-----------------------------------------|
|-----------------------------------------|
|-----------------------------------------|
|-----------------------------------------|
|
|--3--3-0-0--5--5-0-0--3--3-0-0--5--5-0-0-|
|-----------------------------------------|
|-----------------------------------------|
|-----------------------------------------|
|-----------------------------------------|
|-----------------------------------------|
|
|---------------------------------------|
|-----------------------------------------|
|-----------------------------------------|
|-----------------------------------------|
|--9--------------------------------------|
|--7--7-7-7--7--7-7-7--7--7-7-7--7--7-7-7-|
|-----------------------------------------|


  C5
|-----------------------------------------|
|-12-12-0-0-13-13-0-0-12-12-0-0-13-13-0-0-|
|-----------------------------------------|
|-----------------------------------------|
|-----------------------------------------|
|-----------------------------------------|
|
|--3--3-0-0--5--5-0-0--3--3-0-0--5--5-0-0-|
|-----------------------------------------|
|-----------------------------------------|
|-----------------------------------------|
|-----------------------------------------|
|-----------------------------------------|
|
|  PM--------------------------------------
|-----------------------------------------|
|-----------------------------------------|
|-----------------------------------------|
|--5--------------------------------------|
|--3--3-3-3--3--3-3-3--3--3-3-3--3--3-3-3-|
|-----------------------------------------|


|-----------------------------------------|
|-12-12-0-0-13-13-0-0-12-12-0-0-13-13-0-0-|
|-----------------------------------------|
|-----------------------------------------|
|-----------------------------------------|
|-----------------------------------------|
|
|--3--3-0-0--5--5-0-0--3--3-0-0--5--5-0-0-|
|-----------------------------------------|
|-----------------------------------------|
|-----------------------------------------|
|-----------------------------------------|
|-----------------------------------------|
|
|---------------------------------------|
|-----------------------------------------|
|-----------------------------------------|
|-----------------------------------------|
|--5--------------5-----------------------|
|--3--3-3-3--3--3-3-3--3--3-3-3--3--3-3-3-|
|-----------------------------------------|


  B5
|-----------------------------------------|
|-12-12-0-0-13-13-0-0-12-12-0-0-13-13-0-0-|
|-----------------------------------------|
|-----------------------------------------|
|-----------------------------------------|
|-----------------------------------------|
|
|--3--3-0-0--5--5-0-0--3--3-0-0--5--5-0-0-|
|-----------------------------------------|
|-----------------------------------------|
|-----------------------------------------|
|-----------------------------------------|
|-----------------------------------------|
|
|  PM-----------------------------------|
|-----------------------------------------|
|-----------------------------------------|
|-----------------------------------------|
|--4--------------------------------------|
|--2--2-2-2--2--2-2-2--2--2-2-2--2--2-2-2-|
|-----------------------------------------|


|---------------------------------------|
|-7-10-7-0-8-11-8-0-9-12-9-0-10-13-10-0-|
|---------------------------------------|
|---------------------------------------|
|---------------------------------------|
|---------------------------------------|
|
|---------------------------------------|
|-7-10-7-0-8-11-8-0-9-12-9-0-10-13-10-0-|
|---------------------------------------|
|---------------------------------------|
|---------------------------------------|
|---------------------------------------|
|
|---------------------------------------|
|---------------------------------------|
|---------------------------------------|
|-4-------------------------------------|
|-2-------------------------------------|
|---------------------------------------|


                              B5
    ~~~~
|---------------------------|--------------------||
|-[12]-------------[12]b14r=|=(12)------(12)\----||
|---------------------------|--------------------||
|---------------------------|--------------------||
|---------------------------|--------------------||
|---------------------------|--------------------||
|
|---------------------------|--------------------||
|---------------------------|--------------------||
|----------[10]b12r(10)-----|-(10)\--------------||
|---------------------------|--------------------||
|---------------------------|--------------------||
|---------------------------|--------------------||
|
|---------------------------|--------------------||
|---------------------------|--------------------||
|---------------------------|---4----4-----------||
|---------------------------|---4----4-----------||
|---------------------------|---2----2-----------||
|---------------------------|--------------------||


 Verse
  Em
  Gtrs II, III
  PM--------------------------------------------------------------|
|---------------------------------|---------------------------------|
|---------------------------------|---------------------------------|
|---------------------------------|---------------------------------|
|-5-------------------------------|-5-----------5-------------------|
|-7-7-7-7-7-7-7-7-7-7-7-7-7-7-7-7-|-7-7-7-7-7-7-7-7-7-7-7-7-7-7-7-7-|
|---------------------------------|---------------------------------|


                                    Em D C
  PM----------------------------|
|---------------------------------|---------------|
|---------------------------------|---------------|
|---------------------------------|---------------|
|-5-------------------------------|-5--4-2----(2)-|
|-7-7-7-7-7-7-7-7-7-7-7-7-7-7-7-7-|-7--5-3----(3)-|
|---------------------------------|---------------|


  Em
  PM--------------------------------------------------------------|
|---------------------------------|---------------------------------|
|---------------------------------|---------------------------------|
|---------------------------------|---------------------------------|
|-5-------------------------------|-5-----------5-------------------|
|-7-7-7-7-7-7-7-7-7-7-7-7-7-7-7-7-|-7-7-7-7-7-7-7-7-7-7-7-7-7-7-7-7-|
|---------------------------------|---------------------------------|


                                    C    D
  PM----------------------------|
|---------------------------------|---------------|
|---------------------------------|---------------|
|---------------------------------|---------------|
|-5-------------------------------|-2--2-4----(4)-|
|-7-7-7-7-7-7-7-7-7-7-7-7-7-7-7-7-|-3--3-5----(5)-|
|---------------------------------|---------------|


  E5
  Gtr I
|-----------------------------------------|
|-12-12-0-0-13-13-0-0-12-12-0-0-13-13-0-0-|
|-----------------------------------------|
|-----------------------------------------|
|-----------------------------------------|
|-----------------------------------------|
|
| Gtr II
|--3--3-0-0--5--5-0-0--3--3-0-0--5--5-0-0-|
|-----------------------------------------|
|-----------------------------------------|
|-----------------------------------------|
|-----------------------------------------|
|-----------------------------------------|
|
| Gtr III
|  PM--------------------------------------
|-----------------------------------------|
|-----------------------------------------|
|-----------------------------------------|
|--9--------------------------------------|
|--7--7-7-7--7--7-7-7--7--7-7-7--7--7-7-7-|
|-----------------------------------------|


|-----------------------------------------|
|-12-12-0-0-13-13-0-0-12-12-0-0-13-13-0-0-|
|-----------------------------------------|
|-----------------------------------------|
|-----------------------------------------|
|-----------------------------------------|
|
|--3--3-0-0--5--5-0-0--3--3-0-0--5--5-0-0-|
|-----------------------------------------|
|-----------------------------------------|
|-----------------------------------------|
|-----------------------------------------|
|-----------------------------------------|
|
|---------------------------------------|
|-----------------------------------------|
|-----------------------------------------|
|-----------------------------------------|
|--9--------------9-----------------------|
|--7--7-7-7--7--7-7-7--7--7-7-7--7--7-7-7-|
|-----------------------------------------|


  C5
|-----------------------------------------|
|-12-12-0-0-13-13-0-0-12-12-0-0-13-13-0-0-|
|-----------------------------------------|
|-----------------------------------------|
|-----------------------------------------|
|-----------------------------------------|
|
|--3--3-0-0--5--5-0-0--3--3-0-0--5--5-0-0-|
|-----------------------------------------|
|-----------------------------------------|
|-----------------------------------------|
|-----------------------------------------|
|-----------------------------------------|
|
|     PM--------------------------------|
|-----------------------------------------|
|-----------------------------------------|
|-----------------------------------------|
|--5--------------------------------------|
|--3--3-3-3--3--3-3-3--3--3-3-3--3--3-3-3-|
|-----------------------------------------|


|-----------------------------------------|
|-12-12-0-0-13-13-0-0-12-12-0-0-13-13-0-0-|
|-----------------------------------------|
|-----------------------------------------|
|-----------------------------------------|
|-----------------------------------------|
|
|--3--3-0-0--5--5-0-0--3--3-0-0--5--5-0-0-|
|-----------------------------------------|
|-----------------------------------------|
|-----------------------------------------|
|-----------------------------------------|
|-----------------------------------------|
|
|     PM--------------------------------|
|-----------------------------------------|
|-----------------------------------------|
|-----------------------------------------|
|--5--------------5-----------------------|
|--3--3-3-3--3--3-3-3--3--3-3-3--3--3-3-3-|
|-----------------------------------------|


  E5
|-----------------------------------------|
|-12-12-0-0-13-13-0-0-12-12-0-0-13-13-0-0-|
|-----------------------------------------|
|-----------------------------------------|
|-----------------------------------------|
|-----------------------------------------|
|
|--3--3-0-0--5--5-0-0--3--3-0-0--5--5-0-0-|
|-----------------------------------------|
|-----------------------------------------|
|-----------------------------------------|
|-----------------------------------------|
|-----------------------------------------|
|
|     PM--------------------------------|
|-----------------------------------------|
|-----------------------------------------|
|-----------------------------------------|
|--9--------------------------------------|
|--7--7-7-7--7--7-7-7--7--7-7-7--7--7-7-7-|
|-----------------------------------------|


|-----------------------------------------|
|-12-12-0-0-13-13-0-0-12-12-0-0-13-13-0-0-|
|-----------------------------------------|
|-----------------------------------------|
|-----------------------------------------|
|-----------------------------------------|
|
|--3--3-0-0--5--5-0-0--3--3-0-0--5--5-0-0-|
|-----------------------------------------|
|-----------------------------------------|
|-----------------------------------------|
|-----------------------------------------|
|-----------------------------------------|
|
|     PM--------------------------------|
|-----------------------------------------|
|-----------------------------------------|
|-----------------------------------------|
|--9--------------9-----------------------|
|--7--7-7-7--7--7-7-7--7--7-7-7--7--7-7-7-|
|-----------------------------------------|


  C5
|-----------------------------------------|
|-12-12-0-0-13-13-0-0-12-12-0-0-13-13-0-0-|
|-----------------------------------------|
|-----------------------------------------|
|-----------------------------------------|
|-----------------------------------------|
|
|--3--3-0-0--5--5-0-0--3--3-0-0--5--5-0-0-|
|-----------------------------------------|
|-----------------------------------------|
|-----------------------------------------|
|-----------------------------------------|
|-----------------------------------------|
|
|     PM-----------------------------------
|-----------------------------------------|
|-----------------------------------------|
|-----------------------------------------|
|--5--------------------------------------|
|--3--3-3-3--3--3-3-3--3--3-3-3--3--3-3-3-|
|-----------------------------------------|


  B5
    ~~~~
|------------------------------------||
|-[14]-------------------------------||
|------------------------------------||
|------------------------------------||
|------------------------------------||
|------------------------------------||
|
|   ~~~~
|------------------------------------||
|------------------------------------||
|-[14]-------------------------------||
|------------------------------------||
|------------------------------------||
|------------------------------------||
|
|----------------------------------|
|------------------------------------||
|------------------------------------||
|------------------------------------||
|---4------------4-------------------||
|---2--2-2-2-2-2-2-2-2-2-2-2-2-2-2-2-||
|------------------------------------||


 Verse
  Em
  Gtrs II, III
  PM--------------------------------------------------------------|
|---------------------------------|---------------------------------|
|---------------------------------|---------------------------------|
|---------------------------------|---------------------------------|
|-5-------------------------------|-5-----------5-------------------|
|-7-7-7-7-7-7-7-7-7-7-7-7-7-7-7-7-|-7-7-7-7-7-7-7-7-7-7-7-7-7-7-7-7-|
|---------------------------------|---------------------------------|


                                    Em D C
  PM----------------------------|
|---------------------------------|---------------|
|---------------------------------|---------------|
|---------------------------------|---------------|
|-5-------------------------------|-5--4-2----(2)-|
|-7-7-7-7-7-7-7-7-7-7-7-7-7-7-7-7-|-7--5-3----(3)-|
|---------------------------------|---------------|


  Em
  PM--------------------------------------------------------------|
|---------------------------------|---------------------------------|
|---------------------------------|---------------------------------|
|---------------------------------|---------------------------------|
|-5-------------------------------|-5-----------5-------------------|
|-7-7-7-7-7-7-7-7-7-7-7-7-7-7-7-7-|-7-7-7-7-7-7-7-7-7-7-7-7-7-7-7-7-|
|---------------------------------|---------------------------------|


                                    C    D
  PM----------------------------|
|---------------------------------|---------------||
|---------------------------------|---------------||
|---------------------------------|---------------||
|-5-------------------------------|-2--2-4----(4)-||
|-7-7-7-7-7-7-7-7-7-7-7-7-7-7-7-7-|-3--3-5----(5)-||
|---------------------------------|---------------||


 Prechorus
  A5                  C5
  Gtr I
|-------------------|------------------|
|---------------7-8-|--------7-8---7-8-|
|--------7--9-------|--9---------------|
|-10----------------|------------------|
|-------------------|------------------|
|-------------------|------------------|
|
| Gtr II
|-------------------|------------------|
|-------------------|------------------|
|---------------7-9-|--------7-9---7-9-|
|--7-----9-10-------|-10---------------|
|-------------------|------------------|
|-------------------|------------------|
|
| Gtr III
|    PM|    PM|   PM     PM|   PM|   PM
|-------------------|------------------|
|-------------------|------------------|
|-------------------|--5-----5-----5---|
|--7-----7------7---|--5-----5-----5---|
|--7-----7------7---|--3-3-3-3-3-3-3-3-|
|--5-5-5-5--5-5-5-5-|------------------|


  D5                  G5
|-------------------|--------------------|
|--------8-----10---|--8-----------------|
|--9----------------|-----9-7--9--7---7--|
|-------------------|---------------9----|
|-------------------|--------------------|
|-------------------|--------------------|
|
|-------------------|--------------------|
|-------------------|--------------------|
|--------7------9---|--7-----------------|
|-10----------------|----10-9-10----7-9--|
|-------------------|------------10------|
|-------------------|--------------------|
|
|    PM|   PM|    PM
|-------------------|--------------------|
|-------------------|--------------------|
|--7-----7------7---|-12-----------------|
|--7-----7------7---|-12-----------------|
|--5-5-5-5-5-5--5-5-|-10-----------------|
|-------------------|--------------------|


  A5                  C5
|-------------------|------------------|
|---------------7-8-|--------7-8---7-8-|
|--------7--9-------|--9---------------|
|-10----------------|------------------|
|-------------------|------------------|
|-------------------|------------------|
|
|-------------------|------------------|
|-------------------|------------------|
|---------------7-9-|--------7-9---7-9-|
|--7-----9-10-------|-10---------------|
|-------------------|------------------|
|-------------------|------------------|
|
|    PM|    PM|   PM     PM|         PM
|-------------------|------------------|
|-------------------|------------------|
|-------------------|--5-----5-----5---|
|--7-----7------7---|--5-----5-----5---|
|--7-----7------7---|--3-3-3-3-3-3-3-3-|
|--5-5-5-5--5-5-5-5-|------------------|


  G5                        D5
|--7----------------------|--------------------|
|----------10--------8----|-7-----------8-10---|
|-------------------------|----9-7-9-7-------7-|
|-------------------------|--------------------|
|-------------------------|--------------------|
|-------------------------|--------------------|
|
|-------------------------|--------------------|
|--8----------------------|--------------------|
|----------11--------9----|-7--------------7---|
|-------------------------|---10-9-7-9-10----7-|
|-------------------------|--------------------|
|-------------------------|--------------------|
|
|     PM|      PM|      PM
|-------------------------|--------------------|
|-------------------------|--------------------|
|-12-------12-------12----|-7------------------|
|-12-------12-------12----|-7------------------|
|-10-10-10-10-10-10-10-10-|-5------------------|
|-------------------------|--------------------|


  G                       C
|----------|------------|----------|--------|
|----------|------------|----------|--------|
|-4--------|-(4)--------|-5--------|-(5)----|
|-5--------|-(5)--------|-5--------|-(5)----|
|-5--------|-(5)--------|-3--------|-(3)----|
|-3--------|-(3)--------|----------|--------|


  D                       C
|----------|------------|----------|--------|
|----------|------------|----------|--------|
|-7--------|-(7)--------|-5--------|-(5)----|
|-7--------|-(7)--------|-5--------|-(5)----|
|-5--------|-(5)--------|-3--------|-(3)----|
|----------|------------|----------|--------|


  B5
  PM--------------------------------------------------------------|
|---------------------------------|---------------------------------|
|---------------------------------|---------------------------------|
|---------------------------------|---------------------------------|
|-4-----------4-----------4-------|-4-----------4-----------4-------|
|-2-2-2-2-2-2-2-2-2-2-2-2-2-2-2-2-|-2-2-2-2-2-2-2-2-2-2-2-2-2-2-2-2-|
|---------------------------------|---------------------------------|


  C5                                C5
  PM----------------------------|
|---------------------------------|------|
|---------------------------------|------|
|---------------------------------|------|
|-5-----------5-----------5-------|-5----|
|-3-3-3-3-3-3-3-3-3-3-3-3-3-3-3-3-|-3----|
|---------------------------------|------|


  C5                                C5
  PM--------------------------------------------------------------|
|---------------------------------|---------------------------------|
|---------------------------------|---------------------------------|
|---------------------------------|---------------------------------|
|-5-----------5-----------5-------|-5-----------5-----------5-------|
|-3-3-3-3-3-3-3-3-3-3-3-3-3-3-3-3-|-3-3-3-3-3-3-3-3-3-3-3-3-3-3-3-3-|
|---------------------------------|---------------------------------|


  D5                                D5
  PM----------------------------|
|---------------------------------|----------||
|---------------------------------|----------||
|---------------------------------|-7--------||
|-7-----------7-------------------|-7--------||
|-5-5-5-5-5-5-5-5-5-5-5-5-5-5-5-5-|-5--------||
|---------------------------------|----------||


 Chorus
  G5            D5              E5            C5
  Gtr I
|-7----8---7--|-7-------------|-7----8---7--|---------------|
|-------------|---10---8--10--|-------------|-10-8---8--10--|
|-------------|---------------|-------------|---------------|
|-------------|---------------|-------------|---------------|
|-------------|---------------|-------------|---------------|
|-------------|---------------|-------------|---------------|
|
| Gtr II
|-------------|---------------|-------------|---------------|
|-8---10---8--|-8--7-------7--|-8---10---8--|--7---------7--|
|-------------|--------9------|-------------|----9---9------|
|-------------|---------------|-------------|---------------|
|-------------|---------------|-------------|---------------|
|-------------|---------------|-------------|---------------|
|
| Gtr III
|-------------|---------------|-------------|---------------|
|-------------|---------------|-------------|---------------|
|-------------|-7-------------|-9-----------|--5------------|
|-5-----------|-7-------------|-9-----------|--5------------|
|-5-----------|-5-------------|-7-----------|--3------------|
|-3-----------|---------------|-------------|---------------|


  G5                                G5
|-7-------7---7-----------7-------|--8-------7------------------------|
|---------------------------------|--------------10-----------8-------|
|---------------------------------|-----------------------------------|
|---------------------------------|-----------------------------------|
|---------------------------------|-----------------------------------|
|---------------------------------|-----------------------------------|
|
|---------------------------------|-----------------------------------|
|-8-------8---8-----------8-------|-10-------8----7-------------------|
|---------------------------------|---------------------------9-------|
|---------------------------------|-----------------------------------|
|---------------------------------|-----------------------------------|
|---------------------------------|-----------------------------------|
|
|   PM------|   PM----------|   PM     PM------|    PM------|   PM--|
|---------------------------------|-----------------------------------|
|---------------------------------|-----------------------------------|
|---------------------------------|-----------------------------------|
|-5-----------5-----------5-------|--5------------5-----------5-------|
|-5-----------5-----------5-------|--5------------5-----------5-------|
|-3-3-3-3-3-3-3-3-3-3-3-3-3-3-3-3-|--3-3-3-3-3-3--3-3-3-3-3-3-3-3-3-3-|


  C5             D5              G5            D5
|-10----8---7--|-7-------------|-7----8---7--|-7-------------|
|--------------|---10---8--10--|-------------|---10---8--10--|
|--------------|---------------|-------------|---------------|
|--------------|---------------|-------------|---------------|
|--------------|---------------|-------------|---------------|
|--------------|---------------|-------------|---------------|
|
|--7-----------|---------------|-------------|---------------|
|------10---8--|-8--7-------7--|-8---10---8--|-8--7-------7--|
|--------------|--------9------|-------------|--------9------|
|--------------|---------------|-------------|---------------|
|--------------|---------------|-------------|---------------|
|--------------|---------------|-------------|---------------|
|
|--------------|---------------|-------------|---------------|
|--------------|---------------|-------------|---------------|
|--5-----------|-7-------------|-------------|-7-------------|
|--5-----------|-7-------------|-5-----------|-7-------------|
|--3-----------|-5-------------|-5-----------|-5-------------|
|--------------|---------------|-3-----------|---------------|


  E5            C5               C5         D5
|-7----8---7--|----------------|----------|----------||
|-------------|-10-8-(8)----8--|-8--------|----------||
|-------------|----------------|----------|----------||
|-------------|----------------|----------|----------||
|-------------|----------------|----------|----------||
|-------------|----------------|----------|----------||
|
|-------------|----------------|----------|----------||
|-8---10---8--|--7-------------|----------|----------||
|-------------|----9-(9)----9--|-9--------|----------||
|-------------|----------------|----------|----------||
|-------------|----------------|----------|----------||
|-------------|----------------|----------|----------||
|
|-------------|----------------|----------|----------||
|-------------|----------------|----------|----------||
|-9-----------|--5-------------|-5--------|-7--------||
|-9-----------|--5-------------|-5--------|-7--------||
|-7-----------|--3-------------|-3--------|-5--------||
|-------------|----------------|----------|----------||


 2nd Solo
  E5
  Gtr I
|--------------------------------------|-------------------------------------|
|-12-------10---8---(8)-------8---10---|-12-------10---8-------8---10---12---|
|--------------------------------------|-------------------------------------|
|--------------------------------------|-------------------------------------|
|--------------------------------------|-------------------------------------|
|--------------------------------------|-------------------------------------|
|
| Gtr II
|--------------------------------------|-------------------------------------|
|--------------------------------------|-------------------------------------|
|-12-------11---9---(9)-------9---11---|-12-------11---9-------9---11---12---|
|--------------------------------------|-------------------------------------|
|--------------------------------------|-------------------------------------|
|--------------------------------------|-------------------------------------|
|
| Gtr III
|  PM----------------------------------------------------------------------|
|--------------------------------------|-------------------------------------|
|--------------------------------------|-------------------------------------|
|--------------------------------------|-------------------------------------|
|--9-----------------------------------|--9------------9---------------------|
|--7-7-7-7--7-7-7-7--7--7-7-7-7-7--7-7-|--7-7-7-7--7-7-7-7-7-7-7-7--7-7--7-7-|
|--------------------------------------|-------------------------------------|


  D5
|---------------------------------------|
|-13-------12---13------------10---12---|
|------------------------11-------------|
|---------------------------------------|
|---------------------------------------|
|---------------------------------------|
|
|---------------------------------------|
|-10--------8---10-------------7----8---|
|-------------------------7-------------|
|---------------------------------------|
|---------------------------------------|
|---------------------------------------|
|
|  PM------------------------------------
|---------------------------------------|
|---------------------------------------|
|---------------------------------------|
|--7-------------7----------------------|
|--5-5-5-5--5-5--5-5-5-5--5-5--5-5--5-5-|
|---------------------------------------|


|-----------------------------------------|
|-13-------12---[13]-------12---13---12---|
|-----------------------------------------|
|-----------------------------------------|
|-----------------------------------------|
|-----------------------------------------|
|
|-----------------------------------------|
|-10--------8---[10]--------8---10----8---|
|-----------------------------------------|
|-----------------------------------------|
|-----------------------------------------|
|-----------------------------------------|
|
|---------------------------------------|
|-----------------------------------------|
|-----------------------------------------|
|-----------------------------------------|
|--7--------------7-----------------------|
|--5-5-5-5--5-5---5--5-5-5--5-5--5-5--5-5-|
|-----------------------------------------|


  G5
|-12------------------------------------|
|----------15---12-------12---15---12---|
|---------------------------------------|
|---------------------------------------|
|---------------------------------------|
|---------------------------------------|
|
|--8--------7------------------7--------|
|----------------8--------8---------8---|
|---------------------------------------|
|---------------------------------------|
|---------------------------------------|
|---------------------------------------|
|
|  PM------------------------------------
|---------------------------------------|
|---------------------------------------|
|---------------------------------------|
|---------------------------------------|
|--5------------------------------------|
|--3-3-3-3--3-3--3-3-3-3--3-3--3-3--3-3-|


|-12--------------------------------------|
|----------15---[12]-------12---13---15---|
|-----------------------------------------|
|-----------------------------------------|
|-----------------------------------------|
|-----------------------------------------|
|
|--8--------7-------------------------7---|
|----------------[8]--------8---10--------|
|-----------------------------------------|
|-----------------------------------------|
|-----------------------------------------|
|-----------------------------------------|
|
|---------------------------------------|
|-----------------------------------------|
|-----------------------------------------|
|-----------------------------------------|
|-----------------------------------------|
|--5--------------5-----------------------|
|--3-3-3-3--3-3---3--3-3-3--3-3--3-3--3-3-|


  D5
|------------------------------------------|
|-/13-------/12---/13------------10---12---|
|---------------------------11-------------|
|------------------------------------------|
|------------------------------------------|
|------------------------------------------|
|
|------------------------------------------|
|-/10--------/8---/10-------------7----8---|
|----------------------------7-------------|
|------------------------------------------|
|------------------------------------------|
|------------------------------------------|
|
|   PM--------------------------------------
|------------------------------------------|
|------------------------------------------|
|------------------------------------------|
|------------------------------------------|
|---5-5-5-5---5-5---5-5-5-5--5-5--5-5--5-5-|
|------------------------------------------|


|------------------------------------------|
|-/13-------/12---/13------------10---13---|
|---------------------------11-------------|
|------------------------------------------|
|------------------------------------------|
|------------------------------------------|
|
|------------------------------------------|
|-/10--------/8---/10-------------7---10---|
|----------------------------7-------------|
|------------------------------------------|
|------------------------------------------|
|------------------------------------------|
|
|----------------------------------------|
|------------------------------------------|
|------------------------------------------|
|------------------------------------------|
|------------------------------------------|
|---5-5-5-5---5-5---5-5-5-5--5-5--5-5--5-5-|
|------------------------------------------|


  C5
|-----------------------------------------|
|-12-------10---[12]------------10---12---|
|--------------------------12-------------|
|-----------------------------------------|
|-----------------------------------------|
|-----------------------------------------|
|
|-----------------------------------------|
|--8--------7----[8]-------------7----8---|
|---------------------------9-------------|
|-----------------------------------------|
|-----------------------------------------|
|-----------------------------------------|
|
|  PM--------------------------------------
|-----------------------------------------|
|-----------------------------------------|
|-----------------------------------------|
|--5--------------------------------------|
|--3-3-3-3--3-3---3--3-3-3--3-3--3-3--3-3-|
|-----------------------------------------|


  D5
   T           T        T
|-24-15p12h15-22-15p12-24-------------------|
|-------------------------10---7---8---10---|
|-------------------------------------------|
|-------------------------------------------|
|-------------------------------------------|
|-------------------------------------------|
|
|  T           T        T
|-------------------------------------------|
|-22-12p10h12-20-12p10-22--7------------7---|
|------------------------------7---9--------|
|-------------------------------------------|
|-------------------------------------------|
|-------------------------------------------|
|
|-----------------------------------------|
|-------------------------------------------|
|-------------------------------------------|
|-------------------------------------------|
|--7-----------------7----------------------|
|--5--5--5--5--5--5--5--5--5-5-5-5-5-5--5-5-|
|-------------------------------------------|


  C5
|---------------------------------------------------|
|-12tr13-----10tr12-----12tr13-----12-----13---15---|
|---------------------------------------------------|
|---------------------------------------------------|
|---------------------------------------------------|
|---------------------------------------------------|
|
|---------------------------------------------------|
|--8tr10------7tr8-------8tr10------8-----10---12---|
|---------------------------------------------------|
|
43 comments total. Showing first comments.
+12 reply
p2fyre wrote on May 25 2006, 11:34 am

difficulty: intermediate? is that a joke..

+3 reply
SomeKindOfKirk wrote on May 25 2006, 01:47 pm

FURY OF THE STORM HELL YEAH!

+5 reply
rayIII wrote on May 26 2006, 10:27 pm

lol the "difficulty" just means how hard the tab is to understand, not how hard the song it to play (which would be something like: "is your name Herman Li? no? oh, well then don't bother") but that wasn't a choice :p

I want to post or [tab]
guest
You may want to rate the tab now too:
select rating
Please do not post tabs as comments. Select "correction" instead!