Oops, an error
Loading. Please wait.

Fury Of The Storm Tab

ver1
ver1

Solo

Whole song

Interactive

More versions @911Tabs.com
114,105 views 204 this week
44 commentsread comments
1 2 3 4 5
excellent!
x 41
Autoscroll
+/-
esc
set tempo
stop
Contributor
Difficulty
intermediate
Hey! There's an official Ultimate Guitar app which is ideal
for learning songs when you're away from computer. Get the app
WARNING: You are trying to view
                                    content from Ultimate-Guitar.com
                                    in an unauthorized application,
                                    which is prohibited.

                                    Please use an official Ultimate
                                    Guitar Tabs application for iPhone,
                                    iPad or Android to access legitimate
                                    chords, guitar, bass, and drum tabs
                                    from Ultimate-Guitar.com database.

                                    Type "ultimate guitar tabs" in Apple
                                    App Store's or Android Market's
                                    search to find the application.
#----------------------------------PLEASE NOTE---------------------------------#
#This file is the author's own work and represents their interpretation of the #
#song. You may only use this file for private study, scholarship, or research. #
#------------------------------------------------------------------------------#

FURY OF THE STORM
As recorded by Dragonforce
(From the 2000 Album SONIC FIRESTORM)

Transcribed by Nathan Brenton
        

Words by Dragonforce Music by Sam Totman
Arranged by Dragonforce

Gtr I (E A D G B E) - '1st Lead'
Gtr II (E A D G B E) - '2nd Lead'
Gtr III (E A D G B E) - 'Rhythm '
Gtr IV (E A D G B E) - 'lead guitar anti glitch'

 Intro
  Q=200
  E5                     D5                    B5
 4/4
  Gtr I
|----------------------|---------------------|-----------------------|
|----------------------|---------------------|-----------------------|
|----------------------|--------14-16-14-----|-----------------------|
|-14--14-16-17-16-14---|-17--17----------17--|-16--16-17-16-14-16-17-|
|----------------------|---------------------|-----------------------|
|----------------------|---------------------|-----------------------|
|
| Gtr II
|----------------------|---------------------|-----------------------|
|----------------------|---------7--8--7-----|-----------------------|
|---------7--9--7------|--9---9-----------9--|--7---7--9--7-----7--9-|
|--9---9-----------9---|---------------------|---------------9-------|
|----------------------|---------------------|-----------------------|
|----------------------|---------------------|-----------------------|
|
| Gtr III
|  PM              PM----|
|----------------------|---------------------|-----------------------|
|----------------------|---------------------|-----------------------|
|--9---------------9-9-|--7------------------|--4--------------------|
|--9---------------9-9-|--7------------------|--4--------------------|
|--7---------------7-7-|--5------------------|--2--------------------|
|----------------------|---------------------|-----------------------|


|----------------------------------------------------|
|----------------------------------------------------|
|-14--14-14-14---------------------------------------|
|--------------17-17-17-17-16-16-16-16---------------|
|--------------------------------------17-17-17-17---|
|----------------------------------------------------|
|
|----------------------------------------------------|
|--7---7--7--7---------------------------------------|
|---------------9--9--9--9--7--7--7--7---------------|
|---------------------------------------9--9--9--9---|
|----------------------------------------------------|
|----------------------------------------------------|
|
|----------------------------------------------------|
|----------------------------------------------------|
|-(4)------------------------------------------------|
|-(4)------------------------------------------------|
|-(2)------------------------------------------------|
|----------------------------------------------------|


  E5                    D5
|---------------------|---------------------|
|---------------------|---------------------|
|---------------------|--------14-16-14-----|
|-14--14-16-17-16-14--|-17--17----------17--|
|---------------------|---------------------|
|---------------------|---------------------|
|
|---------------------|---------------------|
|---------------------|---------7--8--7-----|
|---------7--9--7-----|--9---9-----------9--|
|--9---9-----------9--|---------------------|
|---------------------|---------------------|
|---------------------|---------------------|
|
|  PM
|---------------------|---------------------|
|---------------------|---------------------|
|--9------------------|--7------------------|
|--9------------------|--7------------------|
|--7------------------|--5------------------|
|---------------------|---------------------|


  B5
|-----------------|-----------------|
|-----------------|-----------------|
|-----------------|-----------------|
|-16--16--16--16--|-16--16--16--16--|
|-----------------|-----------------|
|-----------------|-----------------|
|
|-----------------|-----------------|
|-----------------|-----------------|
|--7---7---7---7--|--7---7---7---7--|
|-----------------|-----------------|
|-----------------|-----------------|
|-----------------|-----------------|
|
|  PM---------------------------|
|-----------------|-----------------|
|-----------------|-----------------|
|--4---4---4---4--|--4---4---4---4--|
|--4---4---4---4--|--4---4---4---4--|
|--2---2---2---2--|--2---2---2---2--|
|-----------------|-----------------|


  E5
|-------------------------------------------------|
|-------------------------------------------------|
|----------------------------14-16p14----14-------|
|-14-14-14-16-17-16-14-16-17----------17----17-14-|
|-------------------------------------------------|
|-------------------------------------------------|
|
|-------------------------------------------------|
|-----------------------------7--8--7-------------|
|-----------7--9p=7-----7--9-----------9p=7-------|
|--9--9--9-----------9-----------------------9----|
|-------------------------------------------------|
|-------------------------------------------------|
|
|  PM----------------------------------------------
|-------------------------------------------------|
|-------------------------------------------------|
|-------------------------------------------------|
|--9----------------------------------------------|
|--7--7--7--7--7--7--7--7--7--7--7--7--7--7--7--7-|
|-------------------------------------------------|


  G5
|-------------------------------------------------|
|-------------------------------------------------|
|----------14-16p14----14-14h16p14----14----------|
|-17----17----------17-------------17----17-14----|
|-------------------------------------------------|
|-------------------------------------------------|
|
|-------------------------------------------------|
|-----------7--8--7-----7--7--8--7-----7----------|
|--7-----7-----------7--------------7-----7-------|
|--------------------------------------------9----|
|-------------------------------------------------|
|-------------------------------------------------|
|
|----------------------------------------------|
|-------------------------------------------------|
|-------------------------------------------------|
|-------------------------------------------------|
|-12----------------------------------------------|
|-10-10-10-10-10-10-10-10-10-10-10-10-10-10-10-10-|
|-------------------------------------------------|


  C5
|------------------------------------------------|
|------------------------------------------------|
|---------14-16p14----14-16h17p16p14-16p14----14-|
|-17---17----------17----------------------17----|
|------------------------------------------------|
|------------------------------------------------|
|
|------------------------------------------------|
|----------7--8p=7-----7--8h10p=8p=7--8p=7-----7-|
|--9----9-----------9-----------------------9----|
|------------------------------------------------|
|------------------------------------------------|
|------------------------------------------------|
|
|  PM---------------------------------------------
|------------------------------------------------|
|------------------------------------------------|
|------------------------------------------------|
|------------------------------------------------|
|--3-3--3--3--3--3--3--3--3--3--3--3--3--3--3--3-|
|------------------------------------------------|


  D5
|------------------------------------------------|
|------------------------------------------------|
|-16-16-16-16-17-17-17-17-16-16-16-16-[14]-------|
|------------------------------------------------|
|------------------------------------------------|
|------------------------------------------------|
|
|------------------------------------------------|
|--8--8--8--8-10-10-10-10--8--8--8--8--[7]-------|
|------------------------------------------------|
|------------------------------------------------|
|------------------------------------------------|
|------------------------------------------------|
|
|----------------------------------------------|
|------------------------------------------------|
|------------------------------------------------|
|------------------------------------------------|
|------------------------------------------------|
|--5--5--5--5--5--5--5--5--5--5--5--5---5--5-5-5-|
|------------------------------------------------|


  E5
|-----------------------------------------------|
|-----------------------------------------------|
|---------14-16-14----14-14-16-14----14---------|
|-17---17----------17-------------17----17-14---|
|-----------------------------------------------|
|-----------------------------------------------|
|
|-----------------------------------------------|
|----------7--8p=7-----7--7h=8p=7-----7---------|
|--9----9-----------9--------------9-----9--9---|
|-----------------------------------------------|
|-----------------------------------------------|
|-----------------------------------------------|
|
|  PM--------------------------------------------
|-----------------------------------------------|
|-----------------------------------------------|
|-----------------------------------------------|
|-----------------------------------------------|
|--7-7--7--7--7--7--7--7--7--7--7--7--7--7--7-7-|
|-----------------------------------------------|


  G5
|-------------------------------------------------|
|-------------------------------------------------|
|----------14-16-14----14-14-16-14----14----------|
|-17----17----------17-------------17----17-------|
|-------------------------------------------17----|
|-------------------------------------------------|
|
|-------------------------------------------------|
|-----------7--8p=7-----7--7h=8p=7-----7----------|
|--7-----7-----------7--------------7-----7--7----|
|-------------------------------------------------|
|-------------------------------------------------|
|-------------------------------------------------|
|
|----------------------------------------------|
|-------------------------------------------------|
|-------------------------------------------------|
|-------------------------------------------------|
|-------------------------------------------------|
|-10-10-10-10-10-10-10-10-10-10-10-10-10-10-10-10-|
|-------------------------------------------------|


  C5
|-----------------------------------------------|
|-----------------------------------------------|
|---------14-16p14----14-16h17p16p14-16p14------|
|-17---17----------17----------------------17---|
|-----------------------------------------------|
|-----------------------------------------------|
|
|-----------------------------------------------|
|----------7--8p=7-----7--8h10p=8p=7--8p=7------|
|--9----9-----------9-----------------------9---|
|-----------------------------------------------|
|-----------------------------------------------|
|-----------------------------------------------|
|
|  PM--------------------------------------------
|-----------------------------------------------|
|-----------------------------------------------|
|-----------------------------------------------|
|-----------------------------------------------|
|--3-3--3--3--3--3--3--3--3--3--3--3--3--3--3-3-|
|-----------------------------------------------|


  B5
|----------------------------------------------|
|-15-15-15-15-13-13-13-13-12-12-12-12-10-------|
|----------------------------------------------|
|----------------------------------------------|
|----------------------------------------------|
|----------------------------------------------|
|
|----------------------------------------------|
|-12-12-12-12-10-10-10-10--8--8--8--8--7-------|
|----------------------------------------------|
|----------------------------------------------|
|----------------------------------------------|
|----------------------------------------------|
|
|--------------------------------------------|
|----------------------------------------------|
|----------------------------------------------|
|----------------------------------------------|
|----------------------------------------------|
|--2--2--2--2--2--2--2--2--2--2--2--2--2-2-2-2-|
|----------------------------------------------|


  E5
|----------------------------------------------|
|-----------------------------------------15---|
|---------14-16-14----16-17-16-14--------------|
|-17---17----------17-------------17-17--------|
|----------------------------------------------|
|----------------------------------------------|
|
|------------------------------------------7---|
|----------7--8p=7-----8-10--8--7--------------|
|--9----9-----------9--------------9--9--------|
|----------------------------------------------|
|----------------------------------------------|
|----------------------------------------------|
|
|    PM--------------------------------------|
|----------------------------------------------|
|----------------------------------------------|
|----------------------------------------------|
|--9-------------------------------------------|
|--7-7--7--7--7--7--7--7--7--7--7--7--7-7--7-7-|
|----------------------------------------------|


  G5
|-------------------------------------------------|
|-------------------------------------------------|
|-17-16-14----------14-16-17-16-14----14-16-------|
|----------17----17----------------17-------17----|
|-------------17----------------------------------|
|-------------------------------------------------|
|
|-------------------------------------------------|
|--8--7-----------------7--8--7--------7--8-------|
|--------9--7-----7--9-----------9--7--------9----|
|--------------9----------------------------------|
|-------------------------------------------------|
|-------------------------------------------------|
|
|     PM---------------------------------------|
|-------------------------------------------------|
|-------------------------------------------------|
|-------------------------------------------------|
|-12----------------------------------------------|
|-10-10-10-10-10-10-10-10-10-10-10-10-10-10-10-10-|
|-------------------------------------------------|


  C5
|------------------------------------------------|
|---------------------------------------------15-|
|---------14h16p14----16h17p16p14----14-16-17----|
|-17---17----------17-------------17-------------|
|------------------------------------------------|
|------------------------------------------------|
|
|----------------------------------------------7-|
|----------7--8--7-----8-10--8--7-----7--8-10----|
|--9----9-----------9--------------9-------------|
|------------------------------------------------|
|------------------------------------------------|
|------------------------------------------------|
|
|    PM-------------------------------------------
|------------------------------------------------|
|------------------------------------------------|
|------------------------------------------------|
|--5---------------------------------------------|
|--3-3--3--3--3--3--3--3--3--3--3--3--3--3--3--3-|
|------------------------------------------------|


  D5
|------------------------------------------------|
|-17-17-17-17-19-19-19-19-17-17-17-17-[15]-------|
|------------------------------------------------|
|------------------------------------------------|
|------------------------------------------------|
|------------------------------------------------|
|
|--8--8--8--8-10-10-10-10--8--8--8--8--[7]-------|
|------------------------------------------------|
|------------------------------------------------|
|------------------------------------------------|
|------------------------------------------------|
|------------------------------------------------|
|
|----------------------------------------------|
|------------------------------------------------|
|------------------------------------------------|
|------------------------------------------------|
|-----------7-----------7-----------7------------|
|--5--5--5--5--5--5--5--5--5--5--5--5---5--5-5-5-|
|------------------------------------------------|


  E5
|-----------------------------------------------|
|-----------------------------------------------|
|---------14-16-14----14-16-17-16-14-16-14------|
|-17---17----------17----------------------17---|
|-----------------------------------------------|
|-----------------------------------------------|
|
|-----------------------------------------------|
|----------7--8--7-----7--8-10--8--7--8--7------|
|--9----9-----------9-----------------------9---|
|-----------------------------------------------|
|-----------------------------------------------|
|-----------------------------------------------|
|
|    PM---------------------------------------|
|-----------------------------------------------|
|-----------------------------------------------|
|-----------------------------------------------|
|--9--------------------------------------------|
|--7-7--7--7--7--7--7--7--7--7--7--7--7--7--7-7-|
|-----------------------------------------------|


  G5
|-------------------------------------------------|
|----------------------------15-------------------|
|----------14-16-14----14-16----16-14-16-14-------|
|-17----17----------17----------------------17----|
|-------------------------------------------------|
|-------------------------------------------------|
|
|-----------------------------7-------------------|
|-----------7--8--7-----7--8-----8--7--8--7-------|
|--9-----9-----------9-----------------------9----|
|-------------------------------------------------|
|-------------------------------------------------|
|-------------------------------------------------|
|
|     PM---------------------------------------|
|-------------------------------------------------|
|-------------------------------------------------|
|-------------------------------------------------|
|-12----------------------------------------------|
|-10-10-10-10-10-10-10-10-10-10-10-10-10-10-10-10-|
|-------------------------------------------------|


  C5                                                B5
|-------------------------------------------------|----------|-----|
|----------------------15-17-15-------------------|----------|-----|
|-17-16-14----14-16-17----------17-16-14----14-16-|----------|-----|
|----------17----------------------------17-------|----------|-----|
|-------------------------------------------------|----------|-----|
|-------------------------------------------------|----------|-----|
|
|-----------------------7--8--7-------------------|----------|-----|
|-10--8--7-----7--8-10----------10--8--7-----7--8-|----------|-----|
|-----------9-----------------------------9-------|----------|-----|
|-------------------------------------------------|----------|-----|
|-------------------------------------------------|----------|-----|
|-------------------------------------------------|----------|-----|
|
|     PM---------------------------------------|
|-------------------------------------------------|----------|-----|
|-------------------------------------------------|----------|-----|
|--5----------------------------------------------|----------|-----|
|--5----------------------------------------------|-4--------|-----|
|--3--3--3--3--3--3--3--3--3--3--3--3--3--3--3--3-|-2--------|-----|
|-------------------------------------------------|----------|-----|


  E5
  Gtr I
|-----------------------------------------|
|-12-12-0-0-13-13-0-0-12-12-0-0-13-13-0-0-|
|-----------------------------------------|
|-----------------------------------------|
|-----------------------------------------|
|-----------------------------------------|
|
| Gtr II
|--3--3-0-0--5--5-0-0--3--3-0-0--5--5-0-0-|
|-----------------------------------------|
|-----------------------------------------|
|-----------------------------------------|
|-----------------------------------------|
|-----------------------------------------|
|
| Gtr III
|  PM--------------------------------------
|-----------------------------------------|
|-----------------------------------------|
|-----------------------------------------|
|--9--------------------------------------|
|--7--7-7-7--7--7-7-7--7--7-7-7--7--7-7-7-|
|-----------------------------------------|


|-----------------------------------------|
|-12-12-0-0-13-13-0-0-12-12-0-0-13-13-0-0-|
|-----------------------------------------|
|-----------------------------------------|
|-----------------------------------------|
|-----------------------------------------|
|
|--3--3-0-0--5--5-0-0--3--3-0-0--5--5-0-0-|
|-----------------------------------------|
|-----------------------------------------|
|-----------------------------------------|
|-----------------------------------------|
|-----------------------------------------|
|
|---------------------------------------|
|-----------------------------------------|
|-----------------------------------------|
|-----------------------------------------|
|--9--------------9-----------------------|
|--7--7-7-7--7--7-7-7--7--7-7-7--7--7-7-7-|
|-----------------------------------------|


  C5
|-----------------------------------------|
|-12-12-0-0-13-13-0-0-12-12-0-0-13-13-0-0-|
|-----------------------------------------|
|-----------------------------------------|
|-----------------------------------------|
|-----------------------------------------|
|
|--3--3-0-0--5--5-0-0--3--3-0-0--5--5-0-0-|
|-----------------------------------------|
|-----------------------------------------|
|-----------------------------------------|
|-----------------------------------------|
|-----------------------------------------|
|
|  PM--------------------------------------
|-----------------------------------------|
|-----------------------------------------|
|-----------------------------------------|
|--5--------------------------------------|
|--3--3-3-3--3--3-3-3--3--3-3-3--3--3-3-3-|
|-----------------------------------------|


|-----------------------------------------|
|-12-12-0-0-13-13-0-0-12-12-0-0-13-13-0-0-|
|-----------------------------------------|
|-----------------------------------------|
|-----------------------------------------|
|-----------------------------------------|
|
|--3--3-0-0--5--5-0-0--3--3-0-0--5--5-0-0-|
|-----------------------------------------|
|-----------------------------------------|
|-----------------------------------------|
|-----------------------------------------|
|-----------------------------------------|
|
|---------------------------------------|
|-----------------------------------------|
|-----------------------------------------|
|-----------------------------------------|
|--5--------------------------------------|
|--3--3-3-3--3--3-3-3--3--3-3-3--3--3-3-3-|
|-----------------------------------------|


  E5
|-----------------------------------------|
|-12-12-0-0-13-13-0-0-12-12-0-0-13-13-0-0-|
|-----------------------------------------|
|-----------------------------------------|
|-----------------------------------------|
|-----------------------------------------|
|
|--3--3-0-0--5--5-0-0--3--3-0-0--5--5-0-0-|
|-----------------------------------------|
|-----------------------------------------|
|-----------------------------------------|
|-----------------------------------------|
|-----------------------------------------|
|
|  PM--------------------------------------
|-----------------------------------------|
|-----------------------------------------|
|-----------------------------------------|
|--9--------------------------------------|
|--7--7-7-7--7--7-7-7--7--7-7-7--7--7-7-7-|
|-----------------------------------------|


|-----------------------------------------|
|-12-12-0-0-13-13-0-0-12-12-0-0-13-13-0-0-|
|-----------------------------------------|
|-----------------------------------------|
|-----------------------------------------|
|-----------------------------------------|
|
|--3--3-0-0--5--5-0-0--3--3-0-0--5--5-0-0-|
|-----------------------------------------|
|-----------------------------------------|
|-----------------------------------------|
|-----------------------------------------|
|-----------------------------------------|
|
|---------------------------------------|
|-----------------------------------------|
|-----------------------------------------|
|-----------------------------------------|
|--9--------------9-----------------------|
|--7--7-7-7--7--7-7-7--7--7-7-7--7--7-7-7-|
|-----------------------------------------|


  C5
|-----------------------------------------|
|-12-12-0-0-13-13-0-0-12-12-0-0-13-13-0-0-|
|-----------------------------------------|
|-----------------------------------------|
|-----------------------------------------|
|-----------------------------------------|
|
|--3--3-0-0--5--5-0-0--3--3-0-0--5--5-0-0-|
|-----------------------------------------|
|-----------------------------------------|
|-----------------------------------------|
|-----------------------------------------|
|-----------------------------------------|
|
|  PM--------------------------------------
|-----------------------------------------|
|-----------------------------------------|
|-----------------------------------------|
|--5--------------------------------------|
|--3--3-3-3--3--3-3-3--3--3-3-3--3--3-3-3-|
|-----------------------------------------|


|-----------------------------------------|
|-12-12-0-0-13-13-0-0-12-12-0-0-13-13-0-0-|
|-----------------------------------------|
|-----------------------------------------|
|-----------------------------------------|
|-----------------------------------------|
|
|--3--3-0-0--5--5-0-0--3--3-0-0--5--5-0-0-|
|-----------------------------------------|
|-----------------------------------------|
|-----------------------------------------|
|-----------------------------------------|
|-----------------------------------------|
|
|---------------------------------------|
|-----------------------------------------|
|-----------------------------------------|
|-----------------------------------------|
|--5--------------5-----------------------|
|--3--3-3-3--3--3-3-3--3--3-3-3--3--3-3-3-|
|-----------------------------------------|


  A5
|-----------------------------------------|
|-12-12-0-0-13-13-0-0-12-12-0-0-13-13-0-0-|
|-----------------------------------------|
|-----------------------------------------|
|-----------------------------------------|
|-----------------------------------------|
|
|--3--3-0-0--5--5-0-0--3--3-0-0--5--5-0-0-|
|-----------------------------------------|
|-----------------------------------------|
|-----------------------------------------|
|-----------------------------------------|
|-----------------------------------------|
|
|  PM--------------------------------------
|-----------------------------------------|
|-----------------------------------------|
|-----------------------------------------|
|-----------------------------------------|
|--7--------------------------------------|
|--5--5-5-5--5--5-5-5--5--5-5-5--5--5-5-5-|


|-----------------------------------------|
|-12-12-0-0-13-13-0-0-12-12-0-0-13-13-0-0-|
|-----------------------------------------|
|-----------------------------------------|
|-----------------------------------------|
|-----------------------------------------|
|
|--3--3-0-0--5--5-0-0--3--3-0-0--5--5-0-0-|
|-----------------------------------------|
|-----------------------------------------|
|-----------------------------------------|
|-----------------------------------------|
|-----------------------------------------|
|
|---------------------------------------|
|-----------------------------------------|
|-----------------------------------------|
|-----------------------------------------|
|-----------------------------------------|
|--7--------------------------------------|
|--5--5-5-5--5--5-5-5--5--5-5-5--5--5-5-5-|


  E5
|-----------------------------------------|
|-12-12-0-0-13-13-0-0-12-12-0-0-13-13-0-0-|
|-----------------------------------------|
|-----------------------------------------|
|-----------------------------------------|
|-----------------------------------------|
|
|--3--3-0-0--5--5-0-0--3--3-0-0--5--5-0-0-|
|-----------------------------------------|
|-----------------------------------------|
|-----------------------------------------|
|-----------------------------------------|
|-----------------------------------------|
|
|  PM--------------------------------------
|-----------------------------------------|
|-----------------------------------------|
|-----------------------------------------|
|--9--------------------------------------|
|--7--7-7-7--7--7-7-7--7--7-7-7--7--7-7-7-|
|-----------------------------------------|


|-----------------------------------------|
|-12-12-0-0-13-13-0-0-12-12-0-0-13-13-0-0-|
|-----------------------------------------|
|-----------------------------------------|
|-----------------------------------------|
|-----------------------------------------|
|
|--3--3-0-0--5--5-0-0--3--3-0-0--5--5-0-0-|
|-----------------------------------------|
|-----------------------------------------|
|-----------------------------------------|
|-----------------------------------------|
|-----------------------------------------|
|
|---------------------------------------|
|-----------------------------------------|
|-----------------------------------------|
|-----------------------------------------|
|--9--------------------------------------|
|--7--7-7-7--7--7-7-7--7--7-7-7--7--7-7-7-|
|-----------------------------------------|


  C5
|-----------------------------------------|
|-12-12-0-0-13-13-0-0-12-12-0-0-13-13-0-0-|
|-----------------------------------------|
|-----------------------------------------|
|-----------------------------------------|
|-----------------------------------------|
|
|--3--3-0-0--5--5-0-0--3--3-0-0--5--5-0-0-|
|-----------------------------------------|
|-----------------------------------------|
|-----------------------------------------|
|-----------------------------------------|
|-----------------------------------------|
|
|  PM--------------------------------------
|-----------------------------------------|
|-----------------------------------------|
|-----------------------------------------|
|--5--------------------------------------|
|--3--3-3-3--3--3-3-3--3--3-3-3--3--3-3-3-|
|-----------------------------------------|


|-----------------------------------------|
|-12-12-0-0-13-13-0-0-12-12-0-0-13-13-0-0-|
|-----------------------------------------|
|-----------------------------------------|
|-----------------------------------------|
|-----------------------------------------|
|
|--3--3-0-0--5--5-0-0--3--3-0-0--5--5-0-0-|
|-----------------------------------------|
|-----------------------------------------|
|-----------------------------------------|
|-----------------------------------------|
|-----------------------------------------|
|
|---------------------------------------|
|-----------------------------------------|
|-----------------------------------------|
|-----------------------------------------|
|--5--------------5-----------------------|
|--3--3-3-3--3--3-3-3--3--3-3-3--3--3-3-3-|
|-----------------------------------------|


  B5
|-----------------------------------------|
|-12-12-0-0-13-13-0-0-12-12-0-0-13-13-0-0-|
|-----------------------------------------|
|-----------------------------------------|
|-----------------------------------------|
|-----------------------------------------|
|
|--3--3-0-0--5--5-0-0--3--3-0-0--5--5-0-0-|
|-----------------------------------------|
|-----------------------------------------|
|-----------------------------------------|
|-----------------------------------------|
|-----------------------------------------|
|
|  PM-----------------------------------|
|-----------------------------------------|
|-----------------------------------------|
|-----------------------------------------|
|--4--------------------------------------|
|--2--2-2-2--2--2-2-2--2--2-2-2--2--2-2-2-|
|-----------------------------------------|


|---------------------------------------|
|-7-10-7-0-8-11-8-0-9-12-9-0-10-13-10-0-|
|---------------------------------------|
|---------------------------------------|
|---------------------------------------|
|---------------------------------------|
|
|---------------------------------------|
|-7-10-7-0-8-11-8-0-9-12-9-0-10-13-10-0-|
|---------------------------------------|
|---------------------------------------|
|---------------------------------------|
|---------------------------------------|
|
|---------------------------------------|
|---------------------------------------|
|---------------------------------------|
|-4-------------------------------------|
|-2-------------------------------------|
|---------------------------------------|


                              B5
    ~~~~
|---------------------------|--------------------||
|-[12]-------------[12]b14r=|=(12)------(12)\----||
|---------------------------|--------------------||
|---------------------------|--------------------||
|---------------------------|--------------------||
|---------------------------|--------------------||
|
|---------------------------|--------------------||
|---------------------------|--------------------||
|----------[10]b12r(10)-----|-(10)\--------------||
|---------------------------|--------------------||
|---------------------------|--------------------||
|---------------------------|--------------------||
|
|---------------------------|--------------------||
|---------------------------|--------------------||
|---------------------------|---4----4-----------||
|---------------------------|---4----4-----------||
|---------------------------|---2----2-----------||
|---------------------------|--------------------||


 Verse
  Em
  Gtrs II, III
  PM--------------------------------------------------------------|
|---------------------------------|---------------------------------|
|---------------------------------|---------------------------------|
|---------------------------------|---------------------------------|
|-5-------------------------------|-5-----------5-------------------|
|-7-7-7-7-7-7-7-7-7-7-7-7-7-7-7-7-|-7-7-7-7-7-7-7-7-7-7-7-7-7-7-7-7-|
|---------------------------------|---------------------------------|


                                    Em D C
  PM----------------------------|
|---------------------------------|---------------|
|---------------------------------|---------------|
|---------------------------------|---------------|
|-5-------------------------------|-5--4-2----(2)-|
|-7-7-7-7-7-7-7-7-7-7-7-7-7-7-7-7-|-7--5-3----(3)-|
|---------------------------------|---------------|


  Em
  PM--------------------------------------------------------------|
|---------------------------------|---------------------------------|
|---------------------------------|---------------------------------|
|---------------------------------|---------------------------------|
|-5-------------------------------|-5-----------5-------------------|
|-7-7-7-7-7-7-7-7-7-7-7-7-7-7-7-7-|-7-7-7-7-7-7-7-7-7-7-7-7-7-7-7-7-|
|---------------------------------|---------------------------------|


                                    C    D
  PM----------------------------|
|---------------------------------|---------------|
|---------------------------------|---------------|
|---------------------------------|---------------|
|-5-------------------------------|-2--2-4----(4)-|
|-7-7-7-7-7-7-7-7-7-7-7-7-7-7-7-7-|-3--3-5----(5)-|
|---------------------------------|---------------|


  E5
  Gtr I
|-----------------------------------------|
|-12-12-0-0-13-13-0-0-12-12-0-0-13-13-0-0-|
|-----------------------------------------|
|-----------------------------------------|
|-----------------------------------------|
|-----------------------------------------|
|
| Gtr II
|--3--3-0-0--5--5-0-0--3--3-0-0--5--5-0-0-|
|-----------------------------------------|
|-----------------------------------------|
|-----------------------------------------|
|-----------------------------------------|
|-----------------------------------------|
|
| Gtr III
|  PM--------------------------------------
|-----------------------------------------|
|-----------------------------------------|
|-----------------------------------------|
|--9--------------------------------------|
|--7--7-7-7--7--7-7-7--7--7-7-7--7--7-7-7-|
|-----------------------------------------|


|-----------------------------------------|
|-12-12-0-0-13-13-0-0-12-12-0-0-13-13-0-0-|
|-----------------------------------------|
|-----------------------------------------|
|-----------------------------------------|
|-----------------------------------------|
|
|--3--3-0-0--5--5-0-0--3--3-0-0--5--5-0-0-|
|-----------------------------------------|
|-----------------------------------------|
|-----------------------------------------|
|-----------------------------------------|
|-----------------------------------------|
|
|---------------------------------------|
|-----------------------------------------|
|-----------------------------------------|
|-----------------------------------------|
|--9--------------9-----------------------|
|--7--7-7-7--7--7-7-7--7--7-7-7--7--7-7-7-|
|-----------------------------------------|


  C5
|-----------------------------------------|
|-12-12-0-0-13-13-0-0-12-12-0-0-13-13-0-0-|
|-----------------------------------------|
|-----------------------------------------|
|-----------------------------------------|
|-----------------------------------------|
|
|--3--3-0-0--5--5-0-0--3--3-0-0--5--5-0-0-|
|-----------------------------------------|
|-----------------------------------------|
|-----------------------------------------|
|-----------------------------------------|
|-----------------------------------------|
|
|     PM--------------------------------|
|-----------------------------------------|
|-----------------------------------------|
|-----------------------------------------|
|--5--------------------------------------|
|--3--3-3-3--3--3-3-3--3--3-3-3--3--3-3-3-|
|-----------------------------------------|


|-----------------------------------------|
|-12-12-0-0-13-13-0-0-12-12-0-0-13-13-0-0-|
|-----------------------------------------|
|-----------------------------------------|
|-----------------------------------------|
|-----------------------------------------|
|
|--3--3-0-0--5--5-0-0--3--3-0-0--5--5-0-0-|
|-----------------------------------------|
|-----------------------------------------|
|-----------------------------------------|
|-----------------------------------------|
|-----------------------------------------|
|
|     PM--------------------------------|
|-----------------------------------------|
|-----------------------------------------|
|-----------------------------------------|
|--5--------------5-----------------------|
|--3--3-3-3--3--3-3-3--3--3-3-3--3--3-3-3-|
|-----------------------------------------|


  E5
|-----------------------------------------|
|-12-12-0-0-13-13-0-0-12-12-0-0-13-13-0-0-|
|-----------------------------------------|
|-----------------------------------------|
|-----------------------------------------|
|-----------------------------------------|
|
|--3--3-0-0--5--5-0-0--3--3-0-0--5--5-0-0-|
|-----------------------------------------|
|-----------------------------------------|
|-----------------------------------------|
|-----------------------------------------|
|-----------------------------------------|
|
|     PM--------------------------------|
|-----------------------------------------|
|-----------------------------------------|
|-----------------------------------------|
|--9--------------------------------------|
|--7--7-7-7--7--7-7-7--7--7-7-7--7--7-7-7-|
|-----------------------------------------|


|-----------------------------------------|
|-12-12-0-0-13-13-0-0-12-12-0-0-13-13-0-0-|
|-----------------------------------------|
|-----------------------------------------|
|-----------------------------------------|
|-----------------------------------------|
|
|--3--3-0-0--5--5-0-0--3--3-0-0--5--5-0-0-|
|-----------------------------------------|
|-----------------------------------------|
|-----------------------------------------|
|-----------------------------------------|
|-----------------------------------------|
|
|     PM--------------------------------|
|-----------------------------------------|
|-----------------------------------------|
|-----------------------------------------|
|--9--------------9-----------------------|
|--7--7-7-7--7--7-7-7--7--7-7-7--7--7-7-7-|
|-----------------------------------------|


  C5
|-----------------------------------------|
|-12-12-0-0-13-13-0-0-12-12-0-0-13-13-0-0-|
|-----------------------------------------|
|-----------------------------------------|
|-----------------------------------------|
|-----------------------------------------|
|
|--3--3-0-0--5--5-0-0--3--3-0-0--5--5-0-0-|
|-----------------------------------------|
|-----------------------------------------|
|-----------------------------------------|
|-----------------------------------------|
|-----------------------------------------|
|
|     PM-----------------------------------
|-----------------------------------------|
|-----------------------------------------|
|-----------------------------------------|
|--5--------------------------------------|
|--3--3-3-3--3--3-3-3--3--3-3-3--3--3-3-3-|
|-----------------------------------------|


  B5
    ~~~~
|------------------------------------||
|-[14]-------------------------------||
|------------------------------------||
|------------------------------------||
|------------------------------------||
|------------------------------------||
|
|   ~~~~
|------------------------------------||
|------------------------------------||
|-[14]-------------------------------||
|------------------------------------||
|------------------------------------||
|------------------------------------||
|
|----------------------------------|
|------------------------------------||
|------------------------------------||
|------------------------------------||
|---4------------4-------------------||
|---2--2-2-2-2-2-2-2-2-2-2-2-2-2-2-2-||
|------------------------------------||


 Verse
  Em
  Gtrs II, III
  PM--------------------------------------------------------------|
|---------------------------------|---------------------------------|
|---------------------------------|---------------------------------|
|---------------------------------|---------------------------------|
|-5-------------------------------|-5-----------5-------------------|
|-7-7-7-7-7-7-7-7-7-7-7-7-7-7-7-7-|-7-7-7-7-7-7-7-7-7-7-7-7-7-7-7-7-|
|---------------------------------|---------------------------------|


                                    Em D C
  PM----------------------------|
|---------------------------------|---------------|
|---------------------------------|---------------|
|---------------------------------|---------------|
|-5-------------------------------|-5--4-2----(2)-|
|-7-7-7-7-7-7-7-7-7-7-7-7-7-7-7-7-|-7--5-3----(3)-|
|---------------------------------|---------------|


  Em
  PM--------------------------------------------------------------|
|---------------------------------|---------------------------------|
|---------------------------------|---------------------------------|
|---------------------------------|---------------------------------|
|-5-------------------------------|-5-----------5-------------------|
|-7-7-7-7-7-7-7-7-7-7-7-7-7-7-7-7-|-7-7-7-7-7-7-7-7-7-7-7-7-7-7-7-7-|
|---------------------------------|---------------------------------|


                                    C    D
  PM----------------------------|
|---------------------------------|---------------||
|---------------------------------|---------------||
|---------------------------------|---------------||
|-5-------------------------------|-2--2-4----(4)-||
|-7-7-7-7-7-7-7-7-7-7-7-7-7-7-7-7-|-3--3-5----(5)-||
|---------------------------------|---------------||


 Prechorus
  A5                  C5
  Gtr I
|-------------------|------------------|
|---------------7-8-|--------7-8---7-8-|
|--------7--9-------|--9---------------|
|-10----------------|------------------|
|-------------------|------------------|
|-------------------|------------------|
|
| Gtr II
|-------------------|------------------|
|-------------------|------------------|
|---------------7-9-|--------7-9---7-9-|
|--7-----9-10-------|-10---------------|
|-------------------|------------------|
|-------------------|------------------|
|
| Gtr III
|    PM|    PM|   PM     PM|   PM|   PM
|-------------------|------------------|
|-------------------|------------------|
|-------------------|--5-----5-----5---|
|--7-----7------7---|--5-----5-----5---|
|--7-----7------7---|--3-3-3-3-3-3-3-3-|
|--5-5-5-5--5-5-5-5-|------------------|


  D5                  G5
|-------------------|--------------------|
|--------8-----10---|--8-----------------|
|--9----------------|-----9-7--9--7---7--|
|-------------------|---------------9----|
|-------------------|--------------------|
|-------------------|--------------------|
|
|-------------------|--------------------|
|-------------------|--------------------|
|--------7------9---|--7-----------------|
|-10----------------|----10-9-10----7-9--|
|-------------------|------------10------|
|-------------------|--------------------|
|
|    PM|   PM|    PM
|-------------------|--------------------|
|-------------------|--------------------|
|--7-----7------7---|-12-----------------|
|--7-----7------7---|-12-----------------|
|--5-5-5-5-5-5--5-5-|-10-----------------|
|-------------------|--------------------|


  A5                  C5
|-------------------|------------------|
|---------------7-8-|--------7-8---7-8-|
|--------7--9-------|--9---------------|
|-10----------------|------------------|
|-------------------|------------------|
|-------------------|------------------|
|
|-------------------|------------------|
|-------------------|------------------|
|---------------7-9-|--------7-9---7-9-|
|--7-----9-10-------|-10---------------|
|-------------------|------------------|
|-------------------|------------------|
|
|    PM|    PM|   PM     PM|         PM
|-------------------|------------------|
|-------------------|------------------|
|-------------------|--5-----5-----5---|
|--7-----7------7---|--5-----5-----5---|
|--7-----7------7---|--3-3-3-3-3-3-3-3-|
|--5-5-5-5--5-5-5-5-|------------------|


  G5                        D5
|--7----------------------|--------------------|
|----------10--------8----|-7-----------8-10---|
|-------------------------|----9-7-9-7-------7-|
|-------------------------|--------------------|
|-------------------------|--------------------|
|-------------------------|--------------------|
|
|-------------------------|--------------------|
|--8----------------------|--------------------|
|----------11--------9----|-7--------------7---|
|-------------------------|---10-9-7-9-10----7-|
|-------------------------|--------------------|
|-------------------------|--------------------|
|
|     PM|      PM|      PM
|-------------------------|--------------------|
|-------------------------|--------------------|
|-12-------12-------12----|-7------------------|
|-12-------12-------12----|-7------------------|
|-10-10-10-10-10-10-10-10-|-5------------------|
|-------------------------|--------------------|


  G                       C
|----------|------------|----------|--------|
|----------|------------|----------|--------|
|-4--------|-(4)--------|-5--------|-(5)----|
|-5--------|-(5)--------|-5--------|-(5)----|
|-5--------|-(5)--------|-3--------|-(3)----|
|-3--------|-(3)--------|----------|--------|


  D                       C
|----------|------------|----------|--------|
|----------|------------|----------|--------|
|-7--------|-(7)--------|-5--------|-(5)----|
|-7--------|-(7)--------|-5--------|-(5)----|
|-5--------|-(5)--------|-3--------|-(3)----|
|----------|------------|----------|--------|


  B5
  PM--------------------------------------------------------------|
|---------------------------------|---------------------------------|
|---------------------------------|---------------------------------|
|---------------------------------|---------------------------------|
|-4-----------4-----------4-------|-4-----------4-----------4-------|
|-2-2-2-2-2-2-2-2-2-2-2-2-2-2-2-2-|-2-2-2-2-2-2-2-2-2-2-2-2-2-2-2-2-|
|---------------------------------|---------------------------------|


  C5                                C5
  PM----------------------------|
|---------------------------------|------|
|---------------------------------|------|
|---------------------------------|------|
|-5-----------5-----------5-------|-5----|
|-3-3-3-3-3-3-3-3-3-3-3-3-3-3-3-3-|-3----|
|---------------------------------|------|


  C5                                C5
  PM--------------------------------------------------------------|
|---------------------------------|---------------------------------|
|---------------------------------|---------------------------------|
|---------------------------------|---------------------------------|
|-5-----------5-----------5-------|-5-----------5-----------5-------|
|-3-3-3-3-3-3-3-3-3-3-3-3-3-3-3-3-|-3-3-3-3-3-3-3-3-3-3-3-3-3-3-3-3-|
|---------------------------------|---------------------------------|


  D5                                D5
  PM----------------------------|
|---------------------------------|----------||
|---------------------------------|----------||
|---------------------------------|-7--------||
|-7-----------7-------------------|-7--------||
|-5-5-5-5-5-5-5-5-5-5-5-5-5-5-5-5-|-5--------||
|---------------------------------|----------||


 Chorus
  G5            D5              E5            C5
  Gtr I
|-7----8---7--|-7-------------|-7----8---7--|---------------|
|-------------|---10---8--10--|-------------|-10-8---8--10--|
|-------------|---------------|-------------|---------------|
|-------------|---------------|-------------|---------------|
|-------------|---------------|-------------|---------------|
|-------------|---------------|-------------|---------------|
|
| Gtr II
|-------------|---------------|-------------|---------------|
|-8---10---8--|-8--7-------7--|-8---10---8--|--7---------7--|
|-------------|--------9------|-------------|----9---9------|
|-------------|---------------|-------------|---------------|
|-------------|---------------|-------------|---------------|
|-------------|---------------|-------------|---------------|
|
| Gtr III
|-------------|---------------|-------------|---------------|
|-------------|---------------|-------------|---------------|
|-------------|-7-------------|-9-----------|--5------------|
|-5-----------|-7-------------|-9-----------|--5------------|
|-5-----------|-5-------------|-7-----------|--3------------|
|-3-----------|---------------|-------------|---------------|


  G5                                G5
|-7-------7---7-----------7-------|--8-------7------------------------|
|---------------------------------|--------------10-----------8-------|
|---------------------------------|-----------------------------------|
|---------------------------------|-----------------------------------|
|---------------------------------|-----------------------------------|
|---------------------------------|-----------------------------------|
|
|---------------------------------|-----------------------------------|
|-8-------8---8-----------8-------|-10-------8----7-------------------|
|---------------------------------|---------------------------9-------|
|---------------------------------|-----------------------------------|
|---------------------------------|-----------------------------------|
|---------------------------------|-----------------------------------|
|
|   PM------|   PM----------|   PM     PM------|    PM------|   PM--|
|---------------------------------|-----------------------------------|
|---------------------------------|-----------------------------------|
|---------------------------------|-----------------------------------|
|-5-----------5-----------5-------|--5------------5-----------5-------|
|-5-----------5-----------5-------|--5------------5-----------5-------|
|-3-3-3-3-3-3-3-3-3-3-3-3-3-3-3-3-|--3-3-3-3-3-3--3-3-3-3-3-3-3-3-3-3-|


  C5             D5              G5            D5
|-10----8---7--|-7-------------|-7----8---7--|-7-------------|
|--------------|---10---8--10--|-------------|---10---8--10--|
|--------------|---------------|-------------|---------------|
|--------------|---------------|-------------|---------------|
|--------------|---------------|-------------|---------------|
|--------------|---------------|-------------|---------------|
|
|--7-----------|---------------|-------------|---------------|
|------10---8--|-8--7-------7--|-8---10---8--|-8--7-------7--|
|--------------|--------9------|-------------|--------9------|
|--------------|---------------|-------------|---------------|
|--------------|---------------|-------------|---------------|
|--------------|---------------|-------------|---------------|
|
|--------------|---------------|-------------|---------------|
|--------------|---------------|-------------|---------------|
|--5-----------|-7-------------|-------------|-7-------------|
|--5-----------|-7-------------|-5-----------|-7-------------|
|--3-----------|-5-------------|-5-----------|-5-------------|
|--------------|---------------|-3-----------|---------------|


  E5            C5               C5         D5
|-7----8---7--|----------------|----------|----------||
|-------------|-10-8-(8)----8--|-8--------|----------||
|-------------|----------------|----------|----------||
|-------------|----------------|----------|----------||
|-------------|----------------|----------|----------||
|-------------|----------------|----------|----------||
|
|-------------|----------------|----------|----------||
|-8---10---8--|--7-------------|----------|----------||
|-------------|----9-(9)----9--|-9--------|----------||
|-------------|----------------|----------|----------||
|-------------|----------------|----------|----------||
|-------------|----------------|----------|----------||
|
|-------------|----------------|----------|----------||
|-------------|----------------|----------|----------||
|-9-----------|--5-------------|-5--------|-7--------||
|-9-----------|--5-------------|-5--------|-7--------||
|-7-----------|--3-------------|-3--------|-5--------||
|-------------|----------------|----------|----------||


 2nd Solo
  E5
  Gtr I
|--------------------------------------|-------------------------------------|
|-12-------10---8---(8)-------8---10---|-12-------10---8-------8---10---12---|
|--------------------------------------|-------------------------------------|
|--------------------------------------|-------------------------------------|
|--------------------------------------|-------------------------------------|
|--------------------------------------|-------------------------------------|
|
| Gtr II
|--------------------------------------|-------------------------------------|
|--------------------------------------|-------------------------------------|
|-12-------11---9---(9)-------9---11---|-12-------11---9-------9---11---12---|
|--------------------------------------|-------------------------------------|
|--------------------------------------|-------------------------------------|
|--------------------------------------|-------------------------------------|
|
| Gtr III
|  PM----------------------------------------------------------------------|
|--------------------------------------|-------------------------------------|
|--------------------------------------|-------------------------------------|
|--------------------------------------|-------------------------------------|
|--9-----------------------------------|--9------------9---------------------|
|--7-7-7-7--7-7-7-7--7--7-7-7-7-7--7-7-|--7-7-7-7--7-7-7-7-7-7-7-7--7-7--7-7-|
|--------------------------------------|-------------------------------------|


  D5
|---------------------------------------|
|-13-------12---13------------10---12---|
|------------------------11-------------|
|---------------------------------------|
|---------------------------------------|
|---------------------------------------|
|
|---------------------------------------|
|-10--------8---10-------------7----8---|
|-------------------------7-------------|
|---------------------------------------|
|---------------------------------------|
|---------------------------------------|
|
|  PM------------------------------------
|---------------------------------------|
|---------------------------------------|
|---------------------------------------|
|--7-------------7----------------------|
|--5-5-5-5--5-5--5-5-5-5--5-5--5-5--5-5-|
|---------------------------------------|


|-----------------------------------------|
|-13-------12---[13]-------12---13---12---|
|-----------------------------------------|
|-----------------------------------------|
|-----------------------------------------|
|-----------------------------------------|
|
|-----------------------------------------|
|-10--------8---[10]--------8---10----8---|
|-----------------------------------------|
|-----------------------------------------|
|-----------------------------------------|
|-----------------------------------------|
|
|---------------------------------------|
|-----------------------------------------|
|-----------------------------------------|
|-----------------------------------------|
|--7--------------7-----------------------|
|--5-5-5-5--5-5---5--5-5-5--5-5--5-5--5-5-|
|-----------------------------------------|


  G5
|-12------------------------------------|
|----------15---12-------12---15---12---|
|---------------------------------------|
|---------------------------------------|
|---------------------------------------|
|---------------------------------------|
|
|--8--------7------------------7--------|
|----------------8--------8---------8---|
|---------------------------------------|
|---------------------------------------|
|---------------------------------------|
|---------------------------------------|
|
|  PM------------------------------------
|---------------------------------------|
|---------------------------------------|
|---------------------------------------|
|---------------------------------------|
|--5------------------------------------|
|--3-3-3-3--3-3--3-3-3-3--3-3--3-3--3-3-|


|-12--------------------------------------|
|----------15---[12]-------12---13---15---|
|-----------------------------------------|
|-----------------------------------------|
|-----------------------------------------|
|-----------------------------------------|
|
|--8--------7-------------------------7---|
|----------------[8]--------8---10--------|
|-----------------------------------------|
|-----------------------------------------|
|-----------------------------------------|
|-----------------------------------------|
|
|---------------------------------------|
|-----------------------------------------|
|-----------------------------------------|
|-----------------------------------------|
|-----------------------------------------|
|--5--------------5-----------------------|
|--3-3-3-3--3-3---3--3-3-3--3-3--3-3--3-3-|


  D5
|------------------------------------------|
|-/13-------/12---/13------------10---12---|
|---------------------------11-------------|
|------------------------------------------|
|------------------------------------------|
|------------------------------------------|
|
|------------------------------------------|
|-/10--------/8---/10-------------7----8---|
|----------------------------7-------------|
|------------------------------------------|
|------------------------------------------|
|------------------------------------------|
|
|   PM--------------------------------------
|------------------------------------------|
|------------------------------------------|
|------------------------------------------|
|------------------------------------------|
|---5-5-5-5---5-5---5-5-5-5--5-5--5-5--5-5-|
|------------------------------------------|


|------------------------------------------|
|-/13-------/12---/13------------10---13---|
|---------------------------11-------------|
|------------------------------------------|
|------------------------------------------|
|------------------------------------------|
|
|------------------------------------------|
|-/10--------/8---/10-------------7---10---|
|----------------------------7-------------|
|------------------------------------------|
|------------------------------------------|
|------------------------------------------|
|
|----------------------------------------|
|------------------------------------------|
|------------------------------------------|
|------------------------------------------|
|------------------------------------------|
|---5-5-5-5---5-5---5-5-5-5--5-5--5-5--5-5-|
|------------------------------------------|


  C5
|-----------------------------------------|
|-12-------10---[12]------------10---12---|
|--------------------------12-------------|
|-----------------------------------------|
|-----------------------------------------|
|-----------------------------------------|
|
|-----------------------------------------|
|--8--------7----[8]-------------7----8---|
|---------------------------9-------------|
|-----------------------------------------|
|-----------------------------------------|
|-----------------------------------------|
|
|  PM--------------------------------------
|-----------------------------------------|
|-----------------------------------------|
|-----------------------------------------|
|--5--------------------------------------|
|--3-3-3-3--3-3---3--3-3-3--3-3--3-3--3-3-|
|-----------------------------------------|


  D5
   T           T        T
|-24-15p12h15-22-15p12-24-------------------|
|-------------------------10---7---8---10---|
|-------------------------------------------|
|-------------------------------------------|
|-------------------------------------------|
|-------------------------------------------|
|
|  T           T        T
|-------------------------------------------|
|-22-12p10h12-20-12p10-22--7------------7---|
|------------------------------7---9--------|
|-------------------------------------------|
|-------------------------------------------|
|-------------------------------------------|
|
|-----------------------------------------|
|-------------------------------------------|
|-------------------------------------------|
|-------------------------------------------|
|--7-----------------7----------------------|
|--5--5--5--5--5--5--5--5--5-5-5-5-5-5--5-5-|
|-------------------------------------------|


  C5
|---------------------------------------------------|
|-12tr13-----10tr12-----12tr13-----12-----13---15---|
|---------------------------------------------------|
|---------------------------------------------------|
|---------------------------------------------------|
|---------------------------------------------------|
|
|---------------------------------------------------|
|--8tr10------7tr8-------8tr10------8-----10---12---|
|---------------------------------------------------|
|---------------------------------------------------|
|---------------------------------------------------|
|---------------------------------------------------|
|
|  PM------------------------------------------------
|---------------------------------------------------|
|---------------------------------------------------|
|---------------------------------------------------|
|--5---------------------5--------------------------|
|--3-----3-3--3-----3-3--3-----3-3--3-3-3--3-3--3-3-|
|---------------------------------------------------|


  D5
   PM------------|
|-------------------------------------------|
|-13-13-13-12-12-12-[13]-------7---8---10---|
|-------------------------------------------|
|-------------------------------------------|
|-------------------------------------------|
|-------------------------------------------|
|
|  PM------------|
|-------------------------------------------|
|-------------------------------------------|
|------------------------------7---9---11---|
|-14-14-14-12-12-12-[14]--------------------|
|-------------------------------------------|
|-------------------------------------------|
|
|-----------------------------------------|
|-------------------------------------------|
|-------------------------------------------|
|-------------------------------------------|
|--7------------------7---------------------|
|--5--5--5--5--5--5---5--5-5-5-5-5-5-5--5-5-|
|-------------------------------------------|


  C5
|------------------------------------------|
|-/12-------/10---/12-------12---13---15---|
|------------------------------------------|
|------------------------------------------|
|------------------------------------------|
|------------------------------------------|
|
|------------------------------------------|
|--/8--------/7----/8--------8---10---12---|
|------------------------------------------|
|------------------------------------------|
|------------------------------------------|
|------------------------------------------|
|
|   PM--------------------------------------
|------------------------------------------|
|------------------------------------------|
|------------------------------------------|
|---5--------------------------------------|
|---3-3-3-3---3-3---3-3-3-3--3-3--3-3--3-3-|
|------------------------------------------|


  D5
   PM------------------------------------------|
|-------------------------------------------------|
|-13-13-13-12-12-12-13-13-13-13-12-12-13-13-12-12-|
|-------------------------------------------------|
|-------------------------------------------------|
|-------------------------------------------------|
|-------------------------------------------------|
|
|  PM------------------------------------------|
|-------------------------------------------------|
|-10-10-10--8--8--8-10-10-10-10--8--8-10-10--8--8-|
|-------------------------------------------------|
|-------------------------------------------------|
|-------------------------------------------------|
|-------------------------------------------------|
|
|----------------------------------------------|
|-------------------------------------------------|
|-------------------------------------------------|
|-------------------------------------------------|
|--7-----------------7----------------------------|
|--5--5--5--5--5--5--5--5--5--5--5--5--5--5--5--5-|
|-------------------------------------------------|


  B5                        B5
                              ~~~~~~~~
|-------------------14----|-----------------||
|-15-13-12----12-13----15-|-[15]b17r========||
|----------14-------------|-----------------||
|-------------------------|-----------------||
|-------------------------|-----------------||
|-------------------------|-----------------||
|
|                             ~~~~~~~~
|-------------------------|-----------------||
|-12----------------15----|-[14]b16r========||
|----14-12-11-12-14----11-|-----------------||
|-------------------------|-----------------||
|-------------------------|-----------------||
|-------------------------|-----------------||
|
|-------------------------|-----------------||
|-------------------------|-----------------||
|--4----------------------|---4------4------||
|--4----------------------|---4------4------||
|--2----------------------|---2------2------||
|-------------------------|-----------------||


 Verse
  Em
  Gtrs II, III
  PM--------------------------------------------------------------|
|---------------------------------|---------------------------------|
|---------------------------------|---------------------------------|
|---------------------------------|---------------------------------|
|-5-------------------------------|-5-----------5-------------------|
|-7-7-7-7-7-7-7-7-7-7-7-7-7-7-7-7-|-7-7-7-7-7-7-7-7-7-7-7-7-7-7-7-7-|
|---------------------------------|---------------------------------|


                                    Em D C
  PM----------------------------|
|---------------------------------|---------------|
|---------------------------------|---------------|
|---------------------------------|---------------|
|-5-------------------------------|-5--4-2----(2)-|
|-7-7-7-7-7-7-7-7-7-7-7-7-7-7-7-7-|-7--5-3----(3)-|
|---------------------------------|---------------|


  Em
  PM--------------------------------------------------------------|
|---------------------------------|---------------------------------|
|---------------------------------|---------------------------------|
|---------------------------------|---------------------------------|
|-5-------------------------------|-5-----------5-------------------|
|-7-7-7-7-7-7-7-7-7-7-7-7-7-7-7-7-|-7-7-7-7-7-7-7-7-7-7-7-7-7-7-7-7-|
|---------------------------------|---------------------------------|


                                    C    D
  PM----------------------------|
|---------------------------------|---------------||
|---------------------------------|---------------||
|---------------------------------|---------------||
|-5-------------------------------|-2--2-4----(4)-||
|-7-7-7-7-7-7-7-7-7-7-7-7-7-7-7-7-|-3--3-5----(5)-||
|---------------------------------|---------------||


 Prechorus
  A5                  C5
  Gtr I
|-------------------|------------------|
|---------------7-8-|--------7-8---7-8-|
|--------7--9-------|--9---------------|
|-10----------------|------------------|
|-------------------|------------------|
|-------------------|------------------|
|
| Gtr II
|-------------------|------------------|
|-------------------|------------------|
|---------------7-9-|--------7-9---7-9-|
|--7-----9-10-------|-10---------------|
|-------------------|------------------|
|-------------------|------------------|
|
| Gtr III
|    PM|    PM|   PM     PM|   PM|   PM
|-------------------|------------------|
|-------------------|------------------|
|-------------------|--5-----5-----5---|
|--7-----7------7---|--5-----5-----5---|
|--7-----7------7---|--3-3-3-3-3-3-3-3-|
|--5-5-5-5--5-5-5-5-|------------------|


  D5                  G5
|-------------------|--------------------|
|--------8-----10---|--8-----------------|
|--9----------------|-----9-7--9--7---7--|
|-------------------|---------------9----|
|-------------------|--------------------|
|-------------------|--------------------|
|
|-------------------|--------------------|
|-------------------|--------------------|
|--------7------9---|--7-----------------|
|-10----------------|----10-9-10----7-9--|
|-------------------|------------10------|
|-------------------|--------------------|
|
|    PM|   PM|    PM
|-------------------|--------------------|
|-------------------|--------------------|
|--7-----7------7---|-12-----------------|
|--7-----7------7---|-12-----------------|
|--5-5-5-5-5-5--5-5-|-10-----------------|
|-------------------|--------------------|


  A5                  C5
|-------------------|------------------|
|---------------7-8-|--------7-8---7-8-|
|--------7--9-------|--9---------------|
|-10----------------|------------------|
|-------------------|------------------|
|-------------------|------------------|
|
|-------------------|------------------|
|-------------------|------------------|
|---------------7-9-|--------7-9---7-9-|
|--7-----9-10-------|-10---------------|
|-------------------|------------------|
|-------------------|------------------|
|
|    PM|    PM|   PM     PM|         PM
|-------------------|------------------|
|-------------------|------------------|
|-------------------|--5-----5-----5---|
|--7-----7------7---|--5-----5-----5---|
|--7-----7------7---|--3-3-3-3-3-3-3-3-|
|--5-5-5-5--5-5-5-5-|------------------|


  G5                        D5
|--7----------------------|--------------------|
|----------10--------8----|-7-----------8-10---|
|-------------------------|----9-7-9-7-------7-|
|-------------------------|--------------------|
|-------------------------|--------------------|
|-------------------------|--------------------|
|
|-------------------------|--------------------|
|-------------------------|--------------------|
|-12-------11--------9----|-7--------------7---|
|-------------------------|---10-9-7-9-10----7-|
|-------------------------|--------------------|
|-------------------------|--------------------|
|
|     PM|      PM|      PM
|-------------------------|--------------------|
|-------------------------|--------------------|
|-12-------12-------12----|-7------------------|
|-12-------12-------12----|-7------------------|
|-10-10-10-10-10-10-10-10-|-5------------------|
|-------------------------|--------------------|


  G                       C
|----------|------------|----------|--------|
|----------|------------|----------|--------|
|-4--------|-(4)--------|-5--------|-(5)----|
|-5--------|-(5)--------|-5--------|-(5)----|
|-5--------|-(5)--------|-3--------|-(3)----|
|-3--------|-(3)--------|----------|--------|


  D                       C
|----------|------------|----------|--------|
|----------|------------|----------|--------|
|-7--------|-(7)--------|-5--------|-(5)----|
|-7--------|-(7)--------|-5--------|-(5)----|
|-5--------|-(5)--------|-3--------|-(3)----|
|----------|------------|----------|--------|


  B5                                B5
  PM--------------------------------------------------------------|
|---------------------------------|---------------------------------|
|---------------------------------|---------------------------------|
|---------------------------------|---------------------------------|
|-4-----------4-----------4-------|-4-----------4-----------4-------|
|-2-2-2-2-2-2-2-2-2-2-2-2-2-2-2-2-|-2-2-2-2-2-2-2-2-2-2-2-2-2-2-2-2-|
|---------------------------------|---------------------------------|


  C5                                C5
  PM----------------------------|
|---------------------------------|------|
|---------------------------------|------|
|---------------------------------|------|
|-5-----------5-----------5-------|-5----|
|-3-3-3-3-3-3-3-3-3-3-3-3-3-3-3-3-|-3----|
|---------------------------------|------|


  C5
  PM--------------------------------------------------------------|
|---------------------------------|---------------------------------|
|---------------------------------|---------------------------------|
|---------------------------------|---------------------------------|
|-5-----------5-----------5-------|-5-----------5-----------5-------|
|-3-3-3-3-3-3-3-3-3-3-3-3-3-3-3-3-|-3-3-3-3-3-3-3-3-3-3-3-3-3-3-3-3-|
|---------------------------------|---------------------------------|


  D5
  PM----------------------------|
|---------------------------------|----------||
|---------------------------------|----------||
|---------------------------------|-7--------||
|-7-----------7-------------------|-7--------||
|-5-5-5-5-5-5-5-5-5-5-5-5-5-5-5-5-|-5--------||
|---------------------------------|----------||


 Chorus
  G5            D5              E5            C5
  Gtr I
|-7----8---7--|-7-------------|-7----8---7--|---------------|
|-------------|---10---8--10--|-------------|-10-8---8--10--|
|-------------|---------------|-------------|---------------|
|-------------|---------------|-------------|---------------|
|-------------|---------------|-------------|---------------|
|-------------|---------------|-------------|---------------|
|
| Gtr II
|-------------|---------------|-------------|---------------|
|-8---10---8--|-8--7-------7--|-8---10---8--|--7---------7--|
|-------------|--------9------|-------------|----9---9------|
|-------------|---------------|-------------|---------------|
|-------------|---------------|-------------|---------------|
|-------------|---------------|-------------|---------------|
|
| Gtr III
|-------------|---------------|-------------|---------------|
|-------------|---------------|-------------|---------------|
|-------------|-7-------------|-9-----------|--5------------|
|-5-----------|-7-------------|-9-----------|--5------------|
|-5-----------|-5-------------|-7-----------|--3------------|
|-3-----------|---------------|-------------|---------------|


  G5
|-7-------7---7-----------7-------|--8-------7------------------------|
|---------------------------------|--------------10-----------8-------|
|---------------------------------|-----------------------------------|
|---------------------------------|-----------------------------------|
|---------------------------------|-----------------------------------|
|---------------------------------|-----------------------------------|
|
|---------------------------------|-----------------------------------|
|-8-------8---8-----------8-------|-10-------8----7-------------------|
|---------------------------------|---------------------------9-------|
|---------------------------------|-----------------------------------|
|---------------------------------|-----------------------------------|
|---------------------------------|-----------------------------------|
|
|   PM------|   PM----------|   PM     PM------|    PM------|   PM--|
|---------------------------------|-----------------------------------|
|---------------------------------|-----------------------------------|
|---------------------------------|-----------------------------------|
|-5-----------5-----------5-------|--5------------5-----------5-------|
|-5-----------5-----------5-------|--5------------5-----------5-------|
|-3-3-3-3-3-3-3-3-3-3-3-3-3-3-3-3-|--3-3-3-3-3-3--3-3-3-3-3-3-3-3-3-3-|


  C5             D5              G5            D5
|-10----8---7--|-7-------------|-7----8---7--|-7-------------|
|--------------|---10---8--10--|-------------|---10---8--10--|
|--------------|---------------|-------------|---------------|
|--------------|---------------|-------------|---------------|
|--------------|---------------|-------------|---------------|
|--------------|---------------|-------------|---------------|
|
|--7-----------|---------------|-------------|---------------|
|------10---8--|-8--7-------7--|-8---10---8--|-8--7-------7--|
|--------------|--------9------|-------------|--------9------|
|--------------|---------------|-------------|---------------|
|--------------|---------------|-------------|---------------|
|--------------|---------------|-------------|---------------|
|
|--------------|---------------|-------------|---------------|
|--------------|---------------|-------------|---------------|
|--5-----------|-7-------------|-------------|-7-------------|
|--5-----------|-7-------------|-5-----------|-7-------------|
|--3-----------|-5-------------|-5-----------|-5-------------|
|--------------|---------------|-3-----------|---------------|


  E5            C5               C5         D5         E5
|-7----8---7--|----------------|----------|----------|------||
|-------------|-10-8-(8)----8--|-8--------|----------|------||
|-------------|----------------|----------|----------|------||
|-------------|----------------|----------|----------|------||
|-------------|----------------|----------|----------|------||
|-------------|----------------|----------|----------|------||
|
|-------------|----------------|----------|----------|------||
|-8---10---8--|--7-------------|----------|----------|------||
|-------------|----9-(9)----9--|-9--------|----------|------||
|-------------|----------------|----------|----------|------||
|-------------|----------------|----------|----------|------||
|-------------|----------------|----------|----------|------||
|
|-------------|----------------|----------|----------|------||
|-------------|----------------|----------|----------|------||
|-9-----------|--5-------------|-5--------|-7--------|-9----||
|-9-----------|--5-------------|-5--------|-7--------|-9----||
|-7-----------|--3-------------|-3--------|-5--------|-7----||
|-------------|----------------|----------|----------|------||


 Half Time Feel
  E5                                      C5
     PM--------|            PM----|          PM--------|
|----------------|----------------------|----------------|------------------|
|----------------|----------------------|----------------|------------------|
|----------------|----------------------|----------------|-------------[5]--|
|-9--------------|-10---9---8h=9--8h=9--|-5--------------|-5---5---4-5------|
|-7--7-7-7-7-7-7-|--7-7-7-7-7-(7)-7-(7)-|-3--3-3-3-3-3-3-|-3-3-3-3----------|
|----------------|----------------------|----------------|------------------|


  E5                                      C
     PM--------|            PM----|          PM--------|
|----------------|----------------------|----------------|------------------|
|----------------|----------------------|----------------|------------------|
|----------------|----------------------|----------------|-------------[5]--|
|-9--------------|-10---9---8h=9--8h=9--|-2--------------|-2---2---5-4------|
|-7--7-7-7-7-7-7-|--7-7-7-7-7-(7)-7-(7)-|-3--3-3-3-3-3-3-|-3-3-3-3----------|
|----------------|----------------------|----------------|------------------|


  E5
  Gtr I
|-------------------------|---------------------------|
|-------12----10----------|-------12----10------------|
|-12-12----12----12----11-|-12-12----12----12-----11--|
|-------------------12----|--------------------12-----|
|-------------------------|---------------------------|
|-------------------------|---------------------------|
|
| Gtr II
|-------------------------|---------------------------|
|--------8-----7----------|--------8-----7------------|
|--9--9-----9-----7-----7-|--9--9-----9-----7------7--|
|--------------------9----|---------------------9-----|
|-------------------------|---------------------------|
|-------------------------|---------------------------|
|
| Gtr III
|        PM------------|                 PM----|
|-------------------------|---------------------------|
|-------------------------|---------------------------|
|-------------------------|---------------------------|
|--9----------------------|-10-----9-----7h=9---7h=9--|
|--7-----7--7--7--7--7--7-|--7--7--7--7--7-(7)--7-(7)-|
|-------------------------|---------------------------|


  C5
|-----------------------------|--------------------------|
|-------12----[10]----[12]----|-[13]p12------------------|
|-12-12----12------12------12-|---------12-[12]-(12)-----|
|-----------------------------|--------------------------|
|-----------------------------|--------------------------|
|-----------------------------|--------------------------|
|
|-----------------------------|--------------------------|
|--------8-----[7]-----[8]----|-[10]p=8------------------|
|--9--9-----9-------9-------9-|----------9--[9]--(9)-----|
|-----------------------------|--------------------------|
|-----------------------------|--------------------------|
|-----------------------------|--------------------------|
|
|     PM-------------------|
|-----------------------------|--------------------------|
|-----------------------------|--------------------------|
|-----------------------------|---5p==4--5--------5p4-5--|
|--5--------------------------|---5---5--5--------5-5-5--|
|--3--3--3--3---3---3---3---3-|----------3---------------|
|-----------------------------|--------------------------|


  E5
|-------------------------|------------------------|
|-------10----12----13----|-15---17-15---13--------|
|-12-12----12----12----12-|------------------------|
|-------------------------|------------------------|
|-------------------------|------------------------|
|-------------------------|------------------------|
|
|-------------------------|------------------------|
|--------7-----8----10----|-12---13-12-------------|
|--9--9-----9-----9-----9-|--------------12--------|
|-------------------------|------------------------|
|-------------------------|------------------------|
|-------------------------|------------------------|
|
|     PM---------------|               PM----|
|-------------------------|------------------------|
|-------------------------|------------------------|
|-------------------------|------------------------|
|--9----------------------|-10----9----7h=9--7h=9--|
|--7--7--7--7--7--7--7--7-|--7-7--7--7-7-(7)-7-(7)-|
|-------------------------|------------------------|


  C5
|-19-19----19------19----|-22-22----22------22----|
|-------20------20----20-|-------22------22----22-|
|------------------------|------------------------|
|------------------------|------------------------|
|------------------------|------------------------|
|------------------------|------------------------|
|
|-15-15----15------15----|-17-17----17------17----|
|-------15------15----15-|-------19------19----19-|
|------------------------|------------------------|
|------------------------|------------------------|
|------------------------|------------------------|
|------------------------|------------------------|
|
|     PM--------------|
|------------------------|------------------------|
|------------------------|------------------------|
|------------------------|--5-----5----5p=4--5----|
|--5---------------------|--5-----5----5--5--5----|
|--3--3--3--3-3--3--3--3-|--3--3-----3------------|
|------------------------|------------------------|


  E5
|-10-------10-------10----|-12----10------------------|
|----12-12----12-12----12-|----12----12-13p12--12-----|
|-------------------------|-----------------------12--|
|-------------------------|---------------------------|
|-------------------------|---------------------------|
|-------------------------|---------------------------|
|
|--7--------7--------7----|--8-----7------------------|
|-----8--8-----8--8-----8-|-----8-----8-10p=8---8-----|
|-------------------------|------------------------9--|
|-------------------------|---------------------------|
|-------------------------|---------------------------|
|-------------------------|---------------------------|
|
|        PM------------|                 PM----|
|-------------------------|---------------------------|
|-------------------------|---------------------------|
|-------------------------|---------------------------|
|--9----------------------|-10-----9-----7h=9---7h=9--|
|--7-----7--7--7--7--7--7-|--7--7--7--7--7-(7)--7-(7)-|
|-------------------------|---------------------------|


  C5
|-------------------------|----------------------|
|-12-------12-------10----|-8----7----8----10----|
|----12-12----12-12-----9-|----9----9----9-----9-|
|-------------------------|----------------------|
|-------------------------|----------------------|
|-------------------------|----------------------|
|
|-------------------------|----------------------|
|--8--------8--------7----|-----------------7----|
|-----9--9-----9--9-------|-9----7----9----------|
|----------------------10-|---10---10---10----10-|
|-------------------------|----------------------|
|-------------------------|----------------------|
|
|     PM---------------|
|-------------------------|----------------------|
|-------------------------|----------------------|
|-------------------------|-5----5----5p=4--5----|
|--5----------------------|-5----5----5--5--5----|
|--3--3--3--3--3--3--3--3-|-3--3----3------------|
|-------------------------|----------------------|


  E5
   PM---------------------------------------------|
|-------------------------|-12------------------------|
|-------12----13----15----|-------15----13-----12-----|
|-12-12----12----12----12-|----12----12----12-----12--|
|-------------------------|---------------------------|
|-------------------------|---------------------------|
|-------------------------|---------------------------|
|
|  PM---------------------------------------------|
|-------------------------|---------------------------|
|-------------------------|---------------------------|
|-------12----14----16----|-17----16----14-----12-----|
|-14-14----14----14----14-|----14----14----14-----14--|
|-------------------------|---------------------------|
|-------------------------|---------------------------|
|
|     PM---------------|                 PM----|
|-------------------------|---------------------------|
|-------------------------|---------------------------|
|-------------------------|---------------------------|
|--9----------------------|-10-----9-----7h=9---7h=9--|
|--7--7--7--7--7--7--7--7-|--7--7--7--7--7-(7)--7-(7)-|
|-------------------------|---------------------------|


  C5
|-19b20-----------------|-----------------------|
|--------13-12----------|-12-13-12------[10]----|
|----------------12-----|----------12-----------|
|-----------------------|-----------------------|
|-----------------------|-----------------------|
|-----------------------|-----------------------|
|
|-15b17r================|=======================|
|--------10--8----------|--8-10--8-------[7]----|
|-----------------9-----|-----------9-----------|
|-----------------------|-----------------------|
|-----------------------|-----------------------|
|-----------------------|-----------------------|
|
|         PM----------|
|-----------------------|-----------------------|
|-----------------------|-----------------------|
|-----------------------|--5-----5----5p==4--5--|
|--5--------------------|--5-----5----5---5--5--|
|--3------3--3-3--3-3-3-|--3--3-----3-----------|
|-----------------------|-----------------------|


  E5                    D5
|-22-19----------19-22--20-17----------17-20--|
|-------20----20--------------19----19--------|
|----------21--------------------19-----------|
|---------------------------------------------|
|---------------------------------------------|
|---------------------------------------------|
|
|-19-15----------15-19--17-14----------14-17--|
|-------17----17--------------15----15--------|
|----------16--------------------14-----------|
|---------------------------------------------|
|---------------------------------------------|
|---------------------------------------------|
|
|---------------------------------------------|
|---------------------------------------------|
|--9---------------------7--------------------|
|--9---------------------7--------------------|
|--7---------------------5--------------------|
|---------------------------------------------|


  C5                                  C5
|-19-17-15----------------15-17-19-20-22--|
|----------19-17-15-17-19-----------------|
|-----------------------------------------|
|-----------------------------------------|
|-----------------------------------------|
|-----------------------------------------|
|
|-15-14-12----------------12-14-15-17-19--|
|----------15-13-12-13-15-----------------|
|-----------------------------------------|
|-----------------------------------------|
|-----------------------------------------|
|-----------------------------------------|
|
|-----------------------------------------|
|-----------------------------------------|
|--5-----------------------------------5--|
|--5-----------------------------------5--|
|--3-----------------------------------3--|
|-----------------------------------------|


  E5                    D5
|-22-19----------19-22--20-17----------17-20--|
|-------20----20--------------19----19--------|
|----------21--------------------19-----------|
|---------------------------------------------|
|---------------------------------------------|
|---------------------------------------------|
|
|-19-15----------15-19--17-14----------14-17--|
|-------17----17--------------15----15--------|
|----------16--------------------14-----------|
|---------------------------------------------|
|---------------------------------------------|
|---------------------------------------------|
|
|---------------------------------------------|
|---------------------------------------------|
|--9---------------------7--------------------|
|--9---------------------7--------------------|
|--7---------------------5--------------------|
|---------------------------------------------|


  C5                                  C5
|-19-17-15----------------15-17-19-20-22--|
|----------19-17-15-17-19-----------------|
|-----------------------------------------|
|-----------------------------------------|
|-----------------------------------------|
|-----------------------------------------|
|
|-15-14-12----------------12-14-15-17-19--|
|----------15-13-12-13-15-----------------|
|-----------------------------------------|
|-----------------------------------------|
|-----------------------------------------|
|-----------------------------------------|
|
|-----------------------------------------|
|-----------------------------------------|
|--5-----------------------------------5--|
|--5-----------------------------------5--|
|--3-----------------------------------3--|
|-----------------------------------------|


  E5                    D5
|-22-19----------19-22--20-17----------17-20--|
|-------20----20--------------19----19--------|
|----------21--------------------19-----------|
|---------------------------------------------|
|---------------------------------------------|
|---------------------------------------------|
|
|-19-15----------15-19--17-14----------14-17--|
|-------17----17--------------15----15--------|
|----------16--------------------14-----------|
|---------------------------------------------|
|---------------------------------------------|
|---------------------------------------------|
|
|---------------------------------------------|
|---------------------------------------------|
|--9---------------------7--------------------|
|--9---------------------7--------------------|
|--7---------------------5--------------------|
|---------------------------------------------|


  C5                              C5
|-19-17-15----------------/17-/19-/20--|
|----------19-17-15-17-19--------------|
|--------------------------------------|
|--------------------------------------|
|--------------------------------------|
|--------------------------------------|
|
|-15-14-12----------------/14-/15-/17--|
|----------15-13-12-13-15--------------|
|--------------------------------------|
|--------------------------------------|
|--------------------------------------|
|--------------------------------------|
|
|--------------------------------------|
|--------------------------------------|
|--5--------------------------------5--|
|--5--------------------------------5--|
|--3--------------------------------3--|
|--------------------------------------|


  E5                    D5
|-22-19----------19-22--20-17----------17-20--|
|-------20----20--------------19----19--------|
|----------21--------------------19-----------|
|---------------------------------------------|
|---------------------------------------------|
|---------------------------------------------|
|
|-19-15----------15-19--17-14----------14-17--|
|-------17----17--------------15----15--------|
|----------16--------------------14-----------|
|---------------------------------------------|
|---------------------------------------------|
|---------------------------------------------|
|
|---------------------------------------------|
|---------------------------------------------|
|--9---------------------7--------------------|
|--9---------------------7--------------------|
|--7---------------------5--------------------|
|---------------------------------------------|


  C5                                  B5
   PM------------------------------|
|-19-19-17-17-15-15-14-14-15-15-17-17-[19]--||
|-------------------------------------------||
|-------------------------------------------||
|-------------------------------------------||
|-------------------------------------------||
|-------------------------------------------||
|
|  PM------------------------------|
|-15-15-14-14-12-12-10-10-12-12-14-14-[15]--||
|-------------------------------------------||
|-------------------------------------------||
|-------------------------------------------||
|-------------------------------------------||
|-------------------------------------------||
|
|-------------------------------------------||
|-------------------------------------------||
|--5------------------------------------4---||
|--5------------------------------------4---||
|--3------------------------------------2---||
|-------------------------------------------||


 1st Guitar Solo
  E5
|----------12-14-15-14-12-------------------------|
|-12-13-15----------------15-12-13-12-------------|
|-------------------------------------14-12-11-12-|
|-------------------------------------------------|
|-------------------------------------------------|
|-------------------------------------------------|
|
|----------------12-------------------------------|
|-------12-13-15----15-13-12----------------------|
|-12-14----------------------12-14-12-11----------|
|----------------------------------------14-12-14-|
|-------------------------------------------------|
|-------------------------------------------------|
|
|              PM---------------------------|
|-------------------------------------------------|
|-------------------------------------------------|
|--9----------------------------------------------|
|--9----------------------------------------------|
|--7-----------7-----7-----7-----7-----7-----7----|
|-------------------------------------------------|


|-----------------------------------------------|
|-----------------------------------------------|
|-14-12-11---------------------------11-[12]----|
|----------14-12-11-10----10-12---14------------|
|----------------------14-----------------------|
|-----------------------------------------------|
|
|-----------------------------------------------|
|-----------------------------------------------|
|-11--9-------------------------------7-[12]----|
|-------12-10--9--8--7--5--7--9---10------------|
|-----------------------------------------------|
|-----------------------------------------------|
|
|        PM          PM
|-----------------------------------------------|
|-----------------------------------------------|
|-----------------------------------------------|
|-10-----------9-----------7h===9-----7h=====9--|
|--7-----7-----7-----7-----7----7-----7------7--|
|-----------------------------------------------|


  D5
                                        T
|----------------------7-8-10-8-7----|-----------------------------|
|-7-8-7---------7-8-10------------10-|-12p10p8p7h8p7---[8]--/24\---|
|-------9-7---9----------------------|---------------9-------------|
|------------------------------------|-----------------------------|
|------------------------------------|-----------------------------|
|------------------------------------|-----------------------------|
|
|------------------------------------|-----------------------------|
|------------------------------------|-----------------------------|
|------------------------------------|-----------------------------|
|------------------------------------|-----------------------------|
|------------------------------------|-----------------------------|
|------------------------------------|-----------------------------|
|
|       PM--------------------|              PM      PM
|------------------------------------|-----------------------------|
|------------------------------------|-----------------------------|
|------------------------------------|-----------------------------|
|-7----------------------------------|--9--------7------5h7---5h7--|
|-5-----5---5---5----5---5----5------|--5----5---5---5--5-5---5-5--|
|------------------------------------|-----------------------------|


  C5
                                        ~~
|-22-15-15-------14-15-15-|-20---20-20-19-----15-17-|
|----------17-17----------|-------------------------|
|-------------------------|-------------------------|
|-------------------------|-------------------------|
|-------------------------|-------------------------|
|-------------------------|-------------------------|
|
|                                       ~~
|-19-15-15----------12-12-|-17---17-17-15-----12-14-|
|----------13-13-15-------|-------------------------|
|-------------------------|-------------------------|
|-------------------------|-------------------------|
|-------------------------|-------------------------|
|-------------------------|-------------------------|
|
|        PM-----------------------------------|
|-------------------------|-------------------------|
|-------------------------|-------------------------|
|-------------------------|-------------------------|
|--5----------------------|--5----5-----2---2-------|
|--3-----3--3--3--3--3--3-|--3-3--3--3--3-3-3--3----|
|-------------------------|-------------------------|


  B5
|-19-15------------15-19-15--------------|
|-------19-15-19------------19-15-19b20--|
|----------------------------------------|
|----------------------------------------|
|----------------------------------------|
|----------------------------------------|
|
|----------------------------------------|
|----------------------------------------|
|----------------------------------------|
|----------------------------------------|
|----------------------------------------|
|----------------------------------------|
|
|           PM--------------|
|----------------------------------------|
|----------------------------------------|
|--4-------------------------------4-----|
|--4-------------------------------4-----|
|--2--------2----2-----2-----2-----2-----|
|----------------------------------------|


  C5                      D5
|-15-17-15-----------------------------------17-||
|----------19-17-15-----------------------20----||
|-------------------17-16-17-19-/17-19-21-------||
|-----------------------------------------------||
|-----------------------------------------------||
|-----------------------------------------------||
|
|-----------------------------------------------||
|-----------------------------------------------||
|-----------------------------------------------||
|-----------------------------------------------||
|-----------------------------------------------||
|-----------------------------------------------||
|
|  PM---|                  PM---|
|-----------------------------------------------||
|-----------------------------------------------||
|--------------5------------------------7-------||
|--5-----5-----5-----------7------7-----7-------||
|--3-----3-----3-----------5------5-----5-------||
|-----------------------------------------------||


 2nd Guitar Solo
  E5
   ~~~~~
|-22b24-----------------------|-----------------------|
|-----------------------------|-----------------------|
|-----------------------------|-----------------------|
|-----------------------------|-----------------------|
|-----------------------------|-----------------------|
|-----------------------------|-----------------------|
|
|-----------------------------|-----------------------|
|-10b12--10b12---10b12---10-8-|-10-8-7-------12-13-15-|
|-----------------------------|--------[9]------------|
|-----------------------------|-----------------------|
|-----------------------------|-----------------------|
|-----------------------------|-----------------------|
|
|         PM---------------------------|
|-----------------------------|-----------------------|
|-----------------------------|-----------------------|
|--9--------------------------|-----------------------|
|--9--------------------------|-10---9-----7h=9--7h=9-|
|--7------7----7--7----7--7-7-|--7-7-7--7--7--7--7--7-|
|-----------------------------|-----------------------|


  D5
|---------------------------|----------------------------|
|---------------------------|----------------------------|
|---------------------------|----------------------------|
|---------------------------|----------------------------|
|---------------------------|----------------------------|
|---------------------------|----------------------------|
|
|-------12----14----[15]----|-17---[17]b19-15------------|
|-[15]-----13----13------13-|-------------------17-15-15-|
|---------------------------|----------------------------|
|---------------------------|----------------------------|
|---------------------------|----------------------------|
|---------------------------|----------------------------|
|
|        PM--------------------------------|
|---------------------------|----------------------------|
|---------------------------|----------------------------|
|---7-----------------------|----------------------------|
|---7-----------------------|--9-----7--------5h=7--5h=7-|
|---5----5--5--5--5---5---5-|--5-5---5------5-5--5--5--5-|
|---------------------------|----------------------------|


  C5
|-12-15-15-17---15-12-15-|-15-14-15-14----12-------[15]----|
|------------------------|-------------12----15-12---------|
|------------------------|---------------------------------|
|------------------------|---------------------------------|
|------------------------|---------------------------------|
|------------------------|---------------------------------|
|
|-15-19-19-20---19-15-19-|-19-15-19-15----15-------[19]----|
|------------------------|-------------17----17-15---------|
|------------------------|---------------------------------|
|------------------------|---------------------------------|
|------------------------|---------------------------------|
|------------------------|---------------------------------|
|
|        PM-----------|
|------------------------|---------------------------------|
|------------------------|---------------------------------|
|--5----------------5----|---------------------------------|
|--5----------------5----|--5-----------5-----5------7p=5--|
|--3-----3--3-3--3--3--3-|--3--3--------3--3--3--3---3-(3)-|
|------------------------|---------------------------------|


  B5                        C5                      D5
|-------------------------|-----------------------------------------------||
|-------------------------|-----------------------------------------------||
|-16-16-16-14-14-14-12-12-|-16-14-12-11-14-12-11----12-11-------11-9------||
|-------------------------|----------------------14-------14-12------11-9-||
|-------------------------|-----------------------------------------------||
|-------------------------|-----------------------------------------------||
|
|-------------------------|-----------------------------------------------||
|-15-15-15-13-13-13-12-12-|-15-13-12-10-13-12-10--8-12-10--8--7-10-8--7---||
|-------------------------|---------------------------------------------7-||
|-------------------------|-----------------------------------------------||
|-------------------------|-----------------------------------------------||
|-------------------------|-----------------------------------------------||
|
|        PM-----------------------------------------------|
|-------------------------|-----------------------------------------------||
|-------------------------|-----------------------------------------------||
|--4----------------------|--------------------------------------7--------||
|--4----------------------|--4-----4-----4-----------7-----7-----7--------||
|--2-----2--2--2--2--2--2-|--3-----3-----3-----------5-----5-----5--------||
|-------------------------|-----------------------------------------------||


   Duet
    Em
    Gtrs I, II
     T        T        T        T        T        T        T        T
||--19-12h15-19-12h15-20-12h15-19-12h15-22-12h15-20-12h15-19-12h15-20-12h15-|
||o-------------------------------------------------------------------------|
||--------------------------------------------------------------------------|
||--------------------------------------------------------------------------|
||o-------------------------------------------------------------------------|
||--------------------------------------------------------------------------|
|
||--------------------------------------------------------------------------|
||o-------------------------------------------------------------------------|
||---9----------------------------------------------------------------------|
||---9----------------------------------------------------------------------|
||o--7----------------------------------------------------------------------|
||--------------------------------------------------------------------------|


  Em
   T        T        T        T        T        T        T        T
|-19-12h15-19-12h15-20-12h15-19-12h15-22-12h15-20-12h15-19-12h15-20-12h15-|
|-------------------------------------------------------------------------|
|-------------------------------------------------------------------------|
|-------------------------------------------------------------------------|
|-------------------------------------------------------------------------|
|-------------------------------------------------------------------------|
|
|-------------------------------------------------------------------------|
|-------------------------------------------------------------------------|
|--9----------------------------------------------------------------------|
|--9----------------------------------------------------------------------|
|--7----------------------------------------------------------------------|
|-------------------------------------------------------------------------|


  C5
   T       T       T       T       T       T       T       T
|-15-8h12-15-8h12-17-8h12-15-8h12-19-8h12-19-8h12-17-8h12-15-8h12-|
|-----------------------------------------------------------------|
|-----------------------------------------------------------------|
|-----------------------------------------------------------------|
|-----------------------------------------------------------------|
|-----------------------------------------------------------------|
|
|-----------------------------------------------------------------|
|-----------------------------------------------------------------|
|--5--------------------------------------------------------------|
|--5--------------------------------------------------------------|
|--3--------------------------------------------------------------|
|-----------------------------------------------------------------|


  C5
   T       T       T       T       T       T       T       T
|-15-8h12-15-8h12-17-8h12-15-8h12-19-8h12-19-8h12-17-8h12-15-8h12--||
|-----------------------------------------------------------------o||
|------------------------------------------------------------------||
|------------------------------------------------------------------||
|-----------------------------------------------------------------o||
|------------------------------------------------------------------||
|
|------------------------------------------------------------------||
|-----------------------------------------------------------------o||
|--5---------------------------------------------------------------||
|--5---------------------------------------------------------------||
|--3--------------------------------------------------------------o||
|------------------------------------------------------------------||


    Em
     T          T          T          T          T          T          T          T
||--19-12h==15-19-12h==15-20-12h==15-19-12h==15-22-12h==15-20-12h==15-19-12h==15-20-12h==15-|
||o-----------------------------------------------------------------------------------------|
||------------------------------------------------------------------------------------------|
||------------------------------------------------------------------------------------------|
||o-----------------------------------------------------------------------------------------|
||------------------------------------------------------------------------------------------|
|
|    PM--------------------------------------------------------------------------------|
||------------------------------------------------------------------------------------------|
||o-----------------------------------------------------------------------------------------|
||------------------------------------------------------------------------------------------|
||---9--------------------------------------------------------------------------------------|
||o--7----7-----7----7-----7----7-----7----7-----7----7-----7----7-----7----7-----7----7----|
||------------------------------------------------------------------------------------------|


  Em
   T          T          T          T          T          T          T          T
|-19-12h==15-19-12h==15-20-12h==15-19-12h==15-22-12h==15-20-12h==15-19-12h==15-20-12h==15--|
|------------------------------------------------------------------------------------------|
|------------------------------------------------------------------------------------------|
|------------------------------------------------------------------------------------------|
|------------------------------------------------------------------------------------------|
|------------------------------------------------------------------------------------------|
|
|  PM--------------------------------------------------------------------------------|
|------------------------------------------------------------------------------------------|
|------------------------------------------------------------------------------------------|
|------------------------------------------------------------------------------------------|
|--9--------------------------------9------------------------------------------------------|
|--7----7-----7----7-----7----7-----7----7-----7----7-----7----7-----7----7-----7----7-----|
|------------------------------------------------------------------------------------------|


  C5
   T         T         T         T         T         T         T         T
|-15-8h==12-15-8h==12-17-8h==12-15-8h==12-19-8h==12-19-8h==12-17-8h==12-15-8h==12--|
|----------------------------------------------------------------------------------|
|----------------------------------------------------------------------------------|
|----------------------------------------------------------------------------------|
|----------------------------------------------------------------------------------|
|----------------------------------------------------------------------------------|
|
|  PM------------------------------------------------------------------------|
|----------------------------------------------------------------------------------|
|----------------------------------------------------------------------------------|
|----------------------------------------------------------------------------------|
|--5-------------------------------------------------------------------------------|
|--3---3-----3---3-----3---3-----3---3-----3---3-----3---3-----3---3-----3---3-----|
|----------------------------------------------------------------------------------|


  C5
   T         T         T         T         T         T         T         T
|-15-8h==12-15-8h==12-17-8h==12-15-8h==12-19-8h==12-19-8h==12-17-8h==12-15-8h==12---||
|----------------------------------------------------------------------------------o||
|-----------------------------------------------------------------------------------||
|-----------------------------------------------------------------------------------||
|----------------------------------------------------------------------------------o||
|-----------------------------------------------------------------------------------||
|
|  PM------------------------------------------------------------------------|
|-----------------------------------------------------------------------------------||
|----------------------------------------------------------------------------------o||
|-----------------------------------------------------------------------------------||
|--5-----------------------------5--------------------------------------------------||
|--3---3-----3---3-----3---3-----3---3-----3---3-----3---3-----3---3-----3---3-----o||
|-----------------------------------------------------------------------------------||


    G5
     T          T          T          T          T          T          T          T
||--19-10h==15-19-10h==15-20-10h==15-19-10h==15-22-10h==15-22-10h==15-20-10h==15-19-10h==15-|
||o-----------------------------------------------------------------------------------------|
||------------------------------------------------------------------------------------------|
||------------------------------------------------------------------------------------------|
||o-----------------------------------------------------------------------------------------|
||------------------------------------------------------------------------------------------|
|
|    PM--------------------------------------------------------------------------------|
||------------------------------------------------------------------------------------------|
||o-----------------------------------------------------------------------------------------|
||------------------------------------------------------------------------------------------|
||------------------------------------------------------------------------------------------|
||o--5--------------------------------------------------------------------------------------|
||---3----3-----3----3-----3----3-----3----3-----3----3-----3----3-----3----3-----3----3----|


  G5
   T          T          T          T          T          T          T          T
|-19-10h==15-19-10h==15-20-10h==15-19-10h==15-22-10h==15-22-10h==15-20-10h==15-19-10h==15--|
|------------------------------------------------------------------------------------------|
|------------------------------------------------------------------------------------------|
|------------------------------------------------------------------------------------------|
|------------------------------------------------------------------------------------------|
|------------------------------------------------------------------------------------------|
|
|  PM--------------------------------------------------------------------------------|
|------------------------------------------------------------------------------------------|
|------------------------------------------------------------------------------------------|
|------------------------------------------------------------------------------------------|
|------------------------------------------------------------------------------------------|
|--5--------------------------------5------------------------------------------------------|
|--3----3-----3----3-----3----3-----3----3-----3----3-----3----3-----3----3-----3----3-----|


  D5
   T          T          T          T          T          T          T          T
|-20-10h==14-20-10h==14-22-10h==14-20-10h==14-24-10h==14-24-10h==14-22-10h==14-20-10h==14--|
|------------------------------------------------------------------------------------------|
|------------------------------------------------------------------------------------------|
|------------------------------------------------------------------------------------------|
|------------------------------------------------------------------------------------------|
|------------------------------------------------------------------------------------------|
|
|  PM--------------------------------------------------------------------------------|
|------------------------------------------------------------------------------------------|
|------------------------------------------------------------------------------------------|
|------------------------------------------------------------------------------------------|
|--7---------------------------------------------------------------------------------------|
|--5----5-----5----5-----5----5-----5----5-----5----5-----5----5-----5----5-----5----5-----|
|------------------------------------------------------------------------------------------|


  D5
   T          T          T          T          T          T          T          T
|-20-10h==14-20-10h==14-22-10h==14-20-10h==14-24-10h==14-24-10h==14-22-10h==14-20-10h==14---||
|------------------------------------------------------------------------------------------o||
|-------------------------------------------------------------------------------------------||
|-------------------------------------------------------------------------------------------||
|------------------------------------------------------------------------------------------o||
|-------------------------------------------------------------------------------------------||
|
|  PM--------------------------------------------------------------------------------|
|-------------------------------------------------------------------------------------------||
|------------------------------------------------------------------------------------------o||
|-------------------------------------------------------------------------------------------||
|--7--------------------------------7-------------------------------------------------------||
|--5----5-----5----5-----5----5-----5----5-----5----5-----5----5-----5----5-----5----5-----o||
|-------------------------------------------------------------------------------------------||


    Em
     T          T          T          T          T          T          T          T
||--19-12h==15-19-12h==15-20-12h==15-19-12h==15-22-12h==15-20-12h==15-19-12h==15-20-12h==15-|
||o-----------------------------------------------------------------------------------------|
||------------------------------------------------------------------------------------------|
||------------------------------------------------------------------------------------------|
||o-----------------------------------------------------------------------------------------|
||------------------------------------------------------------------------------------------|
|
|    PM--------------------------------------------------------------------------------|
||------------------------------------------------------------------------------------------|
||o-----------------------------------------------------------------------------------------|
||------------------------------------------------------------------------------------------|
||---9--------------------------------------------------------------------------------------|
||o--7----7-----7----7-----7----7-----7----7-----7----7-----7----7-----7----7-----7----7----|
||------------------------------------------------------------------------------------------|


  Em
   T          T          T          T          T          T          T          T
|-19-12h==15-19-12h==15-20-12h==15-19-12h==15-22-12h==15-20-12h==15-19-12h==15-20-12h==15--|
|------------------------------------------------------------------------------------------|
|------------------------------------------------------------------------------------------|
|------------------------------------------------------------------------------------------|
|------------------------------------------------------------------------------------------|
|------------------------------------------------------------------------------------------|
|
|  PM--------------------------------------------------------------------------------|
|------------------------------------------------------------------------------------------|
|------------------------------------------------------------------------------------------|
|------------------------------------------------------------------------------------------|
|--9--------------------------------9------------------------------------------------------|
|--7----7-----7----7-----7----7-----7----7-----7----7-----7----7-----7----7-----7----7-----|
|------------------------------------------------------------------------------------------|


  1.
  C5
   T         T         T         T         T         T         T         T
|-15-8h==12-15-8h==12-17-8h==12-15-8h==12-19-8h==12-19-8h==12-17-8h==12-15-8h==12--|
|----------------------------------------------------------------------------------|
|----------------------------------------------------------------------------------|
|----------------------------------------------------------------------------------|
|----------------------------------------------------------------------------------|
|----------------------------------------------------------------------------------|
|
|  PM------------------------------------------------------------------------|
|----------------------------------------------------------------------------------|
|----------------------------------------------------------------------------------|
|----------------------------------------------------------------------------------|
|--5-------------------------------------------------------------------------------|
|--3---3-----3---3-----3---3-----3---3-----3---3-----3---3-----3---3-----3---3-----|
|----------------------------------------------------------------------------------|


  C5
   T         T         T         T         T         T         T         T
|-15-8h==12-15-8h==12-17-8h==12-15-8h==12-19-8h==12-19-8h==12-17-8h==12-15-8h==12---||
|----------------------------------------------------------------------------------o||
|-----------------------------------------------------------------------------------||
|-----------------------------------------------------------------------------------||
|----------------------------------------------------------------------------------o||
|-----------------------------------------------------------------------------------||
|
|  PM------------------------------------------------------------------------|
|-----------------------------------------------------------------------------------||
|----------------------------------------------------------------------------------o||
|-----------------------------------------------------------------------------------||
|--5-----------------------------5--------------------------------------------------||
|--3---3-----3---3-----3---3-----3---3-----3---3-----3---3-----3---3-----3---3-----o||
|-----------------------------------------------------------------------------------||


  2.
  C5              C5              C5              C5
   T       T       T       T       T       T       T       T
|-15-8h12-15-8h12-17-8h12-15-8h12-19-8h12-19-8h12-17-8h12-15-8h12-|
|-----------------------------------------------------------------|
|-----------------------------------------------------------------|
|-----------------------------------------------------------------|
|-----------------------------------------------------------------|
|-----------------------------------------------------------------|
|
|-----------------------------------------------------------------|
|-----------------------------------------------------------------|
|--5---------------5---------------5---------------5--------------|
|--5---------------5---------------5---------------5--------------|
|--3---------------3---------------3---------------3--------------|
|-----------------------------------------------------------------|


  C5              C5              C5              C5
   T       T       T       T       T       T       T       T
|-15-8h12-15-8h12-17-8h12-15-8h12-19-8h12-19-8h12-17-8h12-15-8h12-||
|-----------------------------------------------------------------||
|-----------------------------------------------------------------||
|-----------------------------------------------------------------||
|-----------------------------------------------------------------||
|-----------------------------------------------------------------||
|
|-----------------------------------------------------------------||
|-----------------------------------------------------------------||
|--5---------------5---------------5---------------5--------------||
|--5---------------5---------------5---------------5--------------||
|--3---------------3---------------3---------------3--------------||
|-----------------------------------------------------------------||


 Lead Guitar Solo
  Em
  Gtr I
|-----------------------------------|------------------------------------------|
|-5-5-0-0-7-7-0-0-8-8-0-0-10-10-0-0-|-12---13-------15---13-12------[12]-------|
|-----------------------------------|--------------------------14-x------------|
|-----------------------------------|------------------------------------------|
|-----------------------------------|------------------------------------------|
|-----------------------------------|------------------------------------------|
|
| Gtr III
| PM-------------------------------------------------------------------------|
|-----------------------------------|------------------------------------------|
|-----------------------------------|------------------------------------------|
|-----------------------------------|------------------------------------------|
|-5---------------------------------|--5-------------5-------------------------|
|-7-7-7-7-7-7-7-7-7-7-7-7--7--7-7-7-|--7-7--7-7-7-7--7-7--7--7--7-7---7--7-7-7-|
|-----------------------------------|------------------------------------------|


|---------------------------------------------|
|-12---13-15-13-12----------------------------|
|------------------12--------12-16-14-12------|
|-----------------------14---------------14---|
|---------------------------------------------|
|---------------------------------------------|
|
|  PM---------------------------------------|
|---------------------------------------------|
|---------------------------------------------|
|---------------------------------------------|
|--5------------------------------------------|
|--7-7--7--7--7--7--7-7--7-7--7--7--7--7--7-7-|
|---------------------------------------------|


  C5
|-------------------------------------------|
|-------------------------------------------|
|-[14]b16r[14]b16r12\--[14]b16r[14]b16r12\--|
|-----------------12\------------------12\--|
|-------------------------------------------|
|-------------------------------------------|
|
|-------------------------------------------|
|-------------------------------------------|
|---5---------------------------------------|
|---5---------------------------------------|
|---3---------------------------------------|
|-------------------------------------------|


  Em
|-0---0-0-3-0-7-0-12-0-10-0-7-0-12-0-|
|------------------------------------|
|------------------------------------|
|------------------------------------|
|------------------------------------|
|------------------------------------|
|
| PM----------------------------------
|------------------------------------|
|------------------------------------|
|------------------------------------|
|-5----------------------------------|
|-7-7-7-7-7-7-7-7--7-7--7-7-7-7--7-7-|
|------------------------------------|


|-12---12-14-15-14-12-14-12-14-12---------------------|
|---------------------------------15-[15]-[15]-[15]---|
|-----------------------------------------------------|
|-----------------------------------------------------|
|-----------------------------------------------------|
|-----------------------------------------------------|
|
|---------------------------------------------------|
|-----------------------------------------------------|
|-----------------------------------------------------|
|-----------------------------------------------------|
|--5----------------5---------------------------------|
|--7-7--7--7--7--7--7--7--7--7--7--7---7----7----7--7-|
|-----------------------------------------------------|


|-0-0-0-0-7---0-0-5-5-7-7-8-8-7-7-|
|---------------------------------|
|---------------------------------|
|---------------------------------|
|---------------------------------|
|---------------------------------|
|
| PM----------------------------|
|---------------------------------|
|---------------------------------|
|---------------------------------|
|-5-------------------------------|
|-7-7-7-7-7-7-7-7-7-7-7-7-7-7-7-7-|
|---------------------------------|


|-<7>-<7>-<7>-<7>--------<7>-<7>-<7>-<7>-<7>---------<7>-|
|--------------------------------------------------------|
|-----------------<7><7>---------------------<7>-<7>-----|
|--------------------------------------------------------|
|--------------------------------------------------------|
|--------------------------------------------------------|
|
|--------------------------------------------------------|
|--------------------------------------------------------|
|--------------------------------------------------------|
|--5---------------5s=====7---7--------------------------|
|--7---------------7s=====9---9--------------------------|
|--------------------------------------------------------|


  A5
|-17-17-17-17-15-15-15-15-14-14-14-14-14h=15p14----|
|-----------------------------------------------15-|
|--------------------------------------------------|
|--------------------------------------------------|
|--------------------------------------------------|
|--------------------------------------------------|
|
|        PM---|            PM---|
|--------------------------------------------------|
|--------------------------------------------------|
|--------------------------------------------------|
|--7-----------------7-----------------7\----------|
|--7-----------------7-----------------7\----------|
|--5-----5-----5-----5-----5-----5-----5\----------|


  C5
|---------------------------------|
|-[15]/---[13]/---[12]/---[13]/---|
|---------------------------------|
|---------------------------------|
|---------------------------------|
|---------------------------------|
|
|       PM|         PM--|       PM
|---------------------------------|
|---------------------------------|
|---5-----------5-----------5-----|
|---5-----------5-----------5-----|
|---3---3---3---3---3---3---3---3-|
|---------------------------------|


  C5                                           G5
                                                 ~~~~
|--------------------------------------------|---------|
|-12-13-12----12-----------------------------|---------|
|----------14----14-12-11-12-14-12-11--------|-[12]----|
|-------------------------------------[12]---|---------|
|--------------------------------------------|---------|
|--------------------------------------------|---------|
|
|        PM---|            PM---|          PM
|--------------------------------------------|---------|
|--------------------------------------------|---------|
|--5-----------------5------------------5----|---------|
|--5-----------------5------------------5----|---5-----|
|--3-----3-----3-----3-----3-----3------3--3-|---5-----|
|--------------------------------------------|---3-----|


  A5
                                   T
|-------------------------7-12-15-19p15p12-|
|---------------------8--------------------|
|-------------------9----------------------|
|------------9---10------------------------|
|-------7-10-------------------------------|
|-7-8--------------------------------------|
|
|     PM--|         PM--|          PM
|------------------------------------------|
|------------------------------------------|
|------------------------------------------|
|-7------------7-------------7-------------|
|-7------------7-------------7-------------|
|-5---5----5---5----5---5----5-----5-------|


  C5
                        T
|-12----------12h15h20-24p20p15------------22b24----|
|----13-12-13-------------------13-12---13----------|
|---------------------------------------------------|
|---------------------------------------------------|
|---------------------------------------------------|
|---------------------------------------------------|
|
|        PM---|                  PM---|
|---------------------------------------------------|
|---------------------------------------------------|
|--5--------------------5-------------------5-------|
|--5--------------------5-------------------5-------|
|--3-----3-----3--------3--------3----3-----3----3--|
|---------------------------------------------------|


  E5                              D5
|-------------------------------|----------|
|-------------------------------|----------|
|-/23-/18-/18-/14-/14-/11-/11---|-[12]\----|
|-------------------------------|----------|
|-------------------------------|----------|
|-------------------------------|----------|
|
|       PM|         PM|       PM
|-------------------------------|----------|
|-------------------------------|----------|
|---9-----------9-----------9---|---7------|
|---9-----------9-----------9---|---7------|
|---7---7---7---7---7---7---7-7-|---5------|
|-------------------------------|----------|


  Em
|-7------------------------------------|
|---10-8-7-10-8-7-----7-8-10-[7]-------|
|-----------------7-9------------------|
|--------------------------------------|
|--------------------------------------|
|--------------------------------------|
|
|      PM|      PM|     PM-----------|
|--------------------------------------|
|--------------------------------------|
|--------------------------------------|
|-9---------7-------9------------------|
|-7----7-7--7---7-7-7---7--7--7--7-7-7-|
|--------------------------------------|


  Gtr IV
|-10----------------------------------[15]-------|
|----13-12-10-13-12-10----------12---------------|
|----------------------12-12-12----12------------|
|------------------------------------------------|
|------------------------------------------------|
|------------------------------------------------|
|
|        PM|         PM|         PM------------|
|------------------------------------------------|
|------------------------------------------------|
|------------------------------------------------|
|--9-----------7-----------9---------------------|
|--7-----7--7--7-----7--7--7-----7--7---7--7-7-7-|
|------------------------------------------------|


|-0-0-2-2-3-0-5-0-7-0-8-0-7-0-5-0-|
|---------------------------------|
|---------------------------------|
|---------------------------------|
|---------------------------------|
|---------------------------------|
|
|     PM|     PM|     PM--------|
|---------------------------------|
|---------------------------------|
|---------------------------------|
|-9-------7-------9---------------|
|-7---7-7-7---7-7-7---7-7-7-7-7-7-|
|---------------------------------|


|-------------------[15]---------------------[15]---|
|-------12----15p12--------------12----15p12--------|
|-12-12----12--------------12-12----12--------------|
|---------------------------------------------------|
|---------------------------------------------------|
|---------------------------------------------------|
|
|        PM|          PM-|        PM--------------|
|---------------------------------------------------|
|---------------------------------------------------|
|---------------------------------------------------|
|--9-----------7------------9-----------------------|
|--7-----7--7--7------7--7--7-----7--7--7--7---7--7-|
|---------------------------------------------------|


  G5
  Gtr IV
|------------------------------|-------15----------------------|
|-12-12----12---12---13---12---|-15-15----15---13---[13]-------|
|-------12---------------------|-------------------------------|
|------------------------------|-------------------------------|
|------------------------------|-------------------------------|
|------------------------------|-------------------------------|
|
| Gtr II
|------------------------------|-------------------------------|
|------------------------------|-12-12-15-12-------------------|
|-12-12----12---12---14---12---|---------------14---[12]-------|
|-------12---------------------|-------------------------------|
|------------------------------|-------------------------------|
|------------------------------|-------------------------------|
|
| Gtr III
|     PM    PM   PM----------|       PM    PM   PM-----------|
|------------------------------|-------------------------------|
|------------------------------|-------------------------------|
|------------------------------|-------------------------------|
|--5-----5----5----------------|--5-----5----5-----------------|
|--5-----5----5----------------|--5-----5----5-----------------|
|--3--3--3--3-3--3-3--3-3--3-3-|--3--3--3--3-3--3-3---3--3-3-3-|


|-----------------------------------|
|-12--12---13--15---------12---15---|
|--------------------14-------------|
|-----------------------------------|
|-----------------------------------|
|-----------------------------------|
|
|--------------[7]---------7---10---|
|-[8]-[8]-[10]-------10-------------|
|-----------------------------------|
|-----------------------------------|
|-----------------------------------|
|-----------------------------------|
|
|      PM       PM    PM----------|
|-----------------------------------|
|-----------------------------------|
|-----------------------------------|
|--5--------5------5----------------|
|--5--------5------5----------------|
|--3---3----3---3--3--3-3--3-3--3-3-|


|-----17b19--------------------[15]----------|
|-15-----------15-12-15---12-----------------|
|--------------------------------------------|
|--------------------------------------------|
|--------------------------------------------|
|--------------------------------------------|
|
|--------------------------------------------|
|----[15]b17-------------------[15]b17-------|
|-16-----------16-12-16---12-----------------|
|--------------------------------------------|
|--------------------------------------------|
|--------------------------------------------|
|
|      PM       PM      PM-----------------|
|--------------------------------------------|
|--------------------------------------------|
|--------------------------------------------|
|--5---------4-----5-------------------------|
|--5---------5-----5-------------5-----7-5-7-|
|--3---3-----3--3--3----3----3---------------|


  C5
|-[15]b17---------------------------|--------------------------------|
|---------15-13-12------------------|-12-13-/15\-13---12--------12---|
|--------------------14---12---14---|----------------------14--------|
|-----------------------------------|--------------------------------|
|-----------------------------------|--------------------------------|
|-----------------------------------|--------------------------------|
|
|-[15]b17---------------------------|--------------------------------|
|---------12------------------------|--------------------------------|
|------------14-12------------------|-12-14-/16\-14---12--------12---|
|--------------------14---12---14---|----------------------14--------|
|-----------------------------------|--------------------------------|
|-----------------------------------|--------------------------------|
|
|          PM    PM   PM----------|       PM      PM   PM----------|
|-----------------------------------|--------------------------------|
|-----------------------------------|--------------------------------|
|---5--------------5----------------|--5------------5----------------|
|---5---------4----5----------------|--5------4-----5----------------|
|---3------3--5--3-3--3-3--3-3--3-3-|--3--3---5---3-3--3-3--3-3--3-3-|
|-----------------------------------|--------------------------------|


  C5
|---------------------------|-------------------------|
|-12s10-10-10S8-8---8s==7---|-7s8-8-8s12-12s==8---7---|
|---------------------------|-------------------------|
|---------------------------|-------------------------|
|---------------------------|-------------------------|
|---------------------------|-------------------------|
|
|---------------------------|-------------------------|
|---------------------------|-------------------------|
|-12s11-11-11s9-9---9s==7---|-7s9-9-9s12-12s==9---7---|
|---------------------------|-------------------------|
|---------------------------|-------------------------|
|---------------------------|-------------------------|
|
|     PM    PM  PM--------|     PM  PM    PM--------|
|---------------------------|-------------------------|
|---------------------------|-------------------------|
|--5----------5-------------|-5--------5--------------|
|--5-----4----5-------------|-5---4----5--------------|
|--3--3--5--3-3-3-3-3-3-3-3-|-3-3-5-3--3--3-3-3-3-3-3-|
|---------------------------|-------------------------|


  G5
  Gtr I
|-10---------------------------------------------|
|----13-12-10-13-12-10----10-10-10-12-11-10------|
|----------------------12-------------------12---|
|------------------------------------------------|
|------------------------------------------------|
|------------------------------------------------|
|
| Gtr III
|        PM          PM          PM------------|
|------------------------------------------------|
|------------------------------------------------|
|------------------------------------------------|
|--5-----------5-----------5---------------------|
|--5-----------5-----------5---------------------|
|--3-----3-----3-----3-----3-----3--3--3--3--3-3-|


|----------------------------------|
|-8--------------------------------|
|---11-9-7-11-9-7-7-7-9-9-7-7------|
|-----------------------------9----|
|----------------------------------|
|----------------------------------|
|
|      PM       PM    PM--------|
|----------------------------------|
|----------------------------------|
|----------------------------------|
|-5---------5-----5----------------|
|-5---------5-----5----------------|
|-3----3----3---3-3---3-3-3-3-3-3--|


  G5
|-------------------------------------------|
|-8---8-10-12-8-8-10-12-13-10-12-13-15-12---|
|---7---------------------------------------|
|-------------------------------------------|
|-------------------------------------------|
|-------------------------------------------|
|
|     PM        PM          PM------------|
|-------------------------------------------|
|-------------------------------------------|
|-------------------------------------------|
|-5---------4---------5---------------------|
|-5---------5---------5---------------------|
|-3---3-----3---3-----3-----3--3--3--3--3-3-|


|-------------------------17----17-19-17-19-20-19---17-|
|-17-------19-20-17-19-20----20------------------------|
|----17-17---------------------------------------------|
|------------------------------------------------------|
|------------------------------------------------------|
|------------------------------------------------------|
|
|        PM          PM          PM---------------|
|------------------------------------------------------|
|------------------------------------------------------|
|------------------------------------------------------|
|--5-----------4-----------5---------------------------|
|--5-----------5-----------5---------------------------|
|--3-----3-----3-----3-----3-----3--3--3--3--3----3----|


  Em                            D5
  Gtr I
|-22-19----------19-22-19-22-19-------19-20-17-20-17-------17-|
|-------20----20-------------------20-------------------19----|
|----------21-------------------21-------------------19-------|
|-------------------------------------------------------------|
|-------------------------------------------------------------|
|-------------------------------------------------------------|
|
| Gtr II
|-19-15----------15-19-15-19-15-------15-17-14-17-14-------14-|
|-------17----17-------------------17-------------------15----|
|----------16-------------------16-------------------14-------|
|-------------------------------------------------------------|
|-------------------------------------------------------------|
|-------------------------------------------------------------|
|
| Gtr III
|-------------------------------------------------------------|
|-------------------------------------------------------------|
|--9-----------------------------7----------------------------|
|--9-----------------------------7----------------------------|
|--7-----------------------------5----------------------------|
|-------------------------------------------------------------|


  C5                      B5
|-19-15----15-19-15-19-15----14-17-14-17-14----|
|-------17----------------15----------------15-|
|----------------------------------------------|
|----------------------------------------------|
|----------------------------------------------|
|----------------------------------------------|
|
|-15-12----12-15-12-15-12----10-14-10-14-10----|
|-------13----------------12----------------12-|
|----------------------------------------------|
|----------------------------------------------|
|----------------------------------------------|
|----------------------------------------------|
|
|----------------------------------------------|
|----------------------------------------------|
|--5-----------------------4-------------------|
|--5-----------------------4-------------------|
|--3-----------------------2-------------------|
|----------------------------------------------|


  A5                      B5
|-15-12----12-15-12-15-12----14-17-14-17-14----|
|-------13----------------15----------------15-|
|----------------------------------------------|
|----------------------------------------------|
|----------------------------------------------|
|----------------------------------------------|
|
|-12--8-----8-12--8-12--8----10-14-10-14-10----|
|-------10----------------12----------------12-|
|----------------------------------------------|
|----------------------------------------------|
|----------------------------------------------|
|----------------------------------------------|
|
|----------------------------------------------|
|----------------------------------------------|
|--2-----------------------4-------------------|
|--2-----------------------4-------------------|
|--0-----------------------2-------------------|
|----------------------------------------------|


  C5                      D5
|-19-15----15-19-15-19-15----17-20-17-20-17----|
|-------17----------------19----------------19-|
|----------------------------------------------|
|----------------------------------------------|
|----------------------------------------------|
|----------------------------------------------|
|
|-15-12----12-15-12-15-12----14-17-14-17-14----|
|-------13----------------15----------------15-|
|----------------------------------------------|
|----------------------------------------------|
|----------------------------------------------|
|----------------------------------------------|
|
|----------------------------------------------|
|----------------------------------------------|
|--5-----------------------7-------------------|
|--5-----------------------7-------------------|
|--3-----------------------5-------------------|
|----------------------------------------------|


  C5
  Gtr I
|-5/-7-8-12-15-12-15-12---10-8-10---12-17-12-17-12---10-8-|
|---------------------------------------------------------|
|---------------------------------------------------------|
|---------------------------------------------------------|
|---------------------------------------------------------|
|---------------------------------------------------------|
|
| Gtr III
|    PM|        PM|               PM--------------------|
|---------------------------------------------------------|
|---------------------------------------------------------|
|-5---------------------5---------------------------------|
|-5-------4-------------5---------------------------------|
|-3--3-3--5-----3--3----3---------3-----3--3--3----3----3-|
|---------------------------------------------------------|


   T    T    T    T      T
|-12p7-12p7-12p5-12p3-7h12p7---5---3----|
|---------------------------------------|
|---------------------------------------|
|---------------------------------------|
|---------------------------------------|
|---------------------------------------|
|
|       PM        PM       PM--------|
|---------------------------------------|
|---------------------------------------|
|--5------------------5-----------------|
|--5---------4--------5-----------------|
|--3----3----5----3---3----3-3-3-3-3-3--|
|---------------------------------------|


  G5
            T
|-7-8---10-15s17s19-(19)s17s15-8-/8\-8---8-------|
|------------------------------------------8-7---|
|------------------------------------------------|
|------------------------------------------------|
|------------------------------------------------|
|------------------------------------------------|
|
|     PM              PM             PM--------|
|------------------------------------------------|
|------------------------------------------------|
|------------------------------------------------|
|-5---------4------------------5-----------------|
|-5---------5------------------5-----------------|
|-3---3-----3---------3--------3-----3-3-3-3-3-3-|


   T       T
|-----------------------------------|
|-----------------------------------|
|-12s19p7-11p7-5-[12]/--------------|
|-----------------------------------|
|-----------------------------------|
|-----------------------------------|
|
|       PM     PM      PM--------|
|-----------------------------------|
|-----------------------------------|
|-----------------------------------|
|--5---------4-----5----------------|
|--5---------5-----5----------------|
|--3----3----3-3---3---3-3-3-3-3-3--|


  A5
           T
|-0-3-5-7-10-7-5-7-5---3-0-|-3-0-------------10--------------|
|--------------------------|-------3-0-0---0-----------------|
|--------------------------|---------------------------------|
|--------------------------|---------------------------------|
|--------------------------|---------------------------------|
|--------------------------|---------------------------------|
|
|   PM  PM     PM--------|       PM      PM     PM--------|
|--------------------------|---------------------------------|
|--------------------------|---------------------------------|
|--------------------------|---------------------------------|
|-7---5----7---------------|-7-------5--------7--------------|
|-7---7----7---------------|-7-------7--------7--------------|
|-5-5-5-5--5---5-5-5-5-5-5-|-5---5---5---5----5-5-5-5-5-5-5--|


  D5
|---10-12-15-17-15-12-10-12-10-12-7-5-7-5-3-|-5-7-5-0-----3-3---3-------||
|-------------------------------------------|---------3-5---------------||
|-------------------------------------------|---------------------------||
|-------------------------------------------|---------------------------||
|-------------------------------------------|---------------------------||
|-------------------------------------------|---------------------------||
|
|       PM          PM          PM--------|       PM    PM  PM--------|
|-------------------------------------------|---------------------------||
|-------------------------------------------|---------------------------||
|-7-----------7-----------7-----------------|-7-------7---7-------------||
|-7-----------5-----------7-----------------|-7-------5---7-------------||
|-5-----5-----5-----5-----5-----5-5-5-5-5-5-|-5---5---5-5-5-5-5-5-5-5-5-||
|-------------------------------------------|---------------------------||


 Chorus Solo
  G5                       D5
  Gtr I
|------------------------|-12----15-17-19-17-----|
|-12---12-13-15-13-12-13-|----12-------------15--|
|------------------------|-----------------------|
|------------------------|-----------------------|
|------------------------|-----------------------|
|------------------------|-----------------------|
|
| Gtr II
|-------------7----------|-----------------------|
|--8----8-10----10--8-10-|-----------7--8--7-----|
|----7-------------------|--9-----9-----------7--|
|------------------------|-----9-----------------|
|------------------------|-----------------------|
|------------------------|-----------------------|
|
| Gtr III
|------------------------|-----------------------|
|------------------------|-----------------------|
|------------------------|--7--------------------|
|--5---------------------|--7--------------------|
|--5---------------------|--5--------------------|
|--3---------------------|-----------------------|


  E5                         C5
                                          ~~
|-----22----------17-------|----20-------24----|
|-/20----20S15-15----15-15-|-17----17----------|
|--------------------------|----------17-------|
|--------------------------|-------------------|
|--------------------------|-------------------|
|--------------------------|-------------------|
|
|                                         ~~
|-----19----------14-------|----15-------20----|
|-/17----17S12-12----12-12-|-13----13----------|
|--------------------------|----------12-------|
|--------------------------|-------------------|
|--------------------------|-------------------|
|--------------------------|-------------------|
|
|--------------------------|-------------------|
|--------------------------|-------------------|
|---9----------------------|--5----------------|
|---9----------------------|--5----------------|
|---7----------------------|--3----------------|
|--------------------------|-------------------|


  G5
|-17b19-------17b19-------17b19-------17---15---|
|-----------------------------------------------|
|-----------------------------------------------|
|-----------------------------------------------|
|-----------------------------------------------|
|-----------------------------------------------|
|
|-14b15-------14b15-------14b15-------14---12---|
|-----------------------------------------------|
|-----------------------------------------------|
|-----------------------------------------------|
|-----------------------------------------------|
|-----------------------------------------------|
|
|       PM----------|   PM---------------|    PM
|-----------------------------------------------|
|-----------------------------------------------|
|-----------------------------------------------|
|--5------------------5----------------5--------|
|--5------------------5----------------5--------|
|--3----3-3-3--3----3-3-3--3----3-3-3--3-3--3-3-|


|-14---15--------22---------------------|
|-----------15----------------15---17---|
|---------------------------------------|
|---------------------------------------|
|---------------------------------------|
|---------------------------------------|
|
|-10---12---10---19---------------------|
|---------------------------------------|
|---------------------------------------|
|---------------------------------------|
|---------------------------------------|
|---------------------------------------|
|
|    PM--------|    PM------|    PM---|
|---------------------------------------|
|---------------------------------------|
|---------------------------------------|
|--5--------------5------------5--------|
|--5--------------5------------5--------|
|--3-3--3-3--3-3--3-3-3-3-3-3--3-3--3-3-|


  C5
  Gtr I
|-15----15h17h19-19p17p15----15-------------------|
|----17-------------------17----17-15-------15-17-|
|-------------------------------------16-16-------|
|-------------------------------------------------|
|-------------------------------------------------|
|-------------------------------------------------|
|
| Gtr III
|-------------------------------------------------|
|-------------------------------------------------|
|--5----------------------------------------------|
|--5----------------------------------------------|
|--3----------------------------------------------|
|-------------------------------------------------|


  D5
                        ~~~~
|-----------------------------|
|-15--------------------------|
|----16-15-14---------[14]----|
|-------------17-(17)---------|
|-----------------------------|
|-----------------------------|
|
|-----------------------------|
|-----------------------------|
|--7--------------------------|
|--7--------------------------|
|--5--------------------------|
|-----------------------------|


  G5                                    D5
|-------------------------------------|-------15----15-17-19-17-15--------|
|-------------------13-12----12-------|-15-17----17----------------17-15--|
|-------12----12-14-------15----15-14-|-----------------------------------|
|-12-14----14-------------------------|-----------------------------------|
|-------------------------------------|-----------------------------------|
|-------------------------------------|-----------------------------------|
|
|-------------------------------------|-----------------------------------|
|-------------------------------------|-----------------------------------|
|-------------------------------------|--7--------------------------------|
|--5----------------------------------|--7--------------------------------|
|--5----------------------------------|--5--------------------------------|
|--3----------------------------------|-----------------------------------|


  E5
   \0.25/  \0.25/  \0.25/  \0.25/  \0.25/  \0.25/  \0.25/  \0.25/
|-----------------------------------------------------------------|
|-17------17------17------15------17------17------17------15------|
|-----------------------------------------------------------------|
|-----------------------------------------------------------------|
|-----------------------------------------------------------------|
|-----------------------------------------------------------------|
|
|-----------------------------------------------------------------|
|-----------------------------------------------------------------|
|--9--------------------------------------------------------------|
|--9--------------------------------------------------------------|
|--7--------------------------------------------------------------|
|-----------------------------------------------------------------|


  C5
   \0.25/  \0.25/  \0.25/  \0.25/
|-------------------------------------------------|
|---------15------15------------------------------|
|-16----------------------16------16-14-------14--|
|---------------------------------------17-17-----|
|-------------------------------------------------|
|-------------------------------------------------|
|
|-------------------------------------------------|
|-------------------------------------------------|
|--5----------------------------------------------|
|--5----------------------------------------------|
|--3----------------------------------------------|
|-------------------------------------------------|


  C5
  Gtr I
|----------12-15-19-15----17-15-------------------|
|-------12-------------19-------19-17-------------|
|----12-------------------------------19-18-16----|
|-14-------------------------------------------19-|
|-------------------------------------------------|
|-------------------------------------------------|
|
| Gtr II
|-------------------------------------------------|
|-------------15-19-15-14-17-15-14-12-------------|
|----------16-------------------------14-12-------|
|-------16----------------------------------16-14-|
|-14-17-------------------------------------------|
|-------------------------------------------------|
|
| Gtr III
|        PM------|         PM------|         PM|
|-------------------------------------------------|
|-------------------------------------------------|
|-------------------------------------------------|
|--5-----------------5-----------------5----------|
|--3-----3--3--3--3--3-----3--3--3--3--3-----3--3-|
|-------------------------------------------------|


|----------10-14-17-15-14-15-14-------------------|
|-------10----------------------17-15-------------|
|----11-------------------------------18-16-14----|
|-12-------------------------------------------17-|
|-------------------------------------------------|
|-------------------------------------------------|
|
|-------------------------------------------------|
|-------------14-17-15-14-15-14-12----------------|
|----------14----------------------14-12----------|
|-------14-------------------------------16-14-12-|
|-12-16-------------------------------------------|
|-------------------------------------------------|
|
|        PM------|         PM------|         PM|
|-------------------------------------------------|
|-------------------------------------------------|
|-------------------------------------------------|
|--5-----------------5-----------------5----------|
|--3-----3--3--3--3--3-----3--3--3--3--3-----3--3-|
|-------------------------------------------------|


  D5
|-8tr17-----7tr15---5-8-7-8---17tr22---15tr22-17tr22---|
|------------------------------------------------------|
|------------------------------------------------------|
|------------------------------------------------------|
|------------------------------------------------------|
|------------------------------------------------------|
|
|-5tr14-----3tr12---2-5-3-5---14tr22---12tr22-14tr22---|
|------------------------------------------------------|
|------------------------------------------------------|
|------------------------------------------------------|
|------------------------------------------------------|
|------------------------------------------------------|
|
|       PM--------|       PM---------|         PM----|
|------------------------------------------------------|
|------------------------------------------------------|
|------------------------------------------------------|
|-7-----------------7-------------------7--------------|
|-5-----5-5-5-----5-5-----5-5--5-----5--5------5-----5-|
|------------------------------------------------------|


|-2tr7--3tr7--5tr7--3tr7-14tr7-15tr7-17tr7-15tr7-2tr7-3tr7-5tr7-3tr7-2tr7-3tr7-5tr7-3tr7--||
|-----------------------------------------------------------------------------------------||
|-----------------------------------------------------------------------------------------||
|-----------------------------------------------------------------------------------------||
|-----------------------------------------------------------------------------------------||
|-----------------------------------------------------------------------------------------||
|
|------14----15----17----15tr7-17tr7-14tr7-15tr7-3tr7-5tr7-2tr7-3tr7-3tr7-5tr7-2tr7-3tr7--||
|-----------------------------------------------------------------------------------------||
|-----------------------------------------------------------------------------------------||
|-----------------------------------------------------------------------------------------||
|-----------------------------------------------------------------------------------------||
|-----------------------------------------------------------------------------------------||
|
|-----------------------------------------------------------------------------------------||
|-----------------------------------------------------------------------------------------||
|-----------------------------------------------------------------------------------------||
|-7---------------------------------------------------------------------------------------||
|-5---------------------------------------------------------------------------------------||
|-----------------------------------------------------------------------------------------||


 Acapella Chorus
  G5                   C5         D5
  Gtr III
|-7--------|---------|----------|------||
|-8--------|---------|----------|------||
|----------|---------|-5--------|-7----||
|-5--------|---------|-5--------|-7----||
|-5--------|---------|-3--------|-5----||
|-3--------|---------|----------|------||


 Chorus
  A5         E5         F#5         D5
|----------|----------|-----------|------|
|----------|----------|-----------|------|
|----------|-9--------|-11--------|-7----|
|-7--------|-9--------|-11--------|-7----|
|-7--------|-7--------|--9--------|-5----|
|-5--------|----------|-----------|------|


  A5
    PM------|   PM----------|   PM
|---------------------------------|
|---------------------------------|
|---------------------------------|
|-7-----------7-----------7-------|
|-7-----------7-----------7-------|
|-5-5-5-5-5-5-5-5-5-5-5-5-5-5-5-5-|


                                    D5         E5
    PM------|   PM------|   PM--|
|---------------------------------|----------|------|
|---------------------------------|----------|------|
|---------------------------------|-7--------|-9----|
|-7-----------7-----------7-------|-7--------|-9----|
|-7-----------7-----------7-------|-5--------|-7----|
|-5-5-5-5-5-5-5-5-5-5-5-5-5-5-5-5-|----------|------|


  A5         E5         F#5         D5
|----------|----------|-----------|------||
|----------|----------|-----------|------||
|----------|-9--------|-11--------|-7----||
|-7--------|-9--------|-11--------|-7----||
|-7--------|-7--------|--9--------|-5----||
|-5--------|----------|-----------|------||


 Outro
  D5         E5         F#5
|----------|----------|-----------|---------|
|----------|----------|-----------|---------|
|-7--------|-9--------|-11--------|-(11)----|
|-7--------|-9--------|-11--------|-(11)----|
|-5--------|-7--------|--9--------|--(9)----|
|----------|----------|-----------|---------|


  D5         E5         F#5         F#5F#5E5F#5
                         TP
|----------|----------|-----------|----------------*|
|----------|----------|-----------|----------------*|
|-7--------|-9--------|-11--------|-11-11-9-11\----*|
|-7--------|-9--------|-11--------|-11-11-9-11\----*|
|-5--------|-7--------|--9--------|--9--9-7--9\----*|
|----------|----------|-----------|----------------*|



Tablature Legend
----------------
 h   - hammer-on
 p   - pull-off
 b   - bend
 pb  - pre-bend
 r   - bend release (if no number after the r, then release immediately)
 /\  - slide into or out of (from/to "nowhere")
 s   - legato slide
 S   - shift slide
 - natural harmonic
[n]  - artificial harmonic
n(n) - tapped harmonic
 ~   - vibrato
 tr  - trill
 T   - tap
 TP  - trem. picking
 PM  - palm muting
\n/  - tremolo bar dip; n = amount to dip
 \n  - tremolo bar down
 n/  - tremolo bar up
/n\  - tremolo bar inverted dip
 =   - hold bend; also acts as connecting device for hammers/pulls
 <> - volume swell (louder/softer)
 x   - on rhythm slash represents muted slash
 o   - on rhythm slash represents single note slash

Misc Legend
-----------
 |  - bar
||  - double bar
||o - repeat start
o|| - repeat end
*|  - double bar (ending)
 :  - bar (freetime)
 $  - Segno
 &  - Coda
Tempo markers -  = BPM(8/16=s8/s16), where s8 = swing 8ths, s16 = swing 16ths


** Generated using Power Tab Editor by Brad Larsen: The Official Power Tab Web Site
comments
print report bad tab
44 comments total. Showing first comments.
+12 reply
p2fyre wrote on May 25 2006, 11:34 am

difficulty: intermediate? is that a joke..

+3 reply
SomeKindOfKirk wrote on May 25 2006, 01:47 pm

FURY OF THE STORM HELL YEAH!

+5 reply
rayIII wrote on May 26 2006, 10:27 pm

lol the "difficulty" just means how hard the tab is to understand, not how hard the song it to play (which would be something like: "is your name Herman Li? no? oh, well then don't bother") but that wasn't a choice :p

I want to post or [tab]
guest
You may want to rate the tab now too:
select rating
Please do not post tabs as comments. Select "correction" instead!