Oops, an error
Loading. Please wait.

Heart Of A Dragon Bass Tab

1,047 views 3 this week
no commentswrite comment
1 2 3 4 5
accurate
x 3
add to favorites launch autoscroll
font size
0
reset
Autoscroll
+/-
esc
set tempo
stop
Contributor
Difficulty
intermediate
WARNING: You are trying to view
                                    content from Ultimate-Guitar.com
                                    in an unauthorized application,
                                    which is prohibited.

                                    Please use an official Ultimate
                                    Guitar Tabs application for iPhone,
                                    iPad or Android to access legitimate
                                    chords, guitar, bass, and drum tabs
                                    from Ultimate-Guitar.com database.

                                    Type "ultimate guitar tabs" in Apple
                                    App Store's or Android Market's
                                    search to find the application.
Starts slow but just wait...

G  :----------------|----------------|----------------|----------------|
D  :----------------|----------------|----------------|----------------|
A  :3---------------|----------------|----------------|----------------|
E  :----------------|----------------|1---------------|----------------|

G  :----------------|----------------|----------------|----------------|
D  :----------------|----------------|----------------|----------------|
A  :3---------------|----------------|----------------|----------------|
E  :----------------|----------------|3---------------|--------1---3---|

G  :----------------|----------------|----------------|----------------|
D  :----------------|----------------|----------------|----------------|
A  :3---------------|----------------|----------------|3---------------|
E  :----------------|3---------------|1---------------|----------------|

G  :----------------|----------------|----------------|----------------|
D  :----------------|----------------|----------------|----------------|
A  :----------------|----------------|3-3-3-3-3-3-3-3-|3-3-3-3-3---*---|
E  :1---------------|3---------------|----------------|----------------|

G  :----------------|----------------|----------------|----------------|
D  :----------------|----------------|----------------|----------------|
A  :3-3-3-3-3-3-3-3-|3-3-3-3-3-3-3-3-|----------------|----------------|
E  :----------------|----------------|1-1-1-1-1-1-1-1-|1-1-1-1-1-1-1-1-|

G  :----------------|----------------|----------------|----------------|
D  :----------------|------0-2-3-2-0-|----------------|----------------|
A  :3-3-3-3-3-3-3-3-|3-3-3-----------|----------------|----------------|
E  :----------------|----------------|3-3-3-3-3-3-3-3-|3-3-3-3-1-1-3-3-|

G  :----------------|----------------|----------------|----------------|
D  :----------------|----------------|----------------|----------------|
A  :3-3-3-3-3-3-3-3-|----------------|----------0-2-0-|3-3-3-3-3-3-3-3-|
E  :----------------|3-3-3-3-3-3-3-3-|1-1-1-1-1-------|----------------|

G  :----------------|----------------|----------------|----------------|
D  :----------------|----------------|----------------|----------------|
A  :----------------|----------------|3-3-3-3-3-3-3-3-|3-3-3-3-3---*---|
E  :1-1-1-1-1-1-1-1-|3-3-3-3-3-3-3-3-|----------------|----------------|

G  :----------------|----------------|----------------|----------------|
D  :----------------|----------------|----------------|----------------|
A  :0-0-0-0-0-0-0-0-|0-0-0-0-0-0-0-0-|----------------|----------------|
E  :----------------|----------------|1-1-1-1-1-1-1-1-|1-1-1-1-1-1-1-1-|

G  :----------------|----------------|----------------|----------------|
D  :----------------|----------------|----------------|----------------|
A  :----------------|----------------|0-0-0-0-0-0-0-0-|0-0-0-0-0-0-0-0-|
E  :3-3-3-3-3-3-3-3-|3-3-3-3-3-3-3-3-|----------------|----------------|

G  :----------------|----------------|----------------|----------------|
D  :----------------|----------------|3-3-3-3-3-3-3-3-|2-3-3-2-3-3-2-3-|
A  :0-0-0-0-0-0-0-0-|0-0-0-0-0-0-0-0-|----------------|----------------|
E  :----------------|----------------|----------------|----------------|

G  :0-0-0-0-0-0-0-0-|0-0-0-0-0-2-0---|2-2-2-2-2-2-2-2-|2-2-2-5-2-0-----|
D  :----------------|--------------2-|----------------|------------3-2-|
A  :----------------|----------------|----------------|----------------|
E  :----------------|----------------|----------------|----------------|

G  :---------------------------|-------------------------|
D  :0-0-0-0-0-0-0-0-0-0-0-0-0-0|0-0-0-0-0-0-0-0-0-0-0-0-0|
A  :---------------------------|-------------------------|
E  :---------------------------|-------------------------|

G  :---------------------------|-------------------------|
D  :---------------------------|-------------------------|
A  :0-0-0-0-0-0-0-0-0-0-0-0-0-0|0-0-0-0-0-0-0-0-0-0-0-0-0|
E  :---------------------------|-------------------------|

G  :---------------------------|-------------------------|
D  :---------------------------|-------------------------|
A  :---------------------------|-------------------------|
E  :3-3-3-3-3-3-3-3-3-3-3-3-3-3|3-3-3-3-3-3-3-3-3-3-3-3-3|

G  :---------------------------|----------------|
D  :---------------------------|----------------|
A  :0-0-0-0-0-0-0-0-0-0-0-0-0-0|0-0-0-0-0-0-----|
E  :---------------------------|------------3-1-|

G  :---------------------------|-------------------------|
D  :0-0-0-0-0-0-0-0-0-0-0-0-0-0|0-0-0-0-0-0-0-0-0-0-0-0-0|
A  :---------------------------|-------------------------|
E  :---------------------------|-------------------------|

G  :2-2-2-2-2-2-2-2-2-2-2-2-2-2|2-2-2-2-2-2-2-2-2-2-0---|------2-----4---|
D  :---------------------------|----------------------3-|3-3-3---3-3---3-|
A  :---------------------------|------------------------|----------------|
E  :---------------------------|------------------------|----------------|

G  :5-----4-----2---|0-0-0-0-0-4-0-5-0-|7-0-5-0-4-------|
D  :--3-3---3-3---3-|------------------|----------------|
A  :----------------|------------------|----------------|
E  :----------------|------------------|----------------|

G  :----------------|----------------|------------------------|
D  :----------------|----------------|------------------------|
A  :3-*-------------|----------------|------------------------|
E  :----------------|----------------|1-1-1-1-1-1-1-1-1-1-1-1-|

G  :------------------------|------------------------|--------------------|
D  :------------------------|------------------------|------------2-3-2---|
A  :------------------------|3-3-3-3-3-3-3-3-3-3-3-3-|3-3-3-3-3-3-------3-|
E  :1-1-1-1-1-1-1-1-1-1-1-1-|------------------------|--------------------|

G  :------------------------|--------------------|----------------|
D  :------------------------|--------------------|----------------|
A  :------------------------|--------------------|3-3-3-3-3-3-3-3-|
E  :3-3-3-3-3-3-3-3-3-3-3-3-|3-3-3-3-3-3-1---3---|----------------|

G  :----------------|----------------|----------------|----------------|
D  :----------------|----------------|----------------|----------------|
A  :----------------|----------------|3-3-3-3-3-3-3-3-|----------------|
E  :3-3-3-3-3-3-3-3-|1-1-1-1-1-1-1-1-|----------------|1-1-1-1-1-1-1-1-|

G  :----------------|----------------|----------------|
D  :----------------|----------------|--------0-2-0---|
A  :----------------|3-3-3-3-3-3-3-3-|3-3-3-3-------2-|
E  :3-3-3-3-3-3-3-3-|----------------|----------------|

G  :----------------|----------------|----------------|----------------|
D  :----------------|----------------|----------------|----------------|
A  :3-3-3-3-3-3-3-3-|----------------|----------0-2-0-|3-3-3-3-3-3-3-3-|
E  :----------------|3-3-3-3-3-3-3-3-|1-1-1-1-1-------|----------------|

G  :----------------|----------------|----------------|----------------|
D  :----------------|----------------|----------2-0---|----------------|
A  :----------------|----------------|3-3-3-3-3-----2-|3-*-------------|
E  :1-1-1-1-1-1-1-1-|3-3-3-3-3-3-3-3-|----------------|----------------|

G  :----------------|----------------|----------------|----------------|
D  :----------------|----------------|----------------|----------------|
A  :0---0-0-0-0-0-0-|0-0-0-0-0-0-0-0-|----------------|----------------|
E  :----------------|----------------|1---1-1-1-1-1-1-|1-1-1-1-1-1-1-1-|

G  :----------------|----------------|----------------|----------------|
D  :----------------|----------------|--------0-2-2-2-|0-2-2-----------|
A  :----------------|----------------|0---0-0---------|------3-5---3-2-|
E  :3---3-3-3-3-3-3-|3-3-3-3-3-3-3-3-|----------------|----------------|

G  :----------------|----------------|----------------|----------------|
D  :----------------|------------0-2-|3-3-3-3-3-3-3-3-|2-3-3-2-3-3-2-3-|
A  :0-0-0-0-0-0-0-0-|0-0-0-0-0-3-----|----------------|----------------|
E  :----------------|----------------|----------------|----------------|

G  :0-0-0-0-0-0-0-0-|0-0-0-0-0-2-0---|0-2-2-0-2-2-2-2-|2-2-5-3-2-------|
D  :----------------|--------------2-|----------------|----------5-3-2-|
A  :----------------|----------------|----------------|----------------|
E  :----------------|----------------|----------------|----------------|

G  :---------------------------|-------------------------|
D  :0-0-0-0-0-0-0-0-0-0-0-0-0-0|0-0-0-0-0-0-0-0-0-0-0-0-0|
A  :---------------------------|-------------------------|
E  :---------------------------|-------------------------|

G  :---------------------------|-------------------------|
D  :---------------------------|-------------------------|
A  :0-0-0-0-0-0-0-0-0-0-0-0-0-0|0-0-0-0-0-0-0-0-0-0-0-0-0|
E  :---------------------------|-------------------------|

G  :---------------------------|-------------------------|
D  :---------------------------|-------------------------|
A  :---------------------------|-------------------------|
E  :3-3-3-3-3-3-3-3-3-3-3-3-3-3|3-3-3-3-3-3-3-3-3-3-3-3-3|

G  :---------------------------|2-2-2-2-2-2-2-0-----|
D  :--------------2-2-2-2-2-2-2|----------------3-2-|
A  :0-0-0-0-0-0-0--------------|--------------------|
E  :---------------------------|--------------------|

G  :---------------------------|-------------------------|
D  :0-0-0-0-0-0-0-0-0-0-0-0-0-0|0-0-0-0-0-0-0-0-0-0-0-0-0|
A  :---------------------------|-------------------------|
E  :---------------------------|-------------------------|

G  :2-2-2-2-2-2-2-2-2-2-2-2-2-2|2-2-2-2-2-2-2-2-2-2-0---|------2-----4---|
D  :---------------------------|----------------------3-|3-3-3---3-3---3-|
A  :---------------------------|------------------------|----------------|
E  :---------------------------|------------------------|----------------|

G  :5-----4-----2---|0-0-0-0-0-4-0-5-0-|7-0-5-0-4-------|
D  :--3-3---3-3---3-|------------------|----------------|
A  :----------------|------------------|----------------|
E  :----------------|------------------|----------------|

G  :----------------|----------------|------------------------|
D  :----------------|----------------|------------------------|
A  :3-*-------------|----------------|------------------------|
E  :----------------|----------------|1-1-1-1-1-1-1-1-1-1-1-1-|

G  :------------------------|------------------------|--------------------|
D  :------------------------|------------------------|------------2-3-2---|
A  :------------------------|3-3-3-3-3-3-3-3-3-3-3-3-|3-3-3-3-3-3-------3-|
E  :1-1-1-1-1-1-1-1-1-1-1-1-|------------------------|--------------------|

G  :------------------------|--------------------|----------------|
D  :------------------------|--------------------|----------------|
A  :------------------------|--------------------|3-3-3-3-3-3-3-3-|
E  :3-3-3-3-3-3-3-3-3-3-3-3-|3-3-3-3-3-3-1---3---|----------------|

G  :----------------|----------------|----------------|----------------|
D  :----------------|----------------|----------------|----------------|
A  :----------------|----------------|3-3-3-3-3-3-3-3-|----------------|
E  :3-3-3-3-3-3-3-3-|1-1-1-1-1-1-1-1-|----------------|1-1-1-1-1-1-1-1-|

G  :----------------|----------------|----------------|
D  :----------------|----------------|----------------|
A  :----------------|3-3-3-3-3-3-3-3-|3-3-3-3-3-3-3-3-|
E  :3-3-3-3-3-3-3-3-|----------------|----------------|

G  :----------------|----------------|----------------|----------------|
D  :----------------|----------------|----------------|----------------|
A  :3-3-3-3-3-3-3-3-|----------------|----------0-2-0-|3-3-3-3-3-3-3-3-|
E  :----------------|3-3-3-3-3-3-3-3-|1-1-1-1-1-------|----------------|

G  :----------------|----------------|----------------|----------------|
D  :----------------|----------------|----------------|----------------|
A  :----------------|----------------|3-3-3-3-3-3-3-3-|3---------------|
E  :1-1-1-1-1-1-1-1-|3-3-3-3-3-3-3-3-|----------------|----------------|

G  :----------------|----------------|----------------|----------------|
D  :----------------|----------------|----------------|----------------|
A  :3--*--3--*--3---|----------------|----------------|3--*--3--*--3---|
E  :----------------|1--*--1--*--1---|3--*--3--*--3---|----------------|

G  :----------------|----------------|----------------|----------------|
D  :----------------|----------------|----------------|----------------|
A  :0--*--0--*--0---|----------------|----------------|----------------|
E  :----------------|1--*--1--*--1---|3---------------|3---------------|

G  :----------------|----------------|----------------|----------------|
D  :----------------|----------------|----------------|----------------|
A  :3---------------|----------------|----------------|3---------------|
E  :----------------|1---------------|3---------------|----------------|

G  :----------------|----------------|----------------|----------------|
D  :----------------|----------------|----------------|----------------|
A  :0---------------|----------------|----------------|----------------|
E  :----------------|1---------------|3---3-3-3-3-3-3-|3-3-3-3-3-3-3---|

G  :----------------|----------------|----------------|----------------|
D  :----------------|----------------|----------------|----------------|
A  :----------------|----------------|----------------|----------------|
E  :5-5-5-5-5-5-5-5-|5-5-5-5-5-5-5-5-|1-1-1-1-1-1-1-1-|1-1-1-1-1-1-1-1-|

G  :----------------|----------------|----------------|----------------|
D  :----------------|----------------|----------------|5-7-7-7-7-7-7-7-|
A  :----------------|----------------|--------5-7-7-7-|----------------|
E  :3-3-3-3-3-3-3-3-|3-3-3-3-3-3-3-3-|5-5-5-5---------|----------------|

G  :----------------|----------------|----------------|----------------|
D  :----------------|----------------|----------------|----------------|
A  :0-0-0-0-0-0-0-0-|0-0-0-0-0-0-5-7-|8-8-8-8-8-8-8-8-|7-8-8-8-8-8-8-8-|
E  :----------------|----------------|----------------|----------------|

G  :----------------|----------------|----------------|----------5-----|
D  :5-5-5-5-5-5-5-5-|5-5-5-5-5-7-5-5-|7-7-7-7-7-7-7-7-|7-7-7-7-7---7-5-|
A  :----------------|----------------|----------------|----------------|
E  :----------------|----------------|----------------|----------------|

G  :--------------------|--------------------|--------------------|
D  :--------------------|--------------------|--------------------|
A  :5-5-5-5-5-5-5-5-5-5-|5-5-5-5-5-5-5-5-5-5-|0-0-0-0-0-0-0-0-0-0-|
E  :--------------------|--------------------|--------------------|

G  :--------------------|--------------------|--------------------|
D  :--------------------|--------------------|--------------------|
A  :0-0-0-0-0-0-0-0-0-0-|--------------------|--------------------|
E  :--------------------|3-3-3-3-3-3-3-3-3-3-|3-3-3-3-3-3-3-3-3-3-|

G  :----------------|------5---------|--------------------|
D  :----------------|7-7-7---7-5-3---|--------------------|
A  :------------7-7-|--------------7-|5-5-5-5-5-5-5-5-5-5-|
E  :5-5-5-5-5-5-----|----------------|--------------------|

G  :--------------------|--------------------|--------------------|
D  :--------------------|0-7-7-7-7-7-7-7-7-7-|7-7-7-7-7-7-7-7-7-7-|
A  :5-5-5-5-5-5-5-5-5-5-|--------------------|--------------------|
E  :--------------------|--------------------|--------------------|

G  :------2-----4---|5-----4-----2---|0-0-0-0-0-4-0-5-0-|7-0-5-0-4-------|
D  :3-3-3---3-3---3-|--3-3---3-3---3-|------------------|----------------|
A  :----------------|----------------|------------------|----------------|
E  :----------------|----------------|------------------|----------------|

G  :------------------|------------------|------------------|
D  :------------------|------------------|------------------|
A  :3-3-3-3-3-3-3-3-3-|------------------|------------------|
E  :------------------|1-1-1-1-1-1-1-1-1-|3-3-3-3-3-3-3-3-3-|

G  :------------------|------------------|------------------|
D  :------------------|------------------|------------------|
A  :3-3-3-3-3-3-3-3-3-|0-0-0-0-0-0-0-0-0-|------------------|
E  :------------------|------------------|1-1-1-1-1-1-1-1-1-|

G  :------------------|----------------|
D  :------------------|5-5-5-5-5-5-----|
A  :----------5-5-5-5-|------------5-2-|
E  :3-3-3-3-3---------|----------------|

G  :----------------|----------------|----------------|----------------|
D  :----------------|----------------|----------------|----------------|
A  :3-3-3-3-3-3-3-3-|----------------|----------------|3-3-3-3-3-3-3-3-|
E  :----------------|1-1-1-1-1-1-1-1-|3-3-3-3-3-3-3-3-|----------------|

G  :----------------|----------------|--------7-7-7-7-|
D  :3-3-3-3-3-3-3-3-|2-3-3-2-3-3-2-3-|5-5-5-5---------|
A  :----------------|----------------|----------------|
E  :----------------|----------------|----------------|

G  :7-12-12-12-14-12-------|
D  :-----------------14-12-|
A  :-----------------------|
E  :-----------------------|

G  :----------------------|----------------------|----------------------|
D  :----------------------|----------------------|----------------------|
A  :3-3-3-3-3-3-3-3-3-3-3-|----------------------|----------------------|
E  :----------------------|1-1-1-1-1-1-1-1-1-1-1-|3-3-3-3-3-3-3-3-3-3-3-|

G  :----------------------|----------------------|----------------------|
D  :----------------------|----------------------|----------------------|
A  :3-3-3-3-3-3-3-3-3-3-3-|0-0-0-0-0-0-0-0-0-0-0-|----------------------|
E  :----------------------|----------------------|1-1-1-1-1-1-1-1-1-1-1-|

G  :--------------------|----------------|
D  :--------------------|5-5-5-7-5-------|
A  :------------5-5-5-5-|----------7-5---|
E  :3-3-3-3-3-3---------|--------------7-|

G  :----------------|----------------|----------------|----------------|
D  :----------------|----------------|----------------|----------------|
A  :3-3-3-3-3-3-3-3-|----------------|----------------|3-3-3-3-3-3-3-3-|
E  :----------------|1-1-1-1-1-1-1-1-|3-3-3-3-3-3-3-3-|----------------|

G  :----------------|----------------|0-0-0-0-0-0-0-0-|0-0-0-2-0-------|
D  :3-3-3-3-3-3-3-3-|3-3-3-3-3-3-3-3-|----------------|----------3-2-0-|
A  :----------------|----------------|----------------|----------------|
E  :----------------|----------------|----------------|----------------|

G  :----------------|----------------|----------------|----------------|
D  :----------------|----------------|----------------|----------------|
A  :3-*-------------|----------------|----------------|----------------|
E  :----------------|----------------|----------------|----------------|

G  :----------------|----------------|----------------|----------------|
D  :----------------|----------------|----------------|----------------|
A  :----------------|----------------|----------------|----------------|
E  :----------------|----------------|3-3-3-3-3-3-3-3-|3---3-4---4-5---|

G  :----------------|----------------|----------------|----------------|
D  :0-0-0-0-0-0-0-0-|0-0-0-0-0-0-0-0-|----------------|----------------|
A  :----------------|----------------|----------------|------------0-2-|
E  :----------------|----------------|3-3-3-3-3-3-3-3-|3-3-3-3-3-3-----|

G  :----------------|----------------|----------------|----------------|
D  :0-0-0-0-0-0-0-0-|0-0-0-0-2-4-2-0-|----------------|----------------|
A  :----------------|----------------|0-0-0-0-0-0-0-0-|0-----------0---|
E  :----------------|----------------|----------------|--------3-------|

G  :------------------|------------------|------------------|
D  :0-0-0-0-0-0-0-0-0-|------------------|------------------|
A  :------------------|0-0-0-0-0-0-0-0-0-|------------0-2-0-|
E  :------------------|------------------|3-3-3-3-3-3-------|

G  :------------------|----------------|----------7-9-11-|
D  :0-0-0-0-0-0-0-0-0-|----------------|-----------------|
A  :------------------|----------------|0-0-0-0-0--------|
E  :------------------|3-3-3-3-3-3-3-3-|-----------------|

G  :12-12-12-12-12-12-12-12-|14-14-14-19-18-18-16-16-16-16---|
D  :------------------------|--------------------------------|
A  :------------------------|--------------------------------|
E  :------------------------|--------------------------------|

G  :0-0-0-0-0-0-0-0-0-0-0-0-0-0|0-0-0-0-0-0-0-0-0-0-0-0-|
D  :---------------------------|------------------------|
A  :---------------------------|------------------------|
E  :---------------------------|------------------------|

G  :2-2-2-2-2-2-2-2-2-2-2-|2-2-2-2-2-2-2-7-2-6-2-|
D  :----------------------|----------------------|
A  :----------------------|----------------------|
E  :----------------------|----------------------|

G  :------------------|------------------|--------------6-7-|
D  :0-0-0-0-0-0-0-0-0-|------------------|------------7-----|
A  :------------------|0-0-0-0-0-0-0-0-0-|------------------|
E  :------------------|------------------|3-3-3-3-3-3-------|

G  :------------------|----------------|----------------|----------------|
D  :------------------|----------------|------------0---|----------------|
A  :5-5-5-5-5-5-5-5-5-|----------------|0---------------|5-5-5-5-5-5-5-5-|
E  :------------------|3---------------|----------------|----------------|

G  :----------------|
D  :----------------|
A  :5-0-4-5-*-------|

comments
We did not receive enough feedback on this tab! Please rate:
print report bad tab
1 2 3 4 5
I want to post or [tab]
guest
You may want to rate the tab now too:
select rating
Please do not post tabs as comments. Select "correction" instead!