Oops, an error
Loading. Please wait.

Heroes Of Our Time Tab

ver1
ver1

Intro

Solo

Whole song

Interactive

More versions @911Tabs.com
24,803 views 12 this week
6 commentsread comments
1 2 3 4 5
excellent!
x 16
add to favorites launch autoscroll
font size
0
reset
Autoscroll
+/-
esc
set tempo
stop
Contributor
Difficulty
advanced
WARNING: You are trying to view
                                    content from Ultimate-Guitar.com
                                    in an unauthorized application,
                                    which is prohibited.

                                    Please use an official Ultimate
                                    Guitar Tabs application for iPhone,
                                    iPad or Android to access legitimate
                                    chords, guitar, bass, and drum tabs
                                    from Ultimate-Guitar.com database.

                                    Type "ultimate guitar tabs" in Apple
                                    App Store's or Android Market's
                                    search to find the application.
----------------------------------------------------------------------------
                        HEROES OF OUR TIME - Dragonforce
----------------------------------------------------------------------------
                         THIS IS THE WHOLE SONG!!!!!!

Tabbed by: 2guitargod4
Email: sam.rocks.123@hotmail.com

Tuning: Standard (EADGBe)

Ledgend
_______

 /    slide up         |--SWEEP--| Sweep Pick
 \    slide down       |--TP-----| Tremolo Pick
 s    Legato slide     PM________| Palm Mute
 h    hammer-on        |----3----| Triplets
 p    pull-off
 ~    vibrato
 <>   Pinch Harmonic
 x    Dead note
 b    bend
 br   bend release
 pb   pre bend
 pbr  pre bend release
 L    Tied Note
 g    Grace note
 T    Tapping
 X//  Pick slide up neck
 X\\  Pick slide down neck

 Notation Ledgend:
 W = whole note
 H = half note
 Q = quater note
 E = eighth note
 S = sixteenth note


       NOTES: PLEASE READ BELOW vvv

ok well first of all, i tried to make the tab match with the words down
the bottom as much as i could but sometimes there might be 2 notes next
to each other that are actually a few beats away so sorry about that.
The next thing is I dont really understand how to tab out the whammy
bar parts so i just wrote whammy bar on the top of the notes that need
it (apart from the intro and solo) **KEEP READING!** I hope people
dont get upset about this but i have used the highest rated tabs on
Ultimate-Guitar for the intro and solo as i couldn't figure them out
my self. And last of all this was a very hard song to tab out so please
keep that in mind when writing comments and corrections. Actually one
more thing.. ENJOY! plz rate
!!!!!!!!!!!!!!!!!!!!!!!!!!!!!!!!!!!!!!!!!!!!!!!!!!!!!!!!!!!!!!!!!!!!!!!!!!!

Guitar 1 (sorry i dont know guitar 2, i presume it is pretty similar though)

vvvvvvvvvvvvvvvvvvvvvvvvvvvvvvvvvvvvvvvvvvvvvvvvvvvvvvvvvvvvvvvvvvvvvvvvvvvv
IMPORTANT: I GIVE FULL CREDIT TO CONNOR-BOBBLES FOR THE INTRO TO THIS SONG.
           I BELIEVE THIS IS THE WAY TO PLAY THE INTO SO THERFORE I HAVE
           USED HIS TAB FOR THE INTRO.
^^^^^^^^^^^^^^^^^^^^^^^^^^^^^^^^^^^^^^^^^^^^^^^^^^^^^^^^^^^^^^^^^^^^^^^^^^^^

     E  E  E  E  E  E  E  E
E||--5--5--5--8--8--6--5-----|
B||-----------------------8--|
G||--------------------------|
D||--------------------------|
A||--------------------------|
E||--------------------------|


  E  S S E   E   E  E  E  E     E  E  E  E  E  E  E  E
-----------------------------|--5--5--5--6--6--5--------|
--8--8-8-8--10--10--8--6--3--|--------------------8--6--|
-----------------------------|--------------------------|
-----------------------------|--------------------------|
-----------------------------|--------------------------|
-----------------------------|--------------------------|


   S  S  S  S E  E      Q    Q       E  E  E  E  E  E  E  E
----------------------------------|--5--5--5--8--8--6--5-----|
--11-11-11-10-8--6--/<>10----8----|-----------------------8--|
----------------------------------|--------------------------|
----------------------------------|--------------------------|
----------------------------------|--------------------------|
----------------------------------|--------------------------|


                                                            /6
  E  S S E   E   E  E  E  E     E  S S E  E  E  E  E  E     W
-----------------------------|--8--8-8-8--5--6--8--6--5--|--15--------------|
--8--8-8-8--10--10--8--6--3--|---------------------------|------------------|
-----------------------------|---------------------------|------------------|
-----------------------------|---------------------------|------------------|
-----------------------------|---------------------------|------------------|
-----------------------------|---------------------------|------------------|


   S  S  S  S  S  S  S  S  S  S  S  S  S  S  S  S
--13----------------------------------------------|
-----15----------------15-18-15----15-18-15----15-|
--------14----------14----------14----------14----|
-----------15-12-15-------------------------------|
--------------------------------------------------|
--------------------------------------------------|


                           \1/
   S  S  S  S  S  S  S  S  H
--13----------------------22--------|
-----15----------------15-----------|
--------14----------14--------------|
-----------15-12-15-----------------|
------------------------------------|
------------------------------------|


                                                    /2
   S  S  S  S  S  S  S  S  S  S  S  S  S  S S S     W
--17-17-13-13-15-15-12-12-13-13-10-10-12-12-8-8-|--15----------------|
------------------------------------------------|--------------------|
------------------------------------------------|--------------------|
------------------------------------------------|--------------------|
------------------------------------------------|--------------------|
------------------------------------------------|--------------------|


   S  S  S  S  S  S  S  S  S  S  S  S  S  S  S  S
--13----------------------------------------------|
-----15----------------15-18-15----15-18-15----15-|
--------14----------14----------14----------14----|
-----------15-12-15-------------------------------|
--------------------------------------------------|
--------------------------------------------------|


                           \2
   S  S  S  S  S  S  S  S  H             E  E  E    E  E  E    Q
--13----------------------13--------|-------------------------------|
-----15----------------15-----------|--/15--------/13--------/10----|
--------14----------14--------------|-------------------------------|
-----------15-12-15-----------------|-------------------------------|
------------------------------------|-------------------------------|
------------------------------------|-------------------------------|


   E   E  E   E  E  E   Q
------------------------------|
--10--11-----10-----8~--L~----|
------------------------------|
------------------------------|
------------------------------|
------------------------------|


   S  S  S  S  S  S  S  S  S  S  S  S  S  S  S  S
--20-17-13-17-------------------------------------|
--------------20-17-13-17-------------------------|
--------------------------19-15-12-15-------------|
--------------------------------------19-15-12-15-|
--------------------------------------------------|
--------------------------------------------------|


   S  S  S  S  S  S  S  S  S  S  S  S  Q
--------------------------------------20pbr----|
-----------------------------------------------|
--------------------------19-15-12-15----------|
--------------19-15-12-15----------------------|
--19-15-12-15----------------------------------|
-----------------------------------------------|


                                                     -/2
   S  S  S  S  S  S  S  S  S  S  S  S  S  S  S S     W
--20-17-15-13-17-15-13-12-15-13-12-10-13-12-10-8-|--20----------------|
-------------------------------------------------|--------------------|
-------------------------------------------------|--------------------|
-------------------------------------------------|--------------------|
-------------------------------------------------|--------------------|
-------------------------------------------------|--------------------|


   S  S  S S S S S S S S  S  S  Q          Q       Q       Q      Q
--13-12-10-8-6-5-3-5-6-8-10-12-22~----|--/22\----/13\----/10\----/5\----|
--------------------------------------|---------------------------------|
--------------------------------------|---------------------------------|
--------------------------------------|---------------------------------|
--------------------------------------|---------------------------------|
--------------------------------------|---------------------------------|


  /2\
  W                   W
--5----------------|--L----------------|
-------------------|-------------------|
-------------------|-------------------|
-------------------|-------------------|
-------------------|-------------------|
-------------------|-------------------|


  |--3--|  |--3--|  |---3--|   |---3--|
  E  E  E  E  E  E  E   E  E   E  E   E
-----------------------------------------|
---------------------------8--10--8------|
--7--7--7--7--7--7--7--10------------10--|
-----------------------------------------|
-----------------------------------------|
-----------------------------------------|
  PM_____________________|           PM

  |--3--|   |---3--|  |---3---|   |---3--|
  E  E  E   E  E   E  E   E   E   E  E   E
--------------------------------------------|
----------------------8--10--11--10--8------|
--7--7--7--10--7--10--------------------10--|
--------------------------------------------|
--------------------------------------------|
--------------------------------------------|
  PM________________|                    PM

  |--3--|  |--3--|  |---3--|   |---3--|
  E  E  E  E  E  E  E   E  E   E  E   E
-----------------------------------------|
---------------------------8--10--8------|
--7--7--7--7--7--7--7--10------------10--|
-----------------------------------------|
-----------------------------------------|
-----------------------------------------|
  PM_____________________|            PM


  |--3--|   |---3--|  |---3---|   |---3--|
  E  E  E   E  E   E  E   E   E   E  E   E
--------------------------------------------|
----------------------8--10--11--10--8------|
--7--7--7--10--7--10--------------------10--|
--------------------------------------------|
--------------------------------------------|
--------------------------------------------|
  PM________________|                   PM


  |--3--|  |--3--|  |---3--|   |---3--|
  E  E  E  E  E  E  E   E  E   E  E   E
-----------------------------------------|
---------------------------8--10--8------|
--7--7--7--7--7--7--7--10------------10--|
-----------------------------------------|
-----------------------------------------|
-----------------------------------------|
  PM_____________________|            PM


  |--3--|   |---3--|  |---3---|   |---3--|
  E  E  E   E  E   E  E   E   E   E  E   E
--------------------------------------------|
----------------------8--10--11--10--8------|
--7--7--7--10--7--10--------------------10--|
--------------------------------------------|
--------------------------------------------|
--------------------------------------------|
   PM_______________|                   PM


  |--3--|  |--3--|  |---3--|   |---3--|
  E  E  E  E  E  E  E   E  E   E  E   E
-----------------------------------------|
---------------------------8--10--8------|
--7--7--7--7--7--7--7--10------------10--|
-----------------------------------------|
-----------------------------------------|
-----------------------------------------|
  PM_____________________|            PM

  |--3--|   |---3--|  |---3---|   |---3--|
  E  E  E   E  E   E  E   E   E   E  E   E
--------------------------------------------|
----------------------8--10--11--10--8------|
--7--7--7--10--7--10--------------------10--|
--------------------------------------------|
--------------------------------------------|
--------------------------------------------|
  PM________________|                   PM

    |--3--|  |--3--|    |--3--|  |--3--|
    E  E  E  E  E  E    E  E  E  E  E  E        W
--<>5-----------------<>3-----------------|--<>13~----------------|
-------6-----------6-------5-----------5--|-----------------------|
----------5-----5-------------5-----5-----|-----------------------|
-------------7-------------------5--------|-----------------------|
------------------------------------------|-----------------------|
------------------------------------------|-----------------------|

                             With Wah-------------------------------------
  E  E  E  E  E  E  E  E     E  E  E  E  E  E  E  E     E  E  E  E  E  E  E
--3-----------------------|--------------------------|------------------------|
-----5--3--1--3--5--3-----|--------------------------|------------------------|
-----------------------7--|-----5--7-----5--7-----5--|--7-----5--7-----5--7---|
--------------------------|--7--------7--------7-----|-----7--------7---------|
--------------------------|--------------------------|------------------------|
--------------------------|--------------------------|------------------------|
      PM________________|

   PM_____________________________|              PM______________________
---------------------------------------------------------------------------|
---------------------------------------------------------------------------|
-4--------------------------------------------4----------------------------|
-4--------------------------------------------4----------------------------|
-2-2-2-2-2-2-2-2-2-2-2-2-2-2-2-2-2-5-5-4h5-5--2-2-2-2-2-2-2-2-2-2-2-2-2-2--|
---------------------------------------------------------------------------|
 Lost        in        a        dream             Finally          it

 ___|                                                PM_____|
---------------------------------------------------------------------------|
---------------------------------------------------------------------------|
----------------------------------------------------4----------------------|
-----4-4-2s4-4---7-------------------------5--------4----------<>5\4-------|
-2-2-------------7-------------------------5--------2-2-2-2-2--------------|
-----------------5-------------------------3-------------------------------|
  seems          emptiness and everlasting madness

   PM____________________________|             PM_________________________
---------------------------------------------------------------------------|
---------------------------------------------------------------------------|
-4---------------------------------------------4---------------------------|
-4---------------------------------------------4---------------------------|
-2-2-2-2-2-2-2-2-2-2-2-2-2-2-2-2-2--5-5-4h5-5--2-2-2-2-2-2-2-2-2-2-2-2-2-2-|
---------------------------------------------------------------------------|
 See      the      sadness       grow           Watching    as

____|               |--SWEEP-----SWEEP-----SWEEP-----|PM________________-----|
--------------------------14h19p14-------14h19p14----------------------------|
------------------------15---------15--15---------15---1515151514141414------|
---------------------16--------------16-------------16-----------------1616--|
-----4-4-2s-4-4--------------------------------------------------------------|
-2-2-------------------------------------------------------------------------|
-----------------------------------------------------------------------------|
  know

--------------|
--------------|
-161614141414- out of room soz
--------------|
--------------|
--------------|

                              PM_    PM   PM  PM  PM_|
----------------------------------------2--------------2p0-----------------|
-----------------------------------3---------3-------3-----3---------------|
-11-11/12-<>9--/<>11-9p7------4-4-----4----4---4---4---------4p2-----------|
------------------------9-7------------------------------------------------|
---------------------------------------------------------------------------|
---------------------------------------------------------------------------|
                             call    for     us       The   power

 PM_    PM  PM  PM PM_|
----------2-------------2p0------------------------------------------------|
------3-------3-------3-----3----------------------------------------------|
-4-4----4---4---4---4---------4p2----------x-4--4-4-4---------x-4--4-4-4---|
-------------------------------------------x-4--4-4-4---------x-4--4-4-4---|
-------------------------------------------x-2--2-2-2---------x-2--2-2-2---|
---------------------------------------------------------------------------|
 in   all    of    us                   So far beyond the blackened sky

 PM PM   PM PM   PM_|                                    PM___________________________
-------0---2---0------------------------------------------------------------|
---3-----------------<>5s7s5-3p0--------------------------------------------|
-4---4---4---4---4-4-------------2----4-----------------7-------------------|
--------------------------------------4-----------------7-------------------|
--------------------------------------2-----------------5-5-5-5-5-5-5-5-5-5-|
----------------------------------------------------------------------------|
 tonight_________________________     Glorius   Forever more in us

 _________|
----------------------------------------------------------7h8h10------------|
------------------------7-7--7-7--7---7-8-7-----7--7h8h10--------7h8h10-----|
----------------------9----9----9---9-------9-9-----------------------------|
----------------------------------------------------------------------------|
-5-5-5-5-5------------------------------------------------------------------|
----------------------------------------------------------------------------|
           We are victorious                and   so  alive________________

-7h8h10-------7h8h10-<>15\\\--|
--------7h8h10----------------|
------------------------------|
------------------------------|
------------------------------|
------------------------------|

---------------------------------------------------------------------------|
---------------------------------------5-5--7------------------------------|
-4----------------------------7-------------------2------------------------|
-4----------------------------7-------------------2------------------------|
-2----------------------------5-------------------0------------------------|
---------------------------------------------------------------------------|
 We'll all find our sacrifice tomorrow        Our journey on towards a

             PM       Whammy
----------------------<>15---------------------------------------------------|
-----------------------------------------------------------------------------|
----------------------------4---------------------------------7--------------|
--------5------4-4h5--------4---------------------------------7--------------|
--------5----5--------------2---------------------------------5--------------|
--------3--------------------------------------------------------------------|
 brighter day               silent tears we left behind still so far away

                                                         PM___| PM____|
-------------------------------------------------------------------------|
-------------------------------------------------------------------------|
---4----------------2----------------------------------------------------|
---4----------------2-----------------5----------------5-------5-------5-|
---2----------------0-----------------5----------------5-------5-------5-|
--------------------------------------3----------------3-3-3-3-3-3-3-3-3-|
 across the endless sands through the fields of our despair

               PM__|                        PM___________________|
----------------------------9--10---9--10-----------------------------------|
----------------------------------------------------------------------------|
-2--------------------------------------------------------------------------|
-2-----------------------------------------7-----------------------5------5-|
-0-------------4-4-4h5-5-------------------7-----------------------5------5-|
-------------------------------------------55555555555555555555555-3------3-|
 Free for all eternity   we stand_ yeah__  Rise above the universe tonight__

                             Whammy  PM_|
---------------------------------------------------------------------------|
-----------/7-7---10--10-12----/12~-------7-7---------7--------------------|
----------------7--------------------7-9-----7-7/9-9----7h9-<>7------------|
----------------------------9\---------------------------------------------|
---------------------------------------------------------------------------|
---------------------------------------------------------------------------|
 starchaser_____

 T    T    T    T    T    T    T    T
------------------------------------------------------------15/17----------|
-7p3--7p3--7p3--7p3--10p3-10p3-10p3-10p3--19p15-x-19p15-x---------20p15-x--|
---------------------------------------------------------------------------|
---------------------------------------------------------------------------|
---------------------------------------------------------------------------|
---------------------------------------------------------------------------|

                                                Whammy---|
---------<>17/19-------------17-15--------------19--17--15-|
-20p15-x----------19p15-x-19-------19-14-<>15~-------------|
-----------------------------------------------------------|
-----------------------------------------------------------|
-----------------------------------------------------------|
-----------------------------------------------------------|
 T        T        T        T        T        T        T        T
 |---3--| |---3--| |---3--| |---3--| |---3--| |---3--| |---3--| |---3-------|
----------------------------------------------------------------------------|
-19p15p12-19p15p12-19p15p12-19p15p12-17p15p12-17p15p12-19p15p12-19p15p12----|
----------------------------------------------------------------------------|
----------------------------------------------------------------------------|
----------------------------------------------------------------------------|
----------------------------------------------------------------------------|

 PM______________________________________| Whammy TP-------------------------|
---------------10------------------------------------------------------------|
-12-10-7-10-12----12-10-12-10-7-10-7-------<>7~--/7777778888810101010101012~-|
-------------------------------------9-7-9-----------------------------------|
-----------------------------------------------------------------------------|
-----------------------------------------------------------------------------|
-----------------------------------------------------------------------------|
                                                ^^^^ herman uses a special
                                                     effect called a HOT
                                                     HAND here so it will
                                                     be hard to get the
                                                     right sound without it.
                                                     I just tremolo pick it.

   PM____________________________|              PM_____________________|
---------------------------------------------------------------------------|
---------------------------------------------------------------------------|
-4--------------------------------------------4----------------------------|
-4--------------------------------------------4----------------------------|
-2-2-2-2-2-2-2-2-2-2-2-2-2-2-2-2-2-5-5-4h5-5--2-2-2-2-2-2-2-2-2-2-2-2-2-2--|
---------------------------------------------------------------------------|
 Fly       towards      the     storm          See      the   world

 ___|                                                          PM___|
----------------------------------------------------------------------------|
----------------------------------------------------------------------------|
--------------------------------------------------------------4-------------|
-----4-4-2s4-4---7----------------------------------5---------4-------------|
-2-2-------------7----------------------------------5---------2-2-2-2-------|
-----------------5----------------------------------3-----------------------|
  reborn        Feel the pain inside  the voice of sorrow

------------|
------------|
------------| SOZ OUT OF ROOM
-<>2s4s2p0--|
------------|
------------|

---------------------------------------------------------------------------|
---------------------------------------------------------------------------|
-4---------------------------------------------4---------------------------|
-4---------------------------------------------4---------------------------|
-2-2-2-2-2-2-2-2-2-2-2-2-2-2-2-2-2--5-5-4h5-5--2-2-2-2-2-2-2-2-2-2-2-2-2-2-|
---------------------------------------------------------------------------|
 Cross     the    distant    shores            Find       the    open

                                               TP---------------------------
                                               PM__________________________|
--------------------14h19p14------14h19p14----------------------------------|
------------------15--------15--15--------15---1515151514141414-------------|
----------------16------------16-------------16----------------161616161414-|
-----4-4-2s4-4--------------------------------------------------------------|
-2-2------------------------------------------------------------------------|
----------------------------------------------------------------------------|
 door           Stand     alone    in        judgment      for      to -

 ---
 ___|                               PM_                 PM_
-----/14-12-12-14-12h1412---------------------------------------------------|
--------------------------15-12-<>15----------------------------------------|
-1414--------------------------------4-4------------------------------------|
-------------------------------------4-4-----------------5-5----------------|
-------------------------------------2-2-----------------5-5----------------|
---------------------------------------------------------3-3----------------|
 morrow                          Years of pain still haunts us all we

 PM__________________________|    PM_             PM_               PM_____
----------------------------------------------------------------------------|
----------------------------------------------------------------------------|
-2-2-2-2-2-2-2-4-4-4-4-4-4-4-4----4-4-----------------------------2---------|
-2-2-2-2-2-2-2-4-4-4-4-4-4-4-4----4-4-------------5-5-------------2---------|
-0-0-0-0-0-0-0-2-2-2-2-2-2-2-2----2-2-------------5-5-------------0-0-0-0-0-|
--------------------------------------------------3-3-----------------------|
 saw    the   last   sun    rise  Take me home in freedom for a lifetime

 ___________|  PM_|
---------------------------------------------------------------------------|
---------------------------------------------------------------------------|
-------------2-----2-4----------------2---------------7--------------------|
-------------2-----2-4----------------2---------------7----------------5---|
-0-0-0-0-0-0-0-0-0-0-2----------------0---------------5----------------5---|
-----------------------------------------------------------------------3---|
                     Pray now for the silence and the last tears we'll cry

   PM________________________|
----------------------------------------------------|
----------------------------------------------------|
-----------------------------------2------2-----2---|
-4---------------------------------2------2-----2---|
-4---------------------------------0------0-----0---|
-2-2-2-2-2-2-2-2-2-2-2-2-2-2-2----------------------|
 So glorious this fire inside   united we stand and

                                      PM__|   PM
---------------------------------------------------<>5\---------------------|
--------------------------------------------<>3-----------------------------|
-------4-----------------------7------6--6-------6-------2------------------|
-------4-----------------------7-------------------------2------------------|
-------2-----------------------5-------------------------0------------------|
----------------------------------------------------------------------------|
 We'll all find our sacrifice tomorrow               Our journey on towards

                PM           \4
---------------------------<>15--------------------------------------------|
---------------------------------------------------------------------------|
--------------------------------4---------------------------------7--------|
------------5-----4-4h5-5-------4---------------------------------7--------|
------------5---5---------------2---------------------------------5--------|
------------3--------------------------------------------------------------|
 a brighter day                 silent tears we left behind still so far

                                                                PM___| PM__ PM__|
----------------------------------------------------------------------------|
----------------------------------------------------------------------------|
----------4----------------2------------------------------------------------|
----------4----------------2-----------------5----------------5-------5-----|
----------2----------------0-----------------5----------------5-------5-----|
---------------------------------------------3----------------3-3-3-3-3-3-3-|
 away   across the endless sands through the fields of our despair

_|
----------------------------------9-10--9--10-------------------------X////-|
----------------------------------------------------------------------------|
-------2--------------------------------------------------------------------|
--5----2---------------------------------------7----------------------------|
--5----0------------4-4-4h5-5------------------7----------------------------|
3-3--------------------------------------------55555555555555555555555------|
      Free for all eternity we stand   yeah   rise above the universe tonite

                                          PM___|
-------------------------------------------------/7-7----------------------|
-------------/7-7---10--10-12-7/5-5-7s3---------------10-8-8-10------------|
------------------7-----------------------7-7-11----------------9p7--------|
--------------------------------------------------------------------<>9s7--|
---------------------------------------------------------------------------|
---------------------------------------------------------------------------|
 Starchaser_____

      |---------------OVER THE TOP---------------OVER THE TOP-------------
      T      T      T      T      T      T      T      T      T      T
      |--3-| |--3-| |--3-| |--3-| |--3-| |--3-| |--3-| |--3-| |--3-| |--3---|
----------------------------------------------------------------------------|
-/7~--10p7p3-10p7p3-10p7p3-10p7p3-10p7p3-10p7p3-10p7p3-10p7p3-12p8p3-12p8p3-|
----------------------------------------------------------------------------|
----------------------------------------------------------------------------|
----------------------------------------------------------------------------|
----------------------------------------------------------------------------|

NOT SURE ABOUT THIS PART vvvvvvvv
 -------------OVER THE TOP---------------|
 T      T      T      T      T      T
 |--3-| |--3-| |--3-| |--3-| |--3-| |--3--------------------------------------|
------------------------------------------------------------------------------|
-12p8p3-12p8p3-12p8p3-12p8p3-12p8p3-12p8p3-0-12-0-10-0-8-0-7-0-12\10-12-<>10--|
------------------------------------------------------------------------------|
------------------------------------------------------------------------------|
------------------------------------------------------------------------------|
------------------------------------------------------------------------------|

              TP---------------------- PM________________________________---|
---------/10--151515151414141412121212---------------10---------------------|
-/12-/14------------------------------12-10-7-10-12----12-10-12-10-7-10-7---|
----------------------------------------------------------------------------|
----------------------------------------------------------------------------|
----------------------------------------------------------------------------|
----------------------------------------------------------------------------|

 _____|
---------------------------------------------------------------------------|
-------<>10~---------------------------------------------------------------|
-9-7-9---------------------------------------------------------------------|
---------------------------------------------------------------------------|
---------------------------------------------------------------------------|
---------------------------------------------------------------------------|
               Free from this world here for the last time oceans collide

                      PM_|   PM_|       PM_|  PM_|       PM_|   PM_|
---------------------------------------------------------------------------|
---------------------------------------------------------------------------|
-------------------11-----11-----9h11-9-----9-----7h9-11-----11-----9h11---|
----------------------9-9----9-9--------7-7---7-7--------9-9----9-9--------|
---------------------------------------------------------------------------|
---------------------------------------------------------------------------|
 inside of us all    belive      who      we     are   The pheonix will

                                                       Whammy lift (watch video clip)
  PM_|    PM_|    PM___|       PM___|     PM___________|
--------------------------------------------------------/<>17--|
---------------------------------------------------------------|
------11------9----4-4-4------------------2--------------------|
--9-9-----9-9------4-4-4--------5-5-5-----2--------------------|
-------------------2-2-2--------5-5-5-----0-0-0-0-0-0-0--------|
--------------------------------3-3-3--------------------------|
  guide    us     Freedom will rise once again

vvvvvvvvvvvvvvvvvvvvvvvvvvvvvvvvvvvvvvvvvvvvvvvvvvvvvvvvvvvvvvvvvvvvvv
IMPORTANT: I GIVE FULL CREDIT TO ULTRABEATDOWN44 FOR THIS SOLO. I COULDN'T FIGURE IT OUT 
SO I USED THE SOLO HE TABBED OUT ON ULTIMATE GUITAR. I BELIEVE THIS IS THE RIGHT WAY TO 
IT.
^^^^^^^^^^^^^^^^^^^^^^^^^^^^^^^^^^^^^^^^^^^^^^^^^^^^^^^^^^^^^^^^^^^^^^

SOLO!!!!!!!!!!!!!!!!!!!!!!!!!!!!!!!!!!!!!!!!!!!!!!!!!!!!!!!!!!!!

    S   S  S   S  S  S  S  S  S  S  S  S  S   S  S   S
E||---------------------------10------------------------|
B||------------------------10----10---------------------|
G||--9h-11--------11----11----------11-----------11h-14-|
D||--------11h-12----12----------------12-11h-12--------|
A||-----------------------------------------------------|
E||-----------------------------------------------------|


                 T      T
                 |---3--|
   S   S  S   S  S   S  S   S  S  S   S  S   S  Q
----------------17p-14-17p-14------------------17\----|
--14h-15-14h-15---------------17-14h-15-14h-15--------|
------------------------------------------------------|
------------------------------------------------------|
------------------------------------------------------|
------------------------------------------------------|


                                       |--3--|
   S  S  S  S  S  S  S  S  S  S  S  S  S  S  S  S  S
--15-14-12-15-14-12----12----------------------------|
--------------------15----15-14-12-15-14-12----12----|
--------------------------------------------14----14-|
-----------------------------------------------------|
-----------------------------------------------------|
-----------------------------------------------------|


                                         PH
   S  S  S  S  S  S  S  S  S  S  S  S    Q
--------------------------------------<>14b----|
-----------------------------------------------|
--12-11-12-14-12-11----------11-12-14----------|
--------------------14-12-14-------------------|
-----------------------------------------------|
-----------------------------------------------|


   ^
             |---3---|
   E   S  S  E   E   E   S   S   S  S  S   S   S  S
---x------------------------------------------------|
---x--12-15-14--13--12------------------------------|
---x--------------------14h-16p-14-12-11h-12p-11----|
---x---------------------------------------------14-|
---x------------------------------------------------|
---x------------------------------------------------|


                                   \1/   \1/ \1/    \1/ \1/ \1/
   E   E   E   E     H             Q     E   E  E   E   E   E
-------------------------------|-------------------------------|
------15------14--<>15~--------|--12----14--15--L--12--14--15--|
-------------------------------|-------------------------------|
--12------12-------------------|-------------------------------|
-------------------------------|-------------------------------|
-------------------------------|-------------------------------|


   tr        tr        tr        tr             PH
   Q         Q         Q         Q              H         E   E   E   E
--14(12)----12(10)------------------------|--<>14~--------L----------12--|
----------------------15(17)----14(15)----|------------------12--15------|
------------------------------------------|------------------------------|
------------------------------------------|------------------------------|
------------------------------------------|------------------------------|
------------------------------------------|------------------------------|


     PH
     H         Q.      E      H         E   Q.
--<>12b--------L------10--|--17b--------L--17b------|
--------------------------|-------------------------|
--------------------------|-------------------------|
--------------------------|-------------------------|
--------------------------|-------------------------|
--------------------------|-------------------------|


    H          Q       Q
-------------/19\----/17----|
--\15-----------------------|
----------------------------|
----------------------------|
----------------------------|
----------------------------|


   T                  T                  T
   S   S   S   S   S  S   S   S   S   S  S   S   S   S   S   S
---------------------------------------------------------------|
--22p-19p-15h-19p-15-22p-19p-15p-12h-15-22p-19p-15p-12h-15h-19-|
---------------------------------------------------------------|
---------------------------------------------------------------|
---------------------------------------------------------------|
---------------------------------------------------------------|


                         T       T       T      T       T
                     |---6---|   |---6---|  |---6---|   |-----|
   S  S  S  S  Q     S   S   S   S   S   S  S   S   S   S     E
--------------22----21h-22p-21h-22p-21h-22-19h-21p-19h-21-21g17--|
-----------19----------------------------------------------------|
--------19-------------------------------------------------------|
-----19----------------------------------------------------------|
--17-------------------------------------------------------------|
-----------------------------------------------------------------|


   |--6--|  |--6--|  |--6--|  |--6--|  |--6--|  |--6--|  |--6--|  |--6--|
   S  S  S  S  S  S  S  S  S  S  S  S  S  S  S  S  S  S  S  S  S  S  S  S
--14-11----11----------------------------------11----11-14-17-14-20-17-20-|
--------13----13-10-13-10----10----10-13-10-13----13----------------------|
--------------------------11----11----------------------------------------|
--------------------------------------------------------------------------|
--------------------------------------------------------------------------|
--------------------------------------------------------------------------|


  E   E   E   E   E   E   E   E
----------------------------------|
----------------------------------|
--x/--x/--x/--x/--x/--x/--x/--x/--|
----------------------------------|
----------------------------------|
----------------------------------|


      PH  PM______________________________________|
      E   S  S  S  S  S  S  S  S  S  S  S  S  S  S
---------------------------------------------------|
---------------------------------------------------|
--/<>12--10----------------------------------------|
------------13-10-13-10----------------------10-13-|
------------------------13-10----------10-13-------|
------------------------------13-11-13-------------|


   PM_______________________________|   PH     PH
   S  S  S  S  S  S  S  S  S  S  S  S    E      E
---------------------------------------------------|
---------------------------------------------------|
--------------12----------12-10----10-<>12s--<>15--|
--10-13-12-13----13-12-13-------13-----------------|
---------------------------------------------------|
---------------------------------------------------|


  PM_____________________________________________|
   S  S  S  S  S  S  S  S  S  S  S  S  S  S  S  S
--------------------------------------------------|
--------------------------------------------------|
--17-17-15-12-15-15-12-10-12-10----10-12-15-12-10-|
--------------------------------13----------------|
--------------------------------------------------|
--------------------------------------------------|


   T     T     T     T      T      T      T      T      T      T      T
   |--6--|  |--6--|  |---6--|   |---6--|  |---6--|   |---6--|  |---6--|
   S  S  S  S  S  S  S   S  S   S  S   S  S   S  S   S  S   S  S   S  S   S
--11p-8-11p-8-11p-8-15p-11-15p-11-15p-11-18p-15-18p-15-18p-15-20p-15-20p-15-|
----------------------------------------------------------------------------|
----------------------------------------------------------------------------|
----------------------------------------------------------------------------|
----------------------------------------------------------------------------|
----------------------------------------------------------------------------|


   |---6--|  |--6--|  |---6--|  |--6--|  |---6--|  |--6--|   |---6--|  |--6-
   S   S  S  S  S  S  S   S  S  S  S  S  S   S  S  S  S  S   S   S  S  S  S
--15p-11----------11-13p-10----------10-15p-11----------11--20p-15----------|
---------13----13-----------11----11-----------13----13------------16----16-|
------------12-----------------12-----------------12------------------17----|
----------------------------------------------------------------------------|
----------------------------------------------------------------------------|
----------------------------------------------------------------------------|


 S   S  S  S  S  S  S  S  S  S  S  S  S  S  S  S  S
-15-18-15----15-------------------------------------|
----------18----18-16----16----------------------16-|
----------------------17----17-15----------15-17----|
----------------------------------17-15-17----------|
----------------------------------------------------|
----------------------------------------------------|


                     PH
    E.   E.   E      Q     E   E      S  S  E  H         E   E
--/16---15---15--\<>15----13--11--|--13-11-13--L--------15--18--|
----------------------------------|-----------------------------|
----------------------------------|-----------------------------|
----------------------------------|-----------------------------|
----------------------------------|-----------------------------|
----------------------------------|-----------------------------|


                                                       PH
   E   E  E   S  S  E.   E.   E      E   E  E   E      E   E   Q
--20--20--L--20-18-20---18-------|--18--18--L--20--\<>15------------|
-----------------------------20--|------------------------18--16----|
---------------------------------|----------------------------------|
---------------------------------|----------------------------------|
---------------------------------|----------------------------------|
---------------------------------|----------------------------------|


   PM___________________________________________|               \1/
   S  S  S  S  S  S  S  S  S  S  S  S  S  S  S  S      Q     E    E   H
--------------------------18-18-------18-20-18-20-|-------------------------|
--------------18----18-20-------20-18-------------|--/18----20--<>16--L-----|
--20-20-17-20----20-------------------------------|-------------------------|
--------------------------------------------------|-------------------------|
--------------------------------------------------|-------------------------|
--------------------------------------------------|-------------------------|


   |---6--|  |--6--|  |---6--|  |--6--|  |---6--|  |--6--|  |---6---|  |--6-
   S   S  S  S  S  S  S   S  S  S  S  S  S   S  S  S  S  S  S   S   S  S S
--16p-11----------11-15p-11----------11-13p-10----------10------------------|
---------13----13-----------13----13-----------11----11----15h-16p-15-13----|
------------12-----------------12-----------------12---------------------15-|
----------------------------------------------------------------------------|
----------------------------------------------------------------------------|
----------------------------------------------------------------------------|


 -|                                  PM____________________|
 S    S   S   S   S   S   S   S   S  S  S  S  S  S  S  S  S
----13s-18s-13s-18s-13s-18s-13s-18-------------------------|
-----------------------------------------------16-18-16-18-|
-13--------------------------------15-15-19-15-------------|
-----------------------------------------------------------|
-----------------------------------------------------------|
-----------------------------------------------------------|


                     PH
    E.   E.   E      Q     E   E
--/15---15---15--\<>15----13--11--|
----------------------------------|
----------------------------------|
----------------------------------|
----------------------------------|
----------------------------------|


   T      T      T      T      T      T      T      T        \1/
   T   T  T   T  T   T  T   T  T   T  T   T  T   T  T   T    H
----------------------------------------------------------------------|
--18p-15-18p-15-18p-15-18p-15-20p-15-20p-15-20p-15-20p-15-<>18--------|
----------------------------------------------------------------------|
----------------------------------------------------------------------|
----------------------------------------------------------------------|
----------------------------------------------------------------------|


   W   W      W   W   W   W   W      W   W   W   W   W   W   W   W
   E   E  E   E   E   E   E   E      E   E   E   E   E   E   E   E
---------------------------------|----------------------------------|
--10--13--L--10--13--10--13--10--|--18--17--18--17--18--17--18--17--|
---------------------------------|----------------------------------|
---------------------------------|----------------------------------|
---------------------------------|----------------------------------|
---------------------------------|----------------------------------|


               |--3--|
   S  S  S  S  S  S  S  S  S  S  S  S  S  S  S  S  S
--22-20----20----------------------------------------|
--------22----22-20-18-22-20-18-17-18-17----17-------|
-----------------------------------------19----19-17-|
-----------------------------------------------------|
-----------------------------------------------------|
-----------------------------------------------------|


   S  S  S  S  S  S  S  S  S  S  S  S  E   E
----------------------------------------------|
-----17---------------------------------------|
--19----17-19-17----------22------------------|
-----------------20-19-17----17-19-17---------|
--------------------------------------15--17--|
----------------------------------------------|


   S  S  S  S  S  S  S  S  S  S  S  S  S  S  S  S
--------------------------10----------------------|
--------------------11-13-------------------13-15-|
--------------10-12----------10----10-12-15-------|
-----------12-------------------12----------------|
--------13----------------------------------------|
--10-13-------------------------------------------|


             |--3--|
   E   S  S  S  S  S  E   S  S  S  S  Q
--15--------------20-22--22-20----20-22----|
---------------17--------------22----------|
------16----17-----------------------------|
---------17--------------------------------|
-------------------------------------------|
-------------------------------------------|


   |------3------|      |------3------|      |------3------|      |------3--
   E      E      E      E      E      E      E      E      E      E  E
--22--22g20--22g18--22g17--22g20--22g18--22g17--22g18--22g17--22g15--22g17--|
----------------------------------------------------------------------------|
----------------------------------------------------------------------------|
----------------------------------------------------------------------------|
----------------------------------------------------------------------------|
----------------------------------------------------------------------------|


                                                 W
           |------3------|      |------3------|
           E      E      E      E      E      E  H
-22g15-22g13--22g12--22g13--22g12--22g13--22g12--8--------|
----------------------------------------------------------|
----------------------------------------------------------|
----------------------------------------------------------|
----------------------------------------------------------|
----------------------------------------------------------|


   |--3--|  |--3--|  |--3--|  |--3--|
   S  S  S  S  S  S  S  S  S  S  S  S  S  S  S  S  S  S  T  T  T  T
--18-13----------------------13-17-18-17-13----------13-18-13-18-13-|
--------15----------------15----------------15----15----------------|
-----------14----------14----------------------14-------------------|
--------------15----15----------------------------------------------|
-----------------17-------------------------------------------------|
--------------------------------------------------------------------|


   |--3--|  |--3--|  |--3--|  |--3--|  |--3--|  |--3--|
   S  S  S  S  S  S  S  S  S  S  S  S  S  S  S  S  S  S  S   S   S  S
--15-12----------------------15-12----15-12---------------------------|
--------13----------------13-------13-------13------------------------|
-----------12----------12----------------------12-------14S-10S-12S-9-|
--------------14----14----------------------------14------------------|
-----------------15----------------------------------15---------------|
----------------------------------------------------------------------|


   S  S  S  S  S  S  S  S  S  S  S  S  S  S  S  S
--------------------------------------12-13-15-17-|
-----------------------------11-13-15-------------|
--------------------10-12-14----------------------|
-----------10-12-14-------------------------------|
--10-12-13----------------------------------------|
--------------------------------------------------|


                           W      W
   S  S  S  S  S  S  S  S  Q      Q
--18-17-18-20-18-17-15-----------------|
-----------------------18-15s----17----|
---------------------------------------|
---------------------------------------|
---------------------------------------|
---------------------------------------|


                     |--3--|
   S  S  S  S  S  S  S  S  S  S  S  S  S  S  S  S  S
--13-12----------------12-13-12-13-15-13-15-17-15-17-|
--------15-13-11-13-15-------------------------------|
-----------------------------------------------------|
-----------------------------------------------------|
-----------------------------------------------------|
-----------------------------------------------------|


                                            PH
                           |--3--|
   S  S  S  S  S  S  S  S  S  S  S  S  S    Q
--20-18-17-18-20-18-17-15-17-15-13-15-17-<>20----|
-------------------------------------------------|
-------------------------------------------------|
-------------------------------------------------|
-------------------------------------------------|
-------------------------------------------------|


                     |--3--|                    |--3--|
   S  S  S  S  S  S  S  S  S  S  S  S  S  S  S  S  S  S
--18-17-15-13-12-10-13-12-10-13-12-10-13-12-10----------|
-----------------------------------------------13-11-10-|
--------------------------------------------------------|
--------------------------------------------------------|
--------------------------------------------------------|
--------------------------------------------------------|


   |--3--|  |--3--|  |--3--|  |--3--|  |--3--|  |--3--|  |--3--|  |--3--|
   S  S  S  S  S  S  S  S  S  S  S  S  S  S  S  S  S  S  S  S  S  S  S  S
--------------------------------------------------------------------------|
--------------------------------------------------------22-18----------18-|
--15-12----------12-19-15----------15-22-19----------19-------17----17----|
--------12----12----------15----15----------19----19-------------17-------|
-----------12----------------15----------------19-------------------------|
--------------------------------------------------------------------------|


  PM  PMPM  PM PMPM  PM PM PM PMPM  PM PM PMPM  PM
  S   S S   S  S S   S  S  S  S S   S  S  S S   S
--------------------------------------------------|
--------------------------------------10----------|
--------------------------11-11-9--11----11-9--11-|
--9-----9--11-12-9--11-12-------------------------|
-----12-------------------------------------------|
--------------------------------------------------|


   |--6--|  |--6--|  |--6-| |--6--|
   S  S  S  S  S  S  S S  S S  S  S  S  S  S  S  S  S S S
--14-10----10-12-14-12-9----9-10-12-14-14-12-12-10-10-9-9-|
--------12---------------10-------------------------------|
----------------------------------------------------------|
----------------------------------------------------------|
----------------------------------------------------------|
----------------------------------------------------------|


                     PH
    E.   E.   E      E.   E.   E
--/17---14-------\<>14------------|
-------------17----------17---15--|
----------------------------------|
----------------------------------|
----------------------------------|
----------------------------------|


   |--6--|  |--6--|  |--6--|  |--6--|  |--6--|  |--6--|  |--6--|  |--6--|
   S  S  S  S  S  S  S  S  S  S  S  S  S  S  S  S  S  S  S  S  S  S  S  S
--------------------------------------------------------------------------|
--17-15-17-15-17-15-19-15-19-15-19-15-17-12-17-12-17-12-15-10-15-10-15-10-|
--------------------------------------------------------------------------|
--------------------------------------------------------------------------|
--------------------------------------------------------------------------|
--------------------------------------------------------------------------|


               |--3--|        |--3--|        |--3--|  |--3--|
   S  S  S  S  S  S  S  S  S  S  S  S  S  S  S  S  S  S  S  S
--17-14----17-17-14-------17-15-14-12----12-15-14----17-14----|
--------15----------17-15-------------15----------15-------15-|
--------------------------------------------------------------|
--------------------------------------------------------------|
--------------------------------------------------------------|
--------------------------------------------------------------|


   S  S  S  S  S  S  S  S  T T  T T  T  T  T  T  T  T  T  T  T  T  T  T
--17-14----17-17-14----17-12-9-12-9-14-10-14-10-15-12-15-12-17-14-17-14-|
--------15----------15--------------------------------------------------|
------------------------------------------------------------------------|
------------------------------------------------------------------------|
------------------------------------------------------------------------|
------------------------------------------------------------------------|


   S  S  S  S  S  S  S  S  S  S  S  S  S  S  S  S
--------------------------------------------------|
--------------------------12----12-14-15-12-14-15-|
--------11-12-14-11-12-14----12-------------------|
--12-14-------------------------------------------|
--------------------------------------------------|
--------------------------------------------------|


   S  S  S  S  S  S  S  S  S  S  S  S  Q        Q      Q    Q    Q
-----------12-14-14-------15-15-14----17\----|--L---------------------|
--15----15----------15-15----------15--------|------------------------|
-----14--------------------------------------|-------/11----9----7----|
---------------------------------------------|------------------------|
---------------------------------------------|------------------------|
---------------------------------------------|------------------------|


   Q     E   E   Q     E   E       Q.      Q.      Q
----------------------10--12--|--/14------12------10----|
--10----10--12--10------------|-------------------------|
------------------------------|-------------------------|
------------------------------|-------------------------|
------------------------------|-------------------------|
------------------------------|-------------------------|


   S  S  E  Q    H             Q.      Q.      Q
--------------------------|-------------------------|
--12-10-12--L----L--------|--/12------14------15----|
--------------------------|-------------------------|
--------------------------|-------------------------|
--------------------------|-------------------------|
--------------------------|-------------------------|


    E   E  E   E   Q     Q
--\10-------------14----10----|
-------10---------------------|
--------------11--------------|
------------------------------|
------------------------------|
------------------------------|


   T           T     T     T           T     T
   S  S  S  S  S  S  S  S  S  S  S  S  S  S  S  S
--12p-9p-5h-9-12p-9-14p-9-17p-9p-5h-9-17p-9-19p-9-|
--------------------------------------------------|
--------------------------------------------------|
--------------------------------------------------|
--------------------------------------------------|
--------------------------------------------------|


   T           T     T     T           T     T
   S  S  S  S  S  S  S  S  S  S  S  S  S  S  S  S
--21p-9p-5h-9-21p-9-22p-9-21p-9p-5h-9-22p-9-24p-9-|
--------------------------------------------------|
--------------------------------------------------|
--------------------------------------------------|
--------------------------------------------------|
--------------------------------------------------|


   S   S  S  S  S  S  S  S  S  S   S   S  S  S  S  S
--19p-15----15------------------------------------15-|
---------15----15------------------------------15----|
------------------16----16------------------16-------|
---------------------17----17------------17----------|
------------------------------17p-14h-17-------------|
-----------------------------------------------------|


   T      T      T      T      T      T      T      T      T      T
   T   T  T   T  T   T  T   T  T   T  T   T  T   T  T   T  T   T  T     T
--19p-15-19p-15-17p-15-17p-15-19p-15-19p-15-21p-15-21p-15-22p-15-22p-15-21p-|
----------------------------------------------------------------------------|
----------------------------------------------------------------------------|
----------------------------------------------------------------------------|
----------------------------------------------------------------------------|
----------------------------------------------------------------------------|


     T
     W                    W
-15-22----------------|---L----------------||
----------------------|--------------------||
----------------------|--------------------||
----------------------|--------------------||
----------------------|--------------------||
----------------------|--------------------||

WOOOOOOOOOOOOOOOOOOOOOOOOOOOOOAAAAAAAAAAAAAAAAAAAAAAAHHHHHHHHHHHHHHHHHHH
please rate ultrabeatdown44's tab of the solo as he did very well to tab it out. and 
this too f you dont mind XD

----------------------------------------------------------------------------|
----------------------------------------------------------------------------|
----------------------------------------------------------------------------|
----------------------------------------------------------------------------|
----------------------------------------------------------------------------|
----------------------------------------------------------------------------|
save us tonight the last hope for all of us Light years gone by_ were still

----------------------------------------------------------------------------|
----------------------------------------------------------------------------|
-------------4-------------2----------------------------------4-------------|
-------------4-------------2----5--------------5--------------4-------------|
-------------2-------------0----5--------------5--------------2-------------|
--------------------------------3--------------3----------------------------|
holding on_  save us tonight_ a star shines in all of us   so far beyond our

                                       PM_________________________________|
----------------------------------------------------------------------------|
---------------------------------------10-12-12-10-12-12-10-12-12-10-12-10--|
-2--------------------------------------------------------------------------|
-2--------------------------------------------------------------------------|
-0-----------------5--------------------------------------------------------|
-------------------3--------------------------------------------------------|
 lives__ still our glory lives on______

 PM_________________________________________________________|
----------------------------------------------------------------------------|
-12-10-12-10--10-12-12-10-12-12-10-12-12-10-12-10-12-10-12-10--10-12-12-10--|
----------------------------------------------------------------------------|
----------------------------------------------------------------------------|
----------------------------------------------------------------------------|
----------------------------------------------------------------------------|


                                     T   T   T   T   T   T   T   T   T
----------------------------------------------------------------------------|
-12-12-10-12-12-10-12-10-12-10-12-10-7p6-7p6-7p6-7p6-9p8-9p8-9p8-9p8-18p17--|
----------------------------------------------------------------------------|
----------------------------------------------------------------------------|
----------------------------------------------------------------------------|
----------------------------------------------------------------------------|

 T     T     T     T     T
--------------------------------------------1sssss24-|
-18p17-18p17-18p17-20p19-20p19-20p19-20p19-----------|
-----------------------------------------------------|
-----------------------------------------------------|
-----------------------------------------------------|
-----------------------------------------------------|

---------------------------------------------------------------------------|
---------------------------------------5-5--7------------------------------|
-4----------------------------7-------------------2------------------------|
-4----------------------------7-------------------2------------------------|
-2----------------------------5-------------------0------------------------|
---------------------------------------------------------------------------|
 We'll all find our sacrifice tomorrow        Our journey on towards a

             PM        /4
----------------------<>15---------------------------------------------------|
-----------------------------------------------------------------------------|
----------------------------4---------------------------------7--------------|
--------5------4-4h5--------4---------------------------------7--------------|
--------5----5--------------2---------------------------------5--------------|
--------3--------------------------------------------------------------------|
 brighter day               silent tears we left behind still so far away

                                                         PM___| PM____|
-------------------------------------------------------------------------|
-------------------------------------------------------------------------|
---4----------------2----------------------------------------------------|
---4----------------2-----------------5----------------5-------5-------5-|
---2----------------0-----------------5----------------5-------5-------5-|
--------------------------------------3----------------3-3-3-3-3-3-3-3-3-|
 across the endless sands through the fields of our despair

               PM__|                        PM___________________|
----------------------------9--10---9--10-----------------------------------|
----------------------------------------------------------------------------|
-2--------------------------------------------------------------------------|
-2-----------------------------------------7-----------------------5------5-|
-0-------------4-4-4h5-5-------------------7-----------------------5------5-|
-------------------------------------------55555555555555555555555-3------3-|
 Free for all eternity   we stand_ yeah__  Rise above the universe tonight__

                TP------------------------------------------------------
                PM_____________________________________________________|
-------------------------------------------------------------------------|
-------------------------------------------------------------------------|
----------------11-11-7-7-11-11-7-7-11-11-7-7-11-11-7-7-9-9-7-7-9-9-7-7--|
-------------------------------------------------------------------------|
-------------------------------------------------------------------------|
-------------------------------------------------------------------------|
 starchaser_____

 TP---------------------------------------------------------------------
 PM____________________________________________________________________|
-------------------------------------------------------------------------|
-------------------------------------------------------------------------|
-9-9-7-7-9-9-7-7-11-11-7-7-11-11-7-7-11-11-7-7-11-11-7-7-12-12-7-7-12-12-|
-------------------------------------------------------------------------|
-------------------------------------------------------------------------|
-------------------------------------------------------------------------|

 TP---------------------------------------------------------------------
 PM____________________________________________________________________|
-------------------------------------------------------------------------|
-------------------------------------------------------------------------|
-7-7-12-12-7-7-12-12-7-7-11-11-7-7-11-11-7-7-11-11-7-7-11-11-7-7-9-9-7-7-|
-------------------------------------------------------------------------|
-------------------------------------------------------------------------|
-------------------------------------------------------------------------|

 TP-------------------------------------------------------------
 PM_____________________________________________________________|
-------------------------------------------------------------------------|
-------------------------------------------------------------------------|
-9-9-7-7-9-9-7-7-9-9-7-7-11-11-7-7-11-11-7-7-11-11-7-7-11-11-7-7---------|
-------------------------------------------------------------------------|
-------------------------------------------------------------------------|
-------------------------------------------------------------------------|


-------------------------------------------------------------------------|
-7p5---7p5---7p5---7p5---------------------------------------------------|
----7p4---7p4---7p4---7p4------------------------------------------------|
-------------------------4~~~~-------------------------------------------|
-------------------------------------------------------------------------|
-------------------------------------------------------------------------|

 Other Guitar      STARTS HERE^
-X\\\\\\//////-------------------|
-X\\\\\\//////-------------------|
---------------------------------|
---------------------------------|
---------------------------------|
---------------------------------|

-------------------------------------------------------------------------|
-------------------------------------------------------------------------|
-7-------------------------------4---------------------7-----7------7--7-|
-7-------------7-----------------4----------------5----7---5-7----7-7--7-|
-5-------------7-----------------2----------------5----5---5-5----7-5--5-|
---------------5----------------------------------3--------3------5------|
    Our Kindom come  we stand as one  and we will live for always e-vermore

  THERE IT IS THE FULL SONG. THANKS!
  REMEMBER TO RATE 5 STARS OF COURSE HAHA
  DRAGONFORCE ROCK!
  THE END

  ====================================================================
  ++++++++++++++++++++++++++++++++++++++++++++++++++++++++++++++++++++
  ====================================================================
  ++++++++++++++++++++++++++++++++++++++++++++++++++++++++++++++++++++
  ====================================================================
  ++++++++++++++++++++++++++++++++++++++++++++++++++++++++++++++++++++
  ====================================================================
comments
print report bad tab
6 comments total. Showing first comments.
0 reply
2guitargod4 wrote on April 14 2009, 05:58 am

whoops. the part before the solo where it says " i give full credit to for this solo" is meant to say "i give full credit to Ultrabeatdown44 for this solo" soz.

+3 reply
ultrabeatdown44 wrote on April 23 2009, 07:19 pm

Awesome tab, i liked the guitar solo! lol No, seriously wicked tab. You must have worked really hard on it.

0 reply
2guitargod4 wrote on May 1 2009, 09:00 pm

^^Thanks mate, you did really well to tab out that solo!

I want to post or [tab]
guest
You may want to rate the tab now too:
select rating
Please do not post tabs as comments. Select "correction" instead!