Oops, an error
Loading. Please wait.

Land Where Dragons Rule Tab

5,892 views 15 this week
7 commentsread comments
1 2 3 4 5
worth learning
x 7
add to favorites launch autoscroll
font size
0
reset
Autoscroll
+/-
esc
set tempo
stop
Contributor
Tabbers playing skills
intermediate ++
WARNING: You are trying to view
                                    content from Ultimate-Guitar.com
                                    in an unauthorized application,
                                    which is prohibited.

                                    Please use an official Ultimate
                                    Guitar Tabs application for iPhone,
                                    iPad or Android to access legitimate
                                    chords, guitar, bass, and drum tabs
                                    from Ultimate-Guitar.com database.

                                    Type "ultimate guitar tabs" in Apple
                                    App Store's or Android Market's
                                    search to find the application.
WHERE DRAGONS RULE
                                   DRAGONFORCE

Transcribed by Mitchell Revelle (mitch_eragon@hotmail.com)

          F#5                  E5                   C#5                  D5
      2 4 4 x x x          0 2 2 x x x          x 4 6 6 x x          x 5 7 7 x x

      E5(type 2)
      x 7 9 9 x x

Gtr I (E A D G B E) - 'Piano Lead'
Gtr II (E A D G B E) - 'Rhythm Guitar I'
Gtr III (E A D G B E) - 'Rhythm Guitar II'
Gtr IV (E A D G B E) - 'Lead Guitar I'
Gtr V (E A D G B E) - 'Lead Guitar II'
Gtr VI (E A D G B E) - 'Lead Guitar III'

 Intro
  Q=138
  A                E               F#m            A
 6/8
  Gtr I
   Q.    E  E  E    H     +E   E    Q.    Q   E    Q.    Q.
|--0-------------|---------------|-------12-----|--0----------|
|-14----14-12-14-|-12----(12)-14-|-----------15-|-14----12----|
|-14-------------|-13----(13)----|-14-----------|-14----------|
|----------------|-14----(14)----|-16-----------|-------------|
|-12-------------|---------------|--------------|-12----------|
|----------------|-12----(12)----|-14-----------|-------------|


  F#m7             D/F#             Esus4/A    G#m
   Q.    E  E  E    Q.    E  E  E    H.         H     +E   E
|--0-------------|-------------14-|----------|---------------|
|-14----14----14-|-15----15-17----|-17-------|------------15-|
|-14-------16----|-14-------------|-16-------|-16----(16)----|
|-16-------------|-16-------------|-19-------|-18----(18)----|
|----------------|----------------|----------|---------------|
|-14-------------|-14-------------|-17-------|-16----(16)----|


  F#m7             G#m                 D/F#           A
   Q.    E  E  E    Q   +S   S  Q.      Q.    Q   E    Q.    Q.
|--0-------------|-------------12----|--------------|--0----------|
|-14----14-12-14-|-12--(12)-14-------|-15----17--15-|-14----------|
|-14-------------|-13--(13)----------|-14-----------|-14----13----|
|-16-------------|-------------------|-16-----------|-------------|
|----------------|-11--(11)----------|--------------|-12----------|
|-14-------------|-------------------|-14-----------|-------------|


  F#m              A             F#               F#
   Q.    E  E  E    H     E  E    Q.    E  E  E    H.
|--0-------------|--0----------|----------------|-14-----||
|-14----14-12-14-|-14----12----|-------------14-|--------||
|-14-------------|-14-------14-|----------14----|--------||
|-16-------------|-------------|-16----16-------|--------||
|----------------|-12----------|----------------|--9-----||
|-14-------------|-------------|-14-------------|--------||


   Verse
    A             G#m   A       E5/B           A          A
   3/4
     Q.    Q.      Q.    Q.      Q.    Q   E    H.         H    E E
||---0-----0----|-------------|-12----12--10-|--0-------|--0----7-9-|
||o-14----14----|-12----14----|-12-----------|-14-------|-14--------|
||--14----14----|-13----14----|--------------|-14-------|-14--------|
||--------------|-------------|--9-----------|--7-------|--7--------|
||o-12----12----|-11----12----|--------------|----------|-----------|
||---5-----5----|--4-----5----|--7-----------|--5-------|--5--------|


  D/F#         E/Ab          Asus2
   H    E  E    H     E  E    H.
|-10----9-10-|-12----------|---------||
|-10---------|-12----14-15-|--------o||
|------------|-------------|-16------||
|--7---------|--9----------|-19------||
|--9---------|-11----------|--------o||
|------------|-------------|-17------||


 Interlude
  Am                   C5/GEm       Am   Bm               A5/E
 6/8
   Q   E  +E   E  E     Q   E  +Q    E    Q.    E  E  E    E  E  E  +E   E  E
|--0----------------||-----------------|----------------|-------12-(12)-------|
|-13--13-(13)-12-13-||-13-----------13-|-15----17-15----|----13---------12-13-|
|-14----------------||-12--12-(12)--14-|-16----------16-|-14------------------|
|-14----------------||-----14-(14)-----|----------------|-14------------------|
|-12----------------||-10-----------12-|-14-------------|---------------------|
|-------------------||-----12-(12)-----|----------------|-12------------------|


                     E5/B Bm                E/Ab          E5/B
   Q   +S  +S   E  E  E    H     E  E    Q   E  +Q    E    E  E  E  E  E  E
|--0---(0)-(0)----------|-------------|-----------------|-------------------|
|-13--(13)-----13-15-17-|-15----------|-17--17-(17)--18-|-17-15-13-15-13-12-|
|-14--(14)-----------16-|-16----16-17-|-16--16-(16)-----|-16----------------|
|-14--------------------|-------------|-----------------|-------------------|
|-12--------------------|-14----------|-14--10-(10)-----|-14----------------|
|-----------------------|-------------|-----------------|-------------------|


  Am               G   Em            Em                  Em/A    D5/E
   Q.    E  E  E    Q   E  +Q    E    Q   E  +E   E  E    E  E E  E  E  E
|--0-------------|-----------------|-------------------|-------8-10----10--|
|-13----13-12-13-|-12--------------|-------------10-12-|----10------10-----|
|-14-------------|-12--12-(12)--12-|-12--12-(12)-------|-12-------9--------|
|-14-------------|-----14-(14)-----|-14--14-(14)-------|-14----------------|
|-12-------------|-10--------------|-------------------|-12----------------|
|----------------|-----12----------|-12--12-(12)-------|-------------------|


  Am    C            Bm  G             Bm/C                F        Dm/F
   Q.    E  +E   E    Q   E  +Q    E    Q   E  +E   E  E    E  E  E  E  E  E
|--8----12-(12)-12-|-10--------------|-10--10-(10)-------|--------------------|
|-10----13-(13)-13-|-12--12-(12)--12-|-12--12-(12)-12-13-|----12-13-15-13-15--|
|------------------|-----12-(12)-----|-------------------|-14-----------------|
|------------------|-----------------|-------------------|-15-------15--------|
|------------------|-----------------|-------------------|--------------------|
|--5-----8--(8)--8-|--7---3--(3)-----|--8---8--(8)-------|-13-----------------|


  Am               G   Em            Em
   Q.    E  E  E    Q   E  +Q    E    Q   E  +E   E  E
|--0-------------|-----------------|-------------------|
|-13----13-12-13-|-12--------------|-------------10-12-|
|-14-------------|-12--12-(12)--12-|-12--12-(12)-------|
|-14-------------|-----14-(14)-----|-14--14-(14)-------|
|-12-------------|-10--------------|-------------------|
|----------------|-----12-(12)-----|-12--12-(12)-------|


  Am7/E   D5/E      Am    C           F5/CBm       B
   E  E E E  E  E    Q.    E  E   E    Q   E  +Q    E
|-------8------10-|--8----12-12--12-|-13--------------|
|----10-----10----|-10----13-13--13-|-13--15-(15)-----|
|-12------9-------|-----------------|-----16-(16)--16-|
|-14--------------|-----------------|-----------------|
|-----------------|-----------------|-----------------|
|-12--------------|--5-----8-(8)--8-|--8---7--------7-|


 3/4
   Q.    Q.      Q.    E  E  E    Q.    Q.      Q.    Q.
|-------------|----------------|-------------|-------------||
|-------------|----------15-13-|-------------|-------------||
|-17----17----|-17----17----14-|-16----16----|-16----16----||
|-19----19----|-19----19-------|-15----15----|-15----15----||
|-------------|----------------|-------------|-------------||
|-------------|----------------|-------------|-------------||


 Guitar Duet I (Li + Sam)
  Q=204
  F#5
 4/4
  Gtrs II, III
       PM----|     PM-------------|       PM----|     PM----|    PM|
    E  S S S S  E  S S S S  S S S S    E  S S S S  E  S S S S  E S S
|-----------------------------------|--------------------------------|
|-----------------------------------|--------------------------------|
|--11----------11-------------------|-11----------11----------11-----|
|--11----------11-------------------|-11----------11----------11-----|
|---9--9-9-9-9--9--9-9-9-9--9-9-9-9-|--9--9-9-9-9--9--9-9-9-9--9-9-9-|
|-----------------------------------|--------------------------------|
|
| Gtr IV
|   Q.          Q.          Q          Q.          Q.          Q
|-----------------------------------|--------------------------------|
|-/14----------14----------12-------|-14----------12-----------------|
|-----------------------------------|-------------------------14-----|
|-----------------------------------|--------------------------------|
|-----------------------------------|--------------------------------|
|-----------------------------------|--------------------------------|
|
| Gtr V
|   Q.          Q.          Q          Q.          Q.          Q
|-----------------------------------|--------------------------------|
|-/10----------10-----------9-------|-10----------10-----------------|
|-----------------------------------|-------------------------11-----|
|-----------------------------------|--------------------------------|
|-----------------------------------|--------------------------------|
|-----------------------------------|--------------------------------|


  D5                E5
   W                 W
|-----------------|-------|
|-----------------|-------|
|--7--------------|--9----|
|--7--------------|--9----|
|--5--------------|--7----|
|-----------------|-------|
|
|                    ~~
|  Q.    Q.    Q     W
|-----------------|-------|
|-------12----14--|-12----|
|-14--------------|-------|
|-----------------|-------|
|-----------------|-------|
|-----------------|-------|
|
|                    ~~
|  Q.    Q.    Q     W
|-----------------|-------|
|--------9----10--|--9----|
|-11--------------|-------|
|-----------------|-------|
|-----------------|-------|
|-----------------|-------|


  F#5
       PM----|     PM-------------|       PM----|     PM----|
    E  S S S S  E  S S S S  S S S S    E  S S S S  E  S S S S  E S S
|-----------------------------------|--------------------------------|
|-----------------------------------|--------------------------------|
|--11----------11-------------------|-11----------11----------11-----|
|--11----------11-------------------|-11----------11----------11-----|
|---9--9-9-9-9--9--9-9-9-9--9-9-9-9-|--9--9-9-9-9--9--9-9-9-9--9-9s7-|
|-----------------------------------|--------------------------------|
|
|   Q.          Q.          Q          Q.          Q.          Q
|-----------------------------------|--------------------------------|
|-/14----------14----------12-------|-14----------12-----------------|
|-----------------------------------|-------------------------14-----|
|-----------------------------------|--------------------------------|
|-----------------------------------|--------------------------------|
|-----------------------------------|--------------------------------|
|
|   Q.          Q.          Q          Q.          Q.          Q
|-----------------------------------|--------------------------------|
|-/10----------10-----------9-------|-10----------10-----------------|
|-----------------------------------|-------------------------11-----|
|-----------------------------------|--------------------------------|
|-----------------------------------|--------------------------------|
|-----------------------------------|--------------------------------|


  D5                 E5
    W                 W
|------------------|-------|
|------------------|-------|
|---7--------------|--9----|
|---7--------------|--9----|
|---5--------------|--7----|
|------------------|-------|
|
|                     ~~
|   Q.    Q.    Q     W
|------------------|-------|
|-/17----15----14--|-12----|
|------------------|-------|
|------------------|-------|
|------------------|-------|
|------------------|-------|
|
|                     ~~
|   Q.    Q.    Q     W
|---9--------------|-------|
|--------12----10--|--9----|
|------------------|-------|
|------------------|-------|
|------------------|-------|
|------------------|-------|


  F#5
       PM----|      PM---------------|       PM----|     PM----|    PM|
    E  S S S S   E  S S   S  S S S S S    E  S S S S  E  S S S S  E S S
|--------------------------------------|--------------------------------|
|--------------------------------------|--------------------------------|
|--11-----------11---------------------|-11----------11----------11-----|
|--11-----------11---------------------|-11----------11----------11-----|
|---9--9-9-9-9---9--9-9---9--9-9-9-9-9-|--9--9-9-9-9--9--9-9-9-9--9-9-9-|
|--------------------------------------|--------------------------------|
|
|                ~~~~~~~~~~~~
|   Q.           Q       +Q.              Q.          Q.          Q
|-/16-----------17------(17)-----------|-16-----------------------------|
|--------------------------------------|-------------17----------17-----|
|--------------------------------------|--------------------------------|
|--------------------------------------|--------------------------------|
|--------------------------------------|--------------------------------|
|--------------------------------------|--------------------------------|
|
|                ~~~~~~~~~~~~
|   Q.           Q       +Q.              Q.          Q.          Q
|--12-----------14------(14)-----------|-12-----------------------------|
|--------------(10)-----(10)-----------|-------------14----------14-----|
|--------------------------------------|--------------------------------|
|--------------------------------------|--------------------------------|
|--------------------------------------|--------------------------------|
|--------------------------------------|--------------------------------|


  D5                E5
   W                 W
|-----------------|----------------|
|-----------------|----------------|
|--7--------------|--9-------------|
|--7--------------|--9-------------|
|--5--------------|--7-------------|
|-----------------|----------------|
|
|                    ~~
|  Q.    Q.    Q     H        H
|-16----17----16--|-17------(17)---|
|-----------------|---------[22]\--|
|-----------------|----------------|
|-----------------|----------------|
|-----------------|----------------|
|-----------------|----------------|
|
|                    ~~
|  Q.    Q.    Q     W
|-12----14----12--|-14-------------|
|-----------------|----------------|
|-----------------|----------------|
|-----------------|----------------|
|-----------------|----------------|
|-----------------|----------------|


  F#5
       PM----|       PM--------------------|       PM----|     PM----|
    E  S S S S  E    S S   S      S  S S S S    E  S S S S  E  S S S S  E S S
|--------------------------------------------|--------------------------------|
|--------------------------------------------|--------------------------------|
|--11----------11----------------------------|-11----------11----------11-----|
|--11----------11----------------------------|-11----------11----------11-----|
|---9--9-9-9-9--9----9-9---9------9--9-9-9-9-|--9--9-9-9-9--9--9-9-9-9--9-9s7-|
|--------------------------------------------|--------------------------------|
|
|   Q.          Q         +E         Q          Q.          Q.          Q
|-/19----------19b21-----(19)pb21r==19-------|-17----------19----------21-----|
|--------------------------------------------|--------------------------------|
|--------------------------------------------|--------------------------------|
|--------------------------------------------|--------------------------------|
|--------------------------------------------|--------------------------------|
|--------------------------------------------|--------------------------------|
|
|   Q.          Q.                   Q          Q.          Q.          Q
|--------------------------------------------|--------------------------------|
|--12----------14-------------------12-------|-------------12----------14-----|
|--------------------------------------------|-14-----------------------------|
|--------------------------------------------|--------------------------------|
|--------------------------------------------|--------------------------------|
|--------------------------------------------|--------------------------------|


  D5                E5
   W                 W
|-----------------|-----------------||
|-----------------|-----------------||
|--7--------------|--9--------------||
|--7--------------|--9--------------||
|--5--------------|--7--------------||
|-----------------|-----------------||
|
|  Q.    Q.    Q     Q.    Q.    Q
|-21----22----21--|-19----17--------||
|-----------------|-------------17--||
|-----------------|-----------------||
|-----------------|-----------------||
|-----------------|-----------------||
|-----------------|-----------------||
|
|  Q.    Q.    Q     Q.    Q.    Q
|-----------------|-----------------||
|-14----15----14--|-12--------------||
|-----------------|-------14--------||
|-----------------|-------------14--||
|-----------------|-----------------||
|-----------------|-----------------||


 Pre-Verse
  F#5                    C#5
    h     H      H.      Q
|--------------|------------|
|--------------|------------|
|--11----------|------------|
|--11----------|---------6--|
|---9----------|---------4--|
|--------------|------------|
|
|   ~~~~
|   h     H      W
|-[14]---------|------------|
|--------------|------------|
|--------------|------------|
|--------------|------------|
|--------------|------------|
|--------------|------------|
|
|   ~~~~
|   h     H      W
|--------------|------------|
|--------------|------------|
|--------------|------------|
|--16----------|------------|
|--------------|------------|
|--------------|------------|


  D5                  E5
  Gtrs II, III
    PM----|             PM----|
  E S S S S Q.   Q    E S S S S Q  E Q
|-------------------|--------------------||
|-------------------|--------------------||
|-7---------7----7--|-9---------9--x-9\--||
|-7---------7----7--|-9---------9--x-9\--||
|-5-5-5-5-5-5----5--|-7-7-7-7-7-7--x-7\--||
|-------------------|--------------------||


   Verse
    F#5
    Gtrs II, III
       PM----|    PM------------|      PM----|    PM----|    PM|
     E S S S S  E S S S S S S S S    E S S S S  E S S S S  E S S
||--------------------------------|------------------------------|
||o-------------------------------|------------------------------|
||--11---------11-----------------|-11---------11---------11-----|
||--11---------11-----------------|-11---------11---------11-----|
||o--9-9-9-9-9--9-9-9-9-9-9-9-9-9-|--9-9-9-9-9--9-9-9-9-9--9-9-9-|
||--------------------------------|------------------------------|


  D5         E5
  W          W     4x
|----------|-------||
|----------|------o||
|-7--------|-9-----||
|-7--------|-9-----||
|-5--------|-7----o||
|----------|-------||


 Pre-Chorus
  B5                           F#5
  Gtrs II, III
                                  PM------|     PM----|    PM|
  W             +W              E S S   S S  E  S S S S  E S S
|-------------|--------------|---------------------------------|
|-------------|--------------|---------------------------------|
|-------------|--------------|-11-----------11----------11-----|
|-9-----------|-(9)----------|-11-----------11----------11-----|
|-9-----------|-(9)----------|--9-9-9---9-9--9--9-9-9-9--9-9-9-|
|-7-----------|-(7)----------|---------------------------------|
|
| Gtr VI
| H      H       H      H       Q       Q       Q        Q
|------/17----|-19-----17----|--------/17------19-------17-----|
|-------------|--------------|---------------------------------|
|-------------|--------------|---------------------------------|
|-------------|--------------|---------------------------------|
|-------------|--------------|---------------------------------|
|-------------|--------------|---------------------------------|


     PM----|    PM----|    PM|
   E S S S S  E S S S S  E S S
|-------------------------------|
|-------------------------------|
|-11---------11---------11------|
|-11---------11---------11------|
|--9-9-9-9-9--9-9-9-9-9--9-9-9--|
|-------------------------------|
|
|  ~~
|  W
|-------------------------------|
|-19----------------------------|
|-------------------------------|
|-------------------------------|
|-------------------------------|
|-------------------------------|


  B5                           C#5
                                   PM----|   PM----|     PM|
  W             +W              E  S S S S E S S S S  E  S S
|-------------|--------------|-------------------------------|
|-------------|--------------|-------------------------------|
|-------------|--------------|--6----------6----------6------|
|-9-----------|-(9)----------|--6----------6----------6------|
|-9-----------|-(9)----------|--4--4-4-4-4-4-4-4-4-4--4--4-4-|
|-7-----------|-(7)----------|-------------------------------|
|
|                               ~~~
| H      H       H      H       H.                    E  E
|------/17----|-19-----17----|-21--------------------19p17---|
|-------------|--------------|-------------------------------|
|-------------|--------------|-------------------------------|
|-------------|--------------|-------------------------------|
|-------------|--------------|-------------------------------|
|-------------|--------------|-------------------------------|


       PM-------|    PM------|       PM|
   E   S S  S   S E  S   S S S   E   S S
|-----------------------------------------||
|-----------------------------------------||
|--6--------------6--------------6--------||
|--6--------------6--------------6--------||
|--4---4-4--4---4-4--4---4-4-4---4---4-4--||
|-----------------------------------------||
|
|  \1/      \1/      \1/
|  Q        Q        Q           Q
|----------17-------19---------[21]\------||
|-19--------------------------------------||
|-----------------------------------------||
|-----------------------------------------||
|-----------------------------------------||
|-----------------------------------------||


   Chorus
    $
    $$
    F#5              E5               C#5              D5      E5
    Gtrs II, III
    W                W                W                H       H
||-----------------|----------------|----------------|-----------------|
||o----------------|----------------|----------------|-----------------|
||-----------------|----------------|-6--------------|-7-------9-------|
||--4--------------|-2--------------|-6--------------|-7-------9-------|
||o-4--------------|-2--------------|-4--------------|-5-------7-------|
||--2--------------|-0--------------|----------------|-----------------|
|
|   Gtr VI
|      PM|   PM|        PM|   PM|        PM|   PM|     PM  PM  PM  PM
|   Q  E E E E E E   Q  E E E E E E   Q  E E E E E E   E E E E E E E E
||-----------------|----------------|----------------|-----------------|
||o----------------|----------------|----------------|-----------------|
||-----------------|----------------|----------------|-----------------|
||-----------------|----------------|--------6-----2-|---7---7---9---9-|
||o--------4-----4-|--------2-----2-|-4--4-4---4-4---|-5---5---7---7---|
||--2--2-2---2-2---|-0--0-0---0-0---|----------------|-----------------|


  1.
  F#5              E5               B5               C#5
  W                W                W                W
|----------------|----------------|----------------|-------------------||
|----------------|----------------|----------------|------------------o||
|----------------|----------------|-4--------------|-6-----------------||
|-4--------------|-2--------------|-4--------------|-6-----------------||
|-4--------------|-2--------------|-2--------------|-4----------------o||
|-2--------------|-0--------------|----------------|-------------------||
|
|    PM|   PM|        PM|   PM|        PM|   PM|     PM|   PM  PM  PM
| Q  E E E E E E   Q  E E E E E E   Q  E E E E E E   E E E E E E E E
|----------------|----------------|----------------|-------------------||
|----------------|----------------|----------------|------------------o||
|----------------|----------------|----------------|-------------------||
|----------------|----------------|--------4-----4-|-----6---6---6-----||
|--------4-----4-|--------2-----2-|-5--5-5---5-5---|-7-7---7---7---7--o||
|-2--2-2---2-2---|-0--0-0---0-0---|----------------|-------------------||


  2.
  F#5               B5
  W                 W
|-----------------|-----------------|
|-----------------|-----------------|
|-----------------|-4---------------|
|-4---------------|-4---------------|
|-4---------------|-2---------------|
|-2---------------|-----------------|
|
| PM|   PM|   PM------|   PM|   PM|
| E E E E E E E E   E E E E E E E E
|-----------------|-----------------|
|-----------------|-----------------|
|-----------------|-----------------|
|-----------------|-----4-----4-----|
|-----4-----4-----|-2-2---2-2---2-2-|
|-2-2---2-2---2-2-|-----------------|


  D5
    PM----|   PM----|   PM|     PM----|   PM----|   PM|
  E S S S S E S S S S E S S   E S S S S E S S S S E S S
|---------------------------|----------------------------|
|---------------------------|----------------------------|
|-7---------7---------7-----|-7---------7---------7------|
|-7---------7---------7-----|-7---------7---------7------|
|-5-5-5-5-5-5-5-5-5-5-5-5-5-|-5-5-5-5-5-5-5-5-5-5-5-5-5--|
|---------------------------|----------------------------|
|
|   PM--|     PM      PM|       PM      PM    PM    PM
| E E   E   E E   E   E E     E E   E   E E   E   E E
|---------------------------|---------------------7------|
|---------------------------|-------------7--------------|
|---------------------------|-------7--------------------|
|-7---------7-----7---------|-7--------------------------|
|---5---5-----5-------5-5---|---5-------5-----5-----5----|
|---------------------------|----------------------------|


                                                   To Coda
                                                   To Coda
  C#5
    PM----|   PM----|   PM|     PM------------------------|
  E S S S S E S S S S E S S   E S S S S S S S S S S S S S S
|---------------------------|-------------------------------||
|---------------------------|-------------------------------||
|-6---------6---------6-----|-6-----------------------------||
|-6---------6---------6-----|-6-----------------------------||
|-4-4-4-4-4-4-4-4-4-4-4-4-4-|-4-4-4-4-4-4-4-4-4-4-4-4-4-4-4-||
|---------------------------|-------------------------------||
|
| PM|       PM|       PM|       PM--|       PM--|       PM
| E E   E   E E   E   E E     E E   E   E   E   E   E   E
|---------------------------|-----------5-----------7-------||
|---------------------------|-5---------5-----------5-------||
|-----------------6---------|-6---------6-----------6-------||
|-------6-------------------|-------------------------------||
|-4-4-------4-4-------4-4---|---4---4-------4---4-------4---||
|---------------------------|-------------------------------||


 Guitar Duet II (Li + Sam)
  F#5
  Gtrs II, III
       PM----|     PM-------------|       PM----|     PM----|    PM|
    E  S S S S  E  S S S S  S S S S    E  S S S S  E  S S S S  E S S
|-----------------------------------|--------------------------------|
|-----------------------------------|--------------------------------|
|--11----------11-------------------|-11----------11----------11-----|
|--11----------11-------------------|-11----------11----------11-----|
|---9--9-9-9-9--9--9-9-9-9--9-9-9-9-|--9--9-9-9-9--9--9-9-9-9--9-9-9-|
|-----------------------------------|--------------------------------|
|
| Gtr IV
|   Q.          Q.          Q          Q.          Q.          Q
|-----------------------------------|--------------------------------|
|-/14----------15----------14-------|--------------------------------|
|-----------------------------------|-16----------14----------13-----|
|-----------------------------------|--------------------------------|
|-----------------------------------|--------------------------------|
|-----------------------------------|--------------------------------|
|
| Gtr V
|   Q.          Q.          Q          Q.          Q.          Q
|-----------------------------------|--------------------------------|
|--10----------12----------10-------|--9-----------------------------|
|-----------------------------------|-------------11-----------9-----|
|-----------------------------------|--------------------------------|
|-----------------------------------|--------------------------------|
|-----------------------------------|--------------------------------|


  D5                E5
   W                 W
|-----------------|-------|
|-----------------|-------|
|--7--------------|--9----|
|--7--------------|--9----|
|--5--------------|--7----|
|-----------------|-------|
|
|                    ~~
|  Q.    Q.    Q     W
|-----------------|-------|
|-----------------|-------|
|-14----16----14--|-16----|
|-----------------|-------|
|-----------------|-------|
|-----------------|-------|
|
|                    ~~
|  Q.    Q.    Q     W
|-----------------|-------|
|--------9--------|--9----|
|-11----------11--|-------|
|-----------------|-------|
|-----------------|-------|
|-----------------|-------|


  F#5
      PM----|     PM-------------|       PM----|     PM----|    PM|
   E  S S S S  E  S S S S  S S S S    E  S S S S  E  S S S S  E S S
|----------------------------------|--------------------------------|
|----------------------------------|--------------------------------|
|-11----------11-------------------|-11----------11----------11-----|
|-11----------11-------------------|-11----------11----------11-----|
|--9--9-9-9-9--9--9-9-9-9--9-9-9-9-|--9--9-9-9-9--9--9-9-9-9--9-9-9-|
|----------------------------------|--------------------------------|
|
|  Q.          Q.          Q          Q.          Q.          Q
|----------------------------------|-------------14----------16-----|
|-14----------14-------------------|-14-----------------------------|
|-------------------------16-------|--------------------------------|
|----------------------------------|--------------------------------|
|----------------------------------|--------------------------------|
|----------------------------------|--------------------------------|
|
|  Q.          Q.          Q          Q.          Q.          Q
|----------------------------------|-------------10----------12-----|
|-10----------10-----------9-------|-10-----------------------------|
|----------------------------------|--------------------------------|
|----------------------------------|--------------------------------|
|----------------------------------|--------------------------------|
|----------------------------------|--------------------------------|


  D5                  E5
   W                   W
|-------------------|------------------||
|-------------------|------------------||
|--7----------------|--9---------------||
|--7----------------|--9---------------||
|--5----------------|--7---------------||
|-------------------|------------------||
|
|  Q.    E   Q   Q     Q.    Q.    Q
|-17----17--17--17--|-16----12----16\--||
|-------------------|------------------||
|-------------------|------------------||
|-------------------|------------------||
|-------------------|------------------||
|-------------------|------------------||
|
|  Q.    Q.      Q     Q.    Q.    Q
|-14----14------14--|-12----------12\--||
|-------------------|-------14---------||
|-------------------|------------------||
|-------------------|------------------||
|-------------------|------------------||
|-------------------|------------------||


   Verse
    F#5
    Gtrs II, III
       PM----|    PM------------|      PM----|    PM----|    PM|
     E S S S S  E S S S S S S S S    E S S S S  E S S S S  E S S
||--------------------------------|------------------------------|
||o-------------------------------|------------------------------|
||--11---------11-----------------|-11---------11---------11-----|
||--11---------11-----------------|-11---------11---------11-----|
||o--9-9-9-9-9--9-9-9-9-9-9-9-9-9-|--9-9-9-9-9--9-9-9-9-9--9-9-9-|
||--------------------------------|------------------------------|


  D5         E5
  W          W
|----------|-------||
|----------|------o||
|-7--------|-9-----||
|-7--------|-9-----||
|-5--------|-7----o||
|----------|-------||


 Pre-Chorus
  B5
  Gtr II
  W                  +W
|------------------|------------------|
|------------------|------------------|
|------------------|------------------|
|-9----------------|-(9)--------------|
|-9----------------|-(9)--------------|
|-7----------------|-(7)--------------|
|
| Gtr III
|    PM|     PM  PM      PM  PM ~~~
| Q  E E   E E E E    E  E E E  H
|------------------|------------------|
|------------------|------------------|
|------------------|------------------|
|-9----------------|-------6---[7]----|
|-9--------9---7---|--9---------------|
|-7--7-7-----7---7-|-----7---7--------|
|
| Gtr VI
| H        H          H         H
|--------/17-------|-19--------17-----|
|--------/19-------|-21--------19-----|
|------------------|------------------|
|------------------|------------------|
|------------------|------------------|
|------------------|------------------|


  F#5
     PM------|     PM----|    PM|      PM----|    PM----|    PM|
   E S S   S S  E  S S S S  E S S    E S S S S  E S S S S  E S S
|---------------------------------|-------------------------------|
|---------------------------------|-------------------------------|
|-11-----------11----------11-----|-11---------11---------11------|
|-11-----------11----------11-----|-11---------11---------11------|
|--9-9-9---9-9--9--9-9-9-9--9-9-9-|--9-9-9-9-9--9-9-9-9-9--9-9-9--|
|---------------------------------|-------------------------------|
|
|    PM------|     PM----|    PM|      PM----|    PM----|    PM|
|  E S S   S S  E  S S S S  E S S    E S S S S  E S S S S  E S S
|---------------------------------|-------------------------------|
|---------------------------------|-------------------------------|
|-11-----------11----------11-----|-11---------11---------11------|
|-11-----------11----------11-----|-11---------11---------11------|
|--9-9-9---9-9--9--9-9-9-9--9-9-9-|--9-9-9-9-9--9-9-9-9-9--9-9-9--|
|---------------------------------|-------------------------------|
|
|                                    ~~
|  Q       Q       Q        Q        W
|--------/17------19-------17-----|-------------------------------|
|--------/19------21-------19-----|-19----------------------------|
|---------------------------------|-19----------------------------|
|---------------------------------|-------------------------------|
|---------------------------------|-------------------------------|
|---------------------------------|-------------------------------|


  B5                                        C#5
                                                PM----|   PM----|     PM|
  W                  +W                      E  S S S S E S S S S  E  S S
|------------------|----------------------|-------------------------------|
|------------------|----------------------|-------------------------------|
|------------------|----------------------|--6----------6----------6------|
|-9----------------|-(9)------------------|--6----------6----------6------|
|-9----------------|-(9)------------------|--4--4-4-4-4-4-4-4-4-4--4--4-4-|
|-7----------------|-(7)------------------|-------------------------------|
|
|    PM    PM  PM                 PM    PM--|       PM    PM       PM
| Q  E E   E E E E    S S E  E E  E E E E    E  E   E   E E   E    E  E
|------------------|----------------------|-------------------------------|
|------------------|----------------------|-------------------9-----------|
|------------------|----------------------|---------------------------9---|
|-9----------6-----|--7h9p7---------------|-------------9-----------------|
|-9----9---------9-|--------11p9----9p7---|-----9------------------7------|
|-7--7-----7---7---|-------------10-----7-|--7------7-----7---------------|
|
|                                            ~~~
| H        H          H           H          H.                    E  E
|--------/17-------|-19----------17-------|-21--------------------19-17---|
|--------/19-------|-21----------19-------|-22--------------------21------|
|------------------|----------------------|--------------------------19---|
|------------------|----------------------|-------------------------------|
|------------------|----------------------|-------------------------------|
|------------------|----------------------|-------------------------------|


                                 D.S. al Coda
         PM-------|       PM------|        PM|
   E     S S  S   S  E    S   S S  S   E   S S
|-----------------------------------------------||
|-----------------------------------------------||
|--6-----------------6-----------------6--------||
|--6-----------------6-----------------6--------||
|--4-----4-4--4---4--4----4---4-4--4---4---4-4--||
|-----------------------------------------------||
|
|             PM          PM
|  S   S E    E      S S  E     S  S   E   E
|-----------------------------------------------||
|--9h=10p9--------------------------------------||
|-------------------11p9------------------------||
|-------------9---------------------------------||
|-------------------------7---------------------||
|-------------------------------9h10p==9S==7----||
|
|  \1/        \1/         \1/
|  Q          Q           Q            Q
|------------------------19----------[21]\------||
|-19---------21---------------------------------||
|------------------------16-----------19\-------||
|-16---------19---------------------------------||
|-----------------------------------------------||
|-----------------------------------------------||


 Pre-Solo
  &
  B5
  Gtrs II, III
    W   
|--------|
|--------|
|---4----|
|---4----|
|---2----|
|--------|

|--------||
|--------||
|--(4)---||
|--(4)---||
|--(2)---||
|--------||

  F#5
    W
|---------------------------------------||
|---------------------------------------||
|---------------------------------------||
|---4-----------------------------------||
|---4-----------------------------------||
|---2-----------------------------------||


 Guitar Solo I (Herman Li)
  F#5
  Gtr VI
   S  S  S  S  S  S  S  S  S  S  S  S  S  S  S  S
|-21p17----------------------------17h21p17----17h|
|-------19----------------------19----------19----|
|----------18----------------18-------------------|
|-------------19----------19----------------------|
|----------------21----21-------------------------|
|-------------------21----------------------------|
|
| Gtrs II, III
|  h                       h
|-------------------------------------------------|
|-------------------------------------------------|
|-------------------------------------------------|
|--4-----------------------4----------------------|
|--4-----------------------4----------------------|
|--2-----------------------2----------------------|


                          E5    F#5
                     PM|         ~~
   S  S  S  S  S  S  S  S  E  E  Q
|-19p16-------------------14s17S19--|
|-------17--------------------------|
|----------16----------16-----------|
|-------------18----18--------------|
|----------------19-----------------|
|-----------------------------------|
|
|  h                       Q     Q
|-----------------------------------|
|-----------------------------------|
|-----------------------------------|
|--4-----------------------2-----4--|
|--4-----------------------2-----4--|
|--2-----------------------0-----2--|


  F#5
   S  S  S  S  S  S  S  S  S  S  S  S  S  S  S  S
|-21p17----------------------------17h21p17----17-|
|-------19----------------------19----------19----|
|----------18----------------18-------------------|
|-------------19----------19----------------------|
|----------------21----21-------------------------|
|-------------------21----------------------------|
|
|  h                       h
|-------------------------------------------------|
|-------------------------------------------------|
|-------------------------------------------------|
|--4-----------------------4----------------------|
|--4-----------------------4----------------------|
|--2-----------------------2----------------------|


                                   E5                     F#5
                                                           ~~
   T  T  S  S  S  S  S  T  T  T  S    T  T  T  T  T  T  T  Q
|-16h19p16------------------------------------------16h17S19--|
|----------17------------------------------------15-----------|
|-------------16---------------------------16h18--------------|
|----------------18-------------18---14h16--------------------|
|-------------------19----17h19-------------------------------|
|----------------------19-------------------------------------|
|
|                                  PM---------------------|
|  h                               Q                       Q
|-------------------------------------------------------------|
|-------------------------------------------------------------|
|-------------------------------------------------------------|
|--4----------------------------------------------------------|
|--4-------------------------------2-----------------------4--|
|--2-------------------------------0-----------------------2--|


  F#5
                                                                       |--3--|
   T  T  S  S  S  S  S  T  T  T  S    T  T  T  T  T  T  T  S  T  T  S  T  T  T
|-17h21p17------------------------------------------17h19-21-19p17----17h19p17-|
|----------19------------------------------------19----------------19----------|
|-------------18---------------------------18h19-------------------------------|
|----------------19-------------19p==18h19-------------------------------------|
|-------------------21----19h21------------------------------------------------|
|----------------------21------------------------------------------------------|
|
|  h                               h
|------------------------------------------------------------------------------|
|------------------------------------------------------------------------------|
|------------------------------------------------------------------------------|
|--4-------------------------------4-------------------------------------------|
|--4-------------------------------4-------------------------------------------|
|--2-------------------------------2-------------------------------------------|


                                   E5                     B5
                                                           ~~
   T  T  S  S  S  S  S  T  T  T  S    T  T  T  T  T  T  T  Q
|-16h19p16------------------------------------------16h17S19---|
|----------17------------------------------------15------------|
|-------------16---------------------------16h18---------------|
|----------------18-------------18p==14h16---------------------|
|-------------------19----17h19--------------------------------|
|----------------------19--------------------------------------|
|
|                                  PM
|  h                               Q                       Q
|--------------------------------------------------------------|
|--------------------------------------------------------------|
|----------------------------------------------------------4---|
|--4-------------------------------------------------------4---|
|--4-------------------------------2-----------------------2---|
|--2-------------------------------0---------------------------|


  B5
   S  S  S  S  S  S  S  S  S  S  S  S  S  S  S  S
|-21p17----------------------------17h21p17----17h|
|-------19----------------------19----------19----|
|----------18----------------18-------------------|
|-------------19----------19----------------------|
|----------------21----21-------------------------|
|-------------------21----------------------------|
|
|  W
|-------------------------------------------------|
|-------------------------------------------------|
|--4----------------------------------------------|
|--4----------------------------------------------|
|--2----------------------------------------------|
|-------------------------------------------------|
|
| Gtr IV
|  W
|-------------------------------------------------|
|-------------------------------------------------|
|-------------------------------------------------|
|-------------------------------------------------|
|-------------------------------------------------|
|-------------------------------------------------|


   S   S  S  S  S  S  S  S   E       E    Q
|-21p=17-------------------<14>s====19---21\----||
|--------19----------17h19----------------------||
|-----------18----19----------------------------||
|--------------19-------------------------------||
|-----------------------------------------------||
|-----------------------------------------------||
|
|                            |----3----|
| +H                         E    E    E  Q
|-----------------------------------------------||
|-----------------------------------------------||
|-(4)------------------------4----4----4--4\----||
|-(4)------------------------4----4----4--4\----||
|-(2)------------------------2----2----2--2\----||
|-----------------------------------------------||
|
|                            |-3--|
|  H                         S  S S  E    E   E
|--------------------------------------------12-||
|---------------------------------x-12h==14-----||
|-------------------------------x---------------||
|----------------------------x------------------||
|-----------------------------------------------||
|-----------------------------------------------||


 Guitar Solo II (Sam)
  F#5
  Gtr IV
   ~~~~~~~~~~~~~~~~~~~~                             ~
   Q.            Q.             E    E      E  T  T E    S  Q     E    E  E
|-12b14---------12pb14---------12---10---|--9-12p10p9-------------------------|
|----------------------------------------|--------------10-10---------10h12---|
|----------------------------------------|------------------------9-----------|
|----------------------------------------|------------------------------------|
|----------------------------------------|------------------------------------|
|----------------------------------------|------------------------------------|
|
| Gtrs II, III
|       PM----|        PM--------------|       PM-------|     PM----|     PM|
|  E    S S S S  E     S S S S  S S  S S    E  S    S S  S  E S S S S  E  S S
|----------------------------------------|------------------------------------|
|----------------------------------------|------------------------------------|
|-11------------11-----------------------|-11--------------11---------11------|
|-11------------11-----------------------|-11--------------11---------11------|
|--9----9-9-9-9--9-----9-9-9-9--9-9--9-9-|--9--9----9-9--9--9-9-9-9-9--9--9-9-|
|----------------------------------------|------------------------------------|


  D5                        E5
   E  +E   E  Q   E  E  E    Q   E  Q.    E  E
|-------------------------|----------------------|
|-14-(14)s15p14-----------|-12--14p12-------12---|
|----------------11h14p11-|--------------14------|
|-------------------------|----------------------|
|-------------------------|----------------------|
|-------------------------|----------------------|
|
|  W                         W
|-------------------------|----------------------|
|-------------------------|----------------------|
|--7----------------------|--9-------------------|
|--7----------------------|--9-------------------|
|--5----------------------|--7-------------------|
|-------------------------|----------------------|


  F#5
      PM------|      PM------|        PM-----|
                                      |---3---|
   E  S  S  S  S  E  S  S  S  S  E    S  S    S
|-----------------------------------------------|
|-14-------------15-------------14--------------|
|-14-14-14-14-14-14-14-14-14-14-14---14-14---14-|
|-----------------------------------------------|
|-----------------------------------------------|
|-----------------------------------------------|
|
|     PM------|      PM--------------------|
|  E  S  S  S  S  E  S  S  S  S  S S  S    S
|-----------------------------------------------|
|-----------------------------------------------|
|-11-------------11-----------------------------|
|-11-------------11-----------------------------|
|--9--9--9--9--9--9--9--9--9--9--9-9--9----9----|
|-----------------------------------------------|


      PM------|     PM|
   E  S  S  S  S  E S S   E    E  E
|-----------------------------14-17----|
|-17-------------15-----/17------------|
|-14-14-14-14-14-14-x-x----------------|
|--------------------------------------|
|--------------------------------------|
|--------------------------------------|
|
|     PM------|     PM------|     PM|
|  E  S  S  S  S  E S S   S S  E  S S
|--------------------------------------|
|--------------------------------------|
|-11-------------11-----------11-------|
|-11-------------11-----------11-------|
|--9--9--9--9--9--9-9-9---9-9--9--9-9--|
|--------------------------------------|


  D5                          E5
                  PM                                ~~~
                                     |--3--|
   Q.      Q      E  Q         S  S  S  S  S  S  S  Q.    +Q
|-17b19---17b19--17-17pb19r=|=17--x-17p16p14-17p16----------------||
|---------------------------|----------------------17----(17)\----||
|---------------------------|-------------------------------------||
|---------------------------|-------------------------------------||
|---------------------------|-------------------------------------||
|---------------------------|-------------------------------------||
|
| Gtr V
|  W                           H.                          E    E
|---------------------------|-----------------------------14h==17-||
|---------------------------|-------------------------------------||
|---------------------------|-------------------------------------||
|---------------------------|-------------------------------------||
|---------------------------|-------------------------------------||
|---------------------------|-------------------------------------||
|
| Gtrs II, III
|  W                           W
|---------------------------|-------------------------------------||
|---------------------------|-------------------------------------||
|--7------------------------|--9----------------------------------||
|--7------------------------|--9----------------------------------||
|--5------------------------|--7----------------------------------||
|---------------------------|-------------------------------------||


 Guitar Solo III (Herman Li)
  F#5
  Gtr V
   T           T          T           T        T           T          T           T
               |---3---|              |--3--|              |---3---|              |---3---|
   T  T  T  T  S  S    S  T  T  T  T  S  S  S  T  T  T  T  S  S    S  T  T  T  T  S  S    S
|-21p17p14h17-21p17p==14-21p17p14h17-21p17p14-22p17p14h17-22p17p==14-21p17p14h17-21p17p==14-|
|-------------------------------------------------------------------------------------------|
|-------------------------------------------------------------------------------------------|
|-------------------------------------------------------------------------------------------|
|-------------------------------------------------------------------------------------------|
|-------------------------------------------------------------------------------------------|
|
| Gtrs II, III
|              PM--------------|               PM--------------------------------------|
|  E           S    S     S     S     E        S     S     S    S     S     S     S    S
|-------------------------------------------------------------------------------------------|
|-------------------------------------------------------------------------------------------|
|-11---------------------------------11-----------------------------------------------------|
|-11---------------------------------11-----------------------------------------------------|
|--9-----------9----9-----9-----9-----9--------9-----9-----9----9-----9-----9-----9----9----|
|-------------------------------------------------------------------------------------------|


   T           T          T           T        T           T          T           T
               |---3---|              |--3--|              |---3---|              |---3---|
   T  T  T  T  S  S    S  T  T  T  T  S  S  S  T  T  T  T  S  S    S  T  T  T  T  S  S    S
|-21p17p14h17-21p17p==14-19p17p14h17-19p17p14-21p17p14h17-21p17p==14-22p17p14h17-21p17p==14-|
|-------------------------------------------------------------------------------------------|
|-------------------------------------------------------------------------------------------|
|-------------------------------------------------------------------------------------------|
|-------------------------------------------------------------------------------------------|
|-------------------------------------------------------------------------------------------|
|
|              PM--------------|               PM---------------|                 PM---|
|  E           S    S     S     S     E        S     S     S    S     E           S    S
|-------------------------------------------------------------------------------------------|
|-------------------------------------------------------------------------------------------|
|-11---------------------------------11------------------------------11---------------------|
|-11---------------------------------11------------------------------11---------------------|
|--9-----------9----9-----9-----9-----9--------9-----9-----9----9-----9-----------9----9----|
|-------------------------------------------------------------------------------------------|


  D5
   T           T        T           T        T           T        T           T
               |--3--|              |--3--|              |--3--|              |--3--|
   T  T  T  T  S  S  S  T  T  T  T  S  S  S  T  T  T  T  S  S  S  T  T  T  T  S  S  S
|-------------------------------------------------------------------------------------|
|-22p17p14h17-22p17p14-21p17p14h17-21p17p14-22p17p14h17-21p17p14-19p17p14h17-21p17p14-|
|-------------------------------------------------------------------------------------|
|-------------------------------------------------------------------------------------|
|-------------------------------------------------------------------------------------|
|-------------------------------------------------------------------------------------|
|
|  W
|-------------------------------------------------------------------------------------|
|-------------------------------------------------------------------------------------|
|--7----------------------------------------------------------------------------------|
|--7----------------------------------------------------------------------------------|
|--5----------------------------------------------------------------------------------|
|-------------------------------------------------------------------------------------|


  E5
                                            ~~
   +S   S  S  S  T  T  S  T  T  T  T  T  T  Q  S  E
|---------14s17s14-------14h17p16p14-17p16-----------||
|-(14)h17----------15h17-------------------14--x-14\-||
|----------------------------------------------------||
|----------------------------------------------------||
|----------------------------------------------------||
|----------------------------------------------------||
|
|   W
|----------------------------------------------------||
|----------------------------------------------------||
|---9------------------------------------------------||
|---9------------------------------------------------||
|---7------------------------------------------------||
|----------------------------------------------------||


 Guitar Solo IV (Sam)
  F#5
  Gtr IV
                  ~~
   E.     S  E    Q      E   E    E        E.   S E    Q      +E       E E
|-10b12---x-10p===9----------9h==10\---|-/10----x-9----------------------9---|
|-----------------------12-------------|--------------10-----(10)\---/12-----|
|--------------------------------------|-------------------------------------|
|--------------------------------------|-------------------------------------|
|--------------------------------------|-------------------------------------|
|--------------------------------------|-------------------------------------|
|
|       PM-----|    PM---------------|        PM----|    PM--------|     PM|
|  E    S S  S S  E S S  S S S S  S  S     E  S S S S  E S S   S   S   E S S
|--------------------------------------|-------------------------------------|
|--------------------------------------|-------------------------------------|
|-11-------------11--------------------|--11----------11--------------11-----|
|-11-------------11--------------------|--11----------11--------------11-----|
|--9----9-9--9-9--9-9-9--9-9-9-9--9--9-|---9--9-9-9-9--9-9-9---9---9---9-9-9-|
|--------------------------------------|-------------------------------------|


  D5
   |--3--|            |--3--|            |--3--|
   S  S  S  S  S S S  S  S  S S S  S  S  S  S  S  S  S
|-12-12-12p10-10p9-9h10-10-10p9-9----------------------|
|---------------------------------12-12p10-10-10h12-12-|
|------------------------------------------------------|
|------------------------------------------------------|
|------------------------------------------------------|
|------------------------------------------------------|
|
|  W
|------------------------------------------------------|
|------------------------------------------------------|
|--7---------------------------------------------------|
|--7---------------------------------------------------|
|--5---------------------------------------------------|
|------------------------------------------------------|


  E5
   PM-----------------------------------------|
   S  S  S  S  S  S  S  S  S  S  S  S  S  S S S
|-----------------------------------------------||
|-14-14-12-12-10-10-12-12-10-10-----------------||
|-------------------------------13-13-11-11-9-9-||
|-----------------------------------------------||
|-----------------------------------------------||
|-----------------------------------------------||
|
|  W
|-----------------------------------------------||
|-----------------------------------------------||
|--9--------------------------------------------||
|--9--------------------------------------------||
|--7--------------------------------------------||
|-----------------------------------------------||


 Guitar Solo V (Herman Li)
  B5
  Gtr V
    S   S  S  S  S  S  S  S  S  S  S S  S  S S S
|-/19p=17-16s14s17p16s14S12h14S12p10S9h12p10-9S7-|
|------------------------------------------------|
|------------------------------------------------|
|------------------------------------------------|
|------------------------------------------------|
|------------------------------------------------|
|
| Gtr IV
|   Q            H.
|------------------------------------------------|
|------------------------------------------------|
|--11\-------------------------------------------|
|------------------------------------------------|
|------------------------------------------------|
|------------------------------------------------|
|
| Gtrs II, III
|   W
|------------------------------------------------|
|------------------------------------------------|
|------------------------------------------------|
|---9--------------------------------------------|
|---9--------------------------------------------|
|---7--------------------------------------------|


                          ~~ PM~~
   S  S  S  S  S  S  S S  Q  S E.
|-10p=9-------10------------------|
|-------12p10----12p10-9h10--9-9\-|
|---------------------------------|
|---------------------------------|
|---------------------------------|
|---------------------------------|
|
|     W
|---------------------------------|
|---------------------------------|
|---------------------------------|
|---------------------------------|
|---------------------------------|
|---------------------------------|
|
| +W
|---------------------------------|
|---------------------------------|
|---------------------------------|
|-(9)-----------------------------|
|-(9)-----------------------------|
|-(7)-----------------------------|


  F#5
  Gtr V
                                             ~~~~~~~
    E  E  E  E  E  E  E  E     E   E  E  E   H
|--------------------------|-----------------------|
|--------------------15-17-|--19--17-19-21-[17]----|
|-----------16-18-19-------|-----------------------|
|-/16-18-19----------------|-----------------------|
|--------------------------|-----------------------|
|--------------------------|-----------------------|
|
| Gtrs II, III
|   W                         +W
|--------------------------|-----------------------|
|--------------------------|-----------------------|
|--11----------------------|-(11)------------------|
|--11----------------------|-(11)------------------|
|---9----------------------|--(9)------------------|
|--------------------------|-----------------------|


  E5
 ~~~~~~~~~~~~~~~~~~~~~~~~~~~~~~~~~~~~~~~~~~~~~
    Q    Q    Q    Q         Q     Q    Q   Q
|-/21--/17--/14--/12(24)-|-/14---/12--/10--/9--|
|------------------------|---------------------|
|------------------------|---------------------|
|------------------------|---------------------|
|------------------------|---------------------|
|------------------------|---------------------|
|
|   W                       +W
|------------------------|---------------------|
|------------------------|---------------------|
|---9--------------------|--(9)----------------|
|---9--------------------|--(9)----------------|
|---7--------------------|--(7)----------------|
|------------------------|---------------------|


  F#5
                         ~~~~~~~~
   H      H         Q    Q   +H
|-<2>s===17\----|-------------------||
|---------------|--<3>s=19--(19)----||
|---------------|-------------------||
|---------------|-------------------||
|---------------|-------------------||
|---------------|-------------------||
|
|  W               +W
|---------------|-------------------||
|---------------|-------------------||
|-11------------|-(11)--------------||
|-11------------|-(11)--------------||
|--9------------|--(9)--------------||
|---------------|-------------------||


 Guitar Solo VI (Herman Li)
  B5
  Gtr VI
      PM    PM    PM    ~~           ~~~~~~~~~~~~~~~~~~~~~~~~~~~
   S  S  S  S  S  S  E  Q   E  E     Q       +Q    +Q       +Q
|-17-17-17-17-17-17-17-17--16h17-|-h19b21===(19)r=(19)b21--(19)--|
|--------------------------------|-------------------------------|
|--------------------------------|-------------------------------|
|--------------------------------|-------------------------------|
|--------------------------------|-------------------------------|
|--------------------------------|-------------------------------|
|
|  W                                +W
|--------------------------------|-------------------------------|
|--------------------------------|-------------------------------|
|--------------------------------|-------------------------------|
|--9-----------------------------|--(9)--------------------------|
|--9-----------------------------|--(9)--------------------------|
|--7-----------------------------|--(7)--------------------------|


  F#5
   T     T     T     T                    ~~~~~~~~
   S  S  S  S  S  S  S  S  S  S  S  S  S  S  +E
|-21p17------------------------------------------|
|-------19p14-------------------------14---------|
|
7 comments total. Showing first comments.
0 reply
420ismybday wrote on November 28 2008, 02:19 pm

(Sic)! Bestest tab.....I LOVE IT!!!!!!!!!!!!
this tab pwns noobsteds! eaters beware!

0 reply
KISS FanTom wrote on November 29 2008, 04:39 pm

correct the name! this is "Where Dragons Rule" and not "Land Where Dragons Rule"

+1 reply
Nazo64 wrote on November 30 2008, 06:46 pm

lol dragons

I want to post or [tab]
guest
You may want to rate the tab now too:
select rating
Please do not post tabs as comments. Select "correction" instead!