Oops, an error
Loading. Please wait.

The Nashville Sessions Chords

3,761 views 12 this week
1 commentread comment
1 2 3 4 5
excellent!
x 4
Autoscroll
+/-
esc
set tempo
stop
Contributor
Difficulty
Hey! There's an official Ultimate Guitar app which is ideal
for learning songs when you're away from computer. Get the app
WARNING: You are trying to view
                                    content from Ultimate-Guitar.com
                                    in an unauthorized application,
                                    which is prohibited.

                                    Please use an official Ultimate
                                    Guitar Tabs application for iPhone,
                                    iPad or Android to access legitimate
                                    chords, guitar, bass, and drum tabs
                                    from Ultimate-Guitar.com database.

                                    Type "ultimate guitar tabs" in Apple
                                    App Store's or Android Market's
                                    search to find the application.
xxxxxxxxxxxxxxxxxxxxxxxxxxxxxxxxxxxxxxxxxxxxxxxxxxxxxxxxxxxxxxxxxxxxxxxxxxxxxxxxxxxxxxxxxxxxxxxxxx
                      T H E   N A S H V I L L E   S E S S I O N S   ( 2 0 0 7 )
                           T h e   O n l i n e   G u i t a r   C h o r d s
                                         D R A K E   B E L L
xxxxxxxxxxxxxxxxxxxxxxxxxxxxxxxxxxxxxxxxxxxxxxxxxxxxxxxxxxxxxxxxxxxxxxxxxxxxxxxxxxxxxxxxxxxxxxxx


                   +--------------------------PLEASE NOTE--------------------------+
                   + This file is the work of Jordan Lapping and represents his    +
                   + transcription of the album. You may only use this file for    +
                   + private study, scholarship, or research. The contents may not +
                   + be duplicated for use with other websites without written     +
                   + permission. Thank you for understanding. Enjoy.               +
                   +---------------------------------------------------------------+


                    ARTIST:   Drake Bell
                    ALBUM:    It's Only Time (2006)
                    GERNE:    Pop/Rock
                    SONGS:    
                              1. OK (Everything Is Gonna Be OK)
                              2. Wrong Side of The Sun
                              3. Out There
                              4. The Spin
                              5. Lonely
                              6. 14U (One For You)


xxxxxxxxxxxxxxxxxxxxxxxxxxxxxxxxxxxxxxxxxxxxxxxxxxxxxxxxxxxxxxxxxxxxxxxxxxxxxxxxxxxxxxxxxxxxxxxxx
1.                                               O K
xxxxxxxxxxxxxxxxxxxxxxxxxxxxxxxxxxxxxxxxxxxxxxxxxxxxxxxxxxxxxxxxxxxxxxxxxxxxxxxxxxxxxxxxxxxxxxxxx

Tabbed by Jordan Lapping

Tuning: Eb or D# (Half step lower)


 CHORDS USED:
     A     Bm    D5  D5/C#  D5/F#  E     G     Gm  Gsus2
e]---0-----2-----x-----x-----x-----0-----3-----3-----x---|
B]---2-----3-----3-----3-----3-----0-----3-----3-----3---|
G]---2-----4-----2-----2-----2-----1-----0-----3-----2---|
D]---2-----4-----0-----0-----0-----2-----0-----5-----0---|
A]---0-----2-----------4-----x-----2-----2-----5-----0---|
E]---------------------------2-----0-----3-----3-----3---|



 INTRO:
    D             D9            G               Gm6
e]-----------------------------------------------------------|
B]--------3-------------7-------------3---------------3------|
G]----2-----2-------5-----5-------0-----0----0----0-----0----|
D]--0---0-----0---0---0-----0--------------------------------| (x2)
A]------------------------------2---2-----2-----1---1-----1--|
E]-----------------------------------------------------------|



 VERSE 1:
         D5          D5/C#               D5/F#        Gsus2
  It was 2 A.M. on a 2-way street in the middle of Manhattan
             D5                      D5/C#
  I've been walking around since the sun went down
        D5/F#                   Gsus2
  Just waiting for something to happen



 PRE-CHORUS 1:
      D5     D5/C#   D5/F#                 Gsus2
  And I wish I could make the world move a little faster
  D5      D5/C#          D5/F#       Gsus2
  I'm not sure how much longer I can last here



 CHORUS 1:
 D5 D5/C#     D5/F#            Gsus2
  I know it's me that's got to change the moment
   D5       D5/C#  D5/F#               Gsus2
  Life goes on - I guess, I think I've always known it
   D5            D5/C#     Bm             E
  Might not be tonight, tomorrow, or the next day
      G              A
  But everything is gonna be OK



 TRANSITION 1:
    D             D9            G               Gm6
e]-----------------------------------------------------------|
B]--------3-------------7-------------3---------------3------|
G]----2-----2-------5-----5-------0-----0----0----0-----0----|
D]--0---0-----0---0---0-----0--------------------------------| (x2)
A]------------------------------2---2-----2-----1---1-----1--|
E]-----------------------------------------------------------|

  It's gonna be OK



 VERSE 3:
       D5                D5/C#                   D5/F#        Gsus2
  I remember a time when things were so fine, my cup was overflowing
            D5               D5/C#
  Didn't occur to me, that eventually
            D5/F#              Gsus2
  You would leave me without a warning



 PRE-CHORUS 2:
      D5        D5/C#     D5/F#       Gsus2
  And I've been searching for a sympathetic ear
      D5       D5/C#         D5/F#           Gsus2
  But it's not working - I'm still alone and standing here



 CHORUS 2:
 D5 D5/C#     D5/F#            Gsus2
  I know it's me that's got to change the moment
   D5       D5/C#  D5/F#               Gsus2
  Life goes on - I guess, I think I've always known it
   D5            D5/C#     Bm             E
  Might not be tonight, tomorrow, or the next day
      G              A
  But everything is gonna be OK



 TRANSITION 2:
    D             D9            G               Gm6
e]-----------------------------------------------------------|
B]--------3-------------7-------------3---------------3------|
G]----2-----2-------5-----5-------0-----0----0----0-----0----|
D]--0---0-----0---0---0-----0--------------------------------| (x2)
A]------------------------------2---2-----2-----1---1-----1--|
E]-----------------------------------------------------------|

  It's gonna be OK

  It's gonna be OK



 INTERLUDE:
D5 - D5/C# - D5/F# - Gsus2 (x4)



 BRIDGE:
         A
  Gotta get a grip, gotta deal with it
         G
  Gotta find find some way to live without you
      A
  Forget the past, get a grasp
        G               Gm
 'Cause my life ain't about you anymore



 CHORUS 3:
 D5 D5/C#     D5/F#            Gsus2
  I know it's me that's got to change the moment
   D5       D5/C#  D5/F#               Gsus2
  Life goes on - I guess, I think I've always known it
   D5            D5/C#     Bm             E
  Might not be tonight, tomorrow, or the next day
      G              A
  But everything is gonna be-


 CHORUS 4:
  D5 D5/C#     D5/F#            Gsus2
  -I know it's me that's got to change the moment
   D5       D5/C#  D5/F#               Gsus2
  Life goes on - I guess, I think I've always known it
   D5            D5/C#     Bm             E
  Might not be tonight, tomorrow, or the next day
      G              A
  But everything is gonna be OK


 OUTRO:
    D             D9            G               Gm6
e]-----------------------------------------------------------|
B]--------3-------------7-------------3---------------3------|
G]----2-----2-------5-----5-------0-----0----0----0-----0----|
D]--0---0-----0---0---0-----0--------------------------------| (x3)
A]------------------------------2---2-----2-----1---1-----1--|
E]-----------------------------------------------------------|

    D            D9            G               Gm6
e]-----------------------------------3---------0--|
B]--------3------------7-----------------------3--|
G]----2-----2------5-----5-------0-----0----0--0--|
D]--0---0-----0--0---0-----0-------------------0--|
A]-----------------------------2---2-----2-----1--|
E]------------------------------------------------|

  It's gonna be OK

  (Everything's OK)

  It's gonna be OK

  (Gonna be OK)




xxxxxxxxxxxxxxxxxxxxxxxxxxxxxxxxxxxxxxxxxxxxxxxxxxxxxxxxxxxxxxxxxxxxxxxxxxxxxxxxxxxxxxxxxxxxxxxxxxxx
2.                          W r o n g   S i d e   o f   T h e   S u n
xxxxxxxxxxxxxxxxxxxxxxxxxxxxxxxxxxxxxxxxxxxxxxxxxxxxxxxxxxxxxxxxxxxxxxxxxxxxxxxxxxxxxxxxxxxxxxxxxxxx

Tabbed by Jordan Lapping

Tuning: E (Standard)


 CHORDS USED:
     A Asus2 Asus4  A#   Bm   C    C*   C7   C#   D    D* Dsus2 F#m   G    Gm  Dsus2/B  Dsus2/C
e]---0----0----0----x----2----0----x----0----x----2----x----0----2----3----3------0-------0---|
B]---2----0----3----3----3----1----5----1----6----3----7----3----2----3----3------3-------3---|
G]---2----2----2----3----4----0----5----3----6----2----7----2----2----4----3------2-------2---|
D]---2----2----2----3----4----2----5----2----6----0----7----0----4----5----5------0-------0---|
A]---0----0----0----1----2----3----3----3----4---------5---------4----5----5------2-------3---|
E]---------------------------------------------------------------2----3----3------------------|



 INTRO:
Dsus2 - Dsus2/B - Dsus2/C - Asus4 - A - Asus2 - A (x2)



 VERSE 1:
        D           Bm         A
  It's just another day, like any other day
        G               C      C7
 'Til I opened up the shades
      D                F#m          Bm
  And it was black as night, and I don't know what I've done
         G               C7             (Dsus2)
  But I woke up on the wrong side of the sun



 TRANSITION 1:
Dsus2 - Dsus2/B - Dsus2/C - Asus4 - A - Asus2 - A



 VERSE 2:
          D                Bm
  Was it something that I said?
   A                         G               C      C7
  Something that I did that got inside your head?
   D            F#m              Bm
  Made you walk away - 'cause I don't know what I've done
         G               C7               D*
  But I woke up on the wrong side of the sun



 CHORUS 1:
C#    C*                              G
  I still don't have a reason, and I hope that I'm dreaming
            A#                           D*
 'Cause it looks like you're leaving me now
C#    C*                            Bm
  My world won't stop turning, and left me here learning
      A#                          A
  To live with the darkness I've found



 VERSE 3:
   D               Bm
  Must be some mistake?
        A                      G                        C      C7
  This isn't how it ends - my heart's not supposed to break
   D                 F#m              Bm
  Someone shed some light - 'cause I don't know what I've done
         G               C7               D*
  But I woke up on the wrong side of the sun



 CHORUS 2:
C#    C*                              G
  I still don't have a reason, and I hope that I'm dreaming
            A#                           D*
 'Cause it looks like you're leaving me now
C#    C*                            Bm
  My world won't stop turning, and left me here learning
      A#                          A
  To live with the darkness I've found



 INTERLUDE:

e]--------------------------|---------------------------------------------------------------|
B]--3p2---3p2---3p2---3p2---|--------------------------------------------3p2---3p2---3p2----|
G]------2-----2-----2-----2-|-9/11--11-/12-12--9-9-/11-11--5--7-5--4\-2------2-----2-----2--|
D]--------------------------|---------------------------------------------------------------|
A]--------------------------|---------------------------------------------------------------|
E]--------------------------|---------------------------------------------------------------|

e]------------------------------------------------------------------------------------------|
B]------------------12/15-15--15/17---15---15b17-15/--15p14----15p14----15p14----15p14------|
G]--9/11--11-12--14-----------------------------------------14-------14-------14-------14/--|
D]------------------------------------------------------------------------------------------|
A]------------------------------------------------------------------------------------------|
E]------------------------------------------------------------------------------------------|



 BRIDGE:
        D           Bm         A
  It's just another day, like any other day
        Gm                      D
 'Til I opened up the shades
   Bm     A
  Whoa - don't know what I've done
         G               C7               D
  But I woke up on the wrong side of the sun
    Bm         A
  Mhmm, and I don't know what I've done
         G               C7               D       Bm
  But I woke up on the wrong side of the sun
   A
  Don't know what I've done
         G               C7               D       Bm
  But I woke up on the wrong side of the sun
         A
  And I don't know what I've done
         G               C7      D             Bm
  But I woke up on the wrong side of the sun
   A      G          C7
  Yeah



 OUTRO [to fade]:
D - Bm - A - G - C7 (x2)




xxxxxxxxxxxxxxxxxxxxxxxxxxxxxxxxxxxxxxxxxxxxxxxxxxxxxxxxxxxxxxxxxxxxxxxxxxxxxxxxxxxxxxxxxxxxxxxxxxxx
3.                                      O u t   T h e r e
xxxxxxxxxxxxxxxxxxxxxxxxxxxxxxxxxxxxxxxxxxxxxxxxxxxxxxxxxxxxxxxxxxxxxxxxxxxxxxxxxxxxxxxxxxxxxxxxxxxx

Tabbed by Jordan Lapping

Tuning: E (Standard)


 CHORDS USED:
     A    A#   C    C#  C#m   D    Dm D/C# D7sus4 E    F   F#m   G    Gm  G/B   G#
e]---5----6----0----x----4----2----5----2----3----0----1----2----3----3----3----4---|
B]---5----6----1----6----5----3----6----3----3----0----1----2----3----3----3----4---|
G]---6----7----0----6----6----2----7----2----2----1----2----2----4----3----0----5---|
D]---7----8----2----6----6----0----7----0----0----2----3----4----5----5----0----6---|
A]---7----8----3----4----4---------5----4----3----2----3----4----5----5----2----6---|
E]---5----6---------------------------------------0----1----2----3----3---------4---|



 INTRO:
    E          D      C#m      C       E        D      C#m      C
e]--------------------------------------------------------------x--|
B]--------9--------7------5--------5-------9--------7------5----5--|
G]----------9---------------6----------------9---------------6--5--|
D]------9--------7------6--------5-------9--------7------6------5--|
A]--3/7--------5------4--------3------/7--------5------4--------3--|
E]-----------------------------------------------------------------|



 VERSE 1:
E         D     C#m      C
  Wore a suit today, I'm almost ready
E         D        C#m       C
  On the news they say, the dow is steady
D       D/C#    D7sus4    G/B         Gm
  Got a picture inside my mind of a pleasant time



 VERSE 2:
E         D       C#m          C
  Took a morning train, opened up the paper
E            D       C#m        C
  Trying to find the name of a total stranger
D          D/C#     D7sus4     G/B           Gm
  Now I'm reading between the lines, looking for a sign



 CHORUS 1:
A#                    Dm
  Out there, there's someone just as crazy
   C#                             G#       D#
  Someone who is waiting for somebody like me
        A#                      Dm
  Somewhere out there, there's someone just as scared
   C#                                F           G
  Searching for that someone who is just as out there as me



 TRANSITION 1:
A - G - F#m - F (x2)

  As me



 VERSE 3:
E         D    C#m          C
  Wish I had a map, to find my direction
E       D          C#m            C
  So I don't lose track, and miss my connection
D    D/C#            D7sus4  G/B            Gm
  I still don't know who you are, but I've come so far



 CHORUS 2:
A#                    Dm
  Out there, there's someone just as crazy
   C#                             G#       D#
  Someone who is waiting for somebody like me
        A#                      Dm
  Somewhere out there, there's someone just as scared
   C#                                F           G
  Searching for that someone who is just as out there



 BRIDGE:
E        D     C#m     C
  I can hardly wait



 INTERLUDE:

e]-----17b19-19--15h17-15\---11b13b13--11b13\10--------------------------------------|
B]---------------------------12b14b12--12b14\11---7-8-9b10---------------------------|
G]--14-----------------------------------------------------7--9b10b9-7--9b11b11-7----|
D]--------------------------------------------------------------------------------8--|
A]-----------------------------------------------------------------------------------|
E]-----------------------------------------------------------------------------------|

e]-----------------------------12-12h14--14b16-14b16-14b16b14--15b17b15------------|
B]--9------9h10-10/12-12/14-14------------------------------------------13--13b15--|
G]----9-11-------------------------------------------------------------------------|
D]---------------------------------------------------------------------------------|
A]---------------------------------------------------------------------------------|
E]---------------------------------------------------------------------------------|



 CHORUS 3:
A#                    Dm
  Out there, there's someone just as crazy
   C#                             G#       D#
  Someone who is waiting for somebody like me
        A#                      Dm
  Somewhere out there, there's someone just as scared
   C#                                F           G
  Searching for that someone who is just as out there as me



 OUTRO [to fade]:
A - G - F#m - F (x9)

  "As me"




xxxxxxxxxxxxxxxxxxxxxxxxxxxxxxxxxxxxxxxxxxxxxxxxxxxxxxxxxxxxxxxxxxxxxxxxxxxxxxxxxxxxxxxxxxxxxxxxxxxx
4.                                         T h e   S p i n
xxxxxxxxxxxxxxxxxxxxxxxxxxxxxxxxxxxxxxxxxxxxxxxxxxxxxxxxxxxxxxxxxxxxxxxxxxxxxxxxxxxxxxxxxxxxxxxxxxxx

Tabbed by Jordan Lapping

Tuning: E (Standard)


 CHORDS USED:
     A#   Cm   Dm   D#   Gm   G#
e]---6----3----5----x----3----4---|
B]---6----4----6----8----3----4---|
G]---7----5----7----8----3----5---|
D]---8----5----7----8----5----6---|
A]---8----3----5----6----5----6---|
E]---6-------------------3----4---|



 NARRATION:

     "The behavior of the politicians has, at times, been rather
      weird - and they do things that are not acceptable.       "



 INTRO:
    Csus2    D#maj7   Gm       Dm        Csus2    D#maj7   Gm       Dm
e]----3-333----3-333----3-333----1-111-|---3-333----3-333----3-333--1--|
B]----3-333----3-333----3-333----3-333-|---3-333----3-333----3-333--3--|
G]----0-000----0-000----0-000----2-222-|---0-000----0-000----0-000--2--|
D]----x-xxx--1-1-111----x-xxx----0-000-|---x-xxx--1-1-111----x-xxx--0--|
A]--3-3-333-----------1-1-111----x-xxx-|-3-3-333-----------1-1-111--x--|
E]-----------------------------1-1-111-|----------------------------1--|



 VERSE 1:
Cm                     D#
  Watching T.V., everybody's taking sides
       A#                  Dm
  They all got nothing to say
                    Cm        D#
  It's all about the spin
                    A#        Dm
  It's all about the spin



  VERSE 3:
Cm                     D#
  On the surface everybody seems right
   A#                      Dm
  Who you gonna believe today
                    Cm        D#
  It's all about the spin
                    A#        Dm
  It's all about the spin



 PRE-CHORUS 1:
Cm                          D#
  You could read it in the New York Times
           A#
  Watch an all-day line
   Dm               G#
  Take it your own way



 CHORUS 1:
                      Cm                      D#
  It's all about the spin baby, spin baby
                             A#                  Dm
 'Cause that's the way they win baby, win baby
                      Cm                      D#
  It's all about the spin baby, spin baby
                           A#     Dm
 'Cause that's the way to win



 VERSE 3:
Cm                D#
  Skin talks and bullshit walks
  A#                  Dm
  Anything to get it sold
                    Cm        D#
  It's all about the spin
                    A#        Dm
  It's all about the spin



 VERSE 4:
Cm                   D#
  A pretty face with everything replaced 
  A#                        Dm
  No-one ever seems to get old
                    Cm        D#
  It's all about the spin
                    A#        Dm
  It's all about the spin



 PRE-CHORUS 2:
Cm                          D#
  You could read it in the New York Times
           A#
  Watch an all-day line
   Dm               G#
  Take it your own way



 BRIDGE 1:
Cm         Gm        D#      A#
  Twisted truth and painted lies
   Cm      Gm        G#
  Right before your eyes



 CHORUS 2:
                      Cm                      D#
  It's all about the spin baby, spin baby
                             A#     Dm
 'Cause that's the way they win
                      Cm     D#
  It's all about the spin
                           A#     Dm
 'Cause that's the way to win



 INTERLUDE:
e]----------------------------------------------------------------------------|
B]------------13----13----13----13----13----13----13----13----13----13----13--|
G]----------------------------------------------------------------------------|
D]--10/13--13----13----13----13----13----13----13----13----13----13----13-----|
A]----------------------------------------------------------------------------|
E]----------------------------------------------------------------------------|

e]---------------------------------------------------------------------------|
B]-----13----13----13----13----13----13----13----13----13----13----13-13-----|
G]---------------------------------------------------------------------------|
D]--12----12----12----12----12----12----12----12----12----12----12-------12--|
A]---------------------------------------------------------------------------|
E]---------------------------------------------------------------------------|

[Repeated at high speed]        [Repeated at high speed]        [Play at high speed]
e]---------------------|        e]---------------------|        e]--21b-21-21-21-21-21-21-21-21--|
B]--16-16-16----16-----|        B]--18-18-18----18-----|        B]-------------------------------|
G]-----------15----15--|        G]-----------17----17--|        G]-------------------------------|
D]---------------------| (x4)   D]---------------------| (x8)   D]-------------------------------|
A]---------------------|        A]---------------------|        A]-------------------------------|
E]---------------------|        E]---------------------|        E]-------------------------------|



 BRIDGE 2:
Cm         Gm        D#      A#
  Twisted truth and painted lies
   Cm      Gm        G#
  Right before your eyes



 CHORUS 3:
                      Cm     (D#)
  It's all about the spin
                             A#     (Dm)
 'Cause that's the way they win
                      Cm     (D#)
  It's all about the spin
                             A#       G#
 'Cause that's the way they win



 CHORUS 4:
                      Cm                      D#
  It's all about the spin baby, spin baby
                             A#                  Dm
 'Cause that's the way they win baby, win baby
                      Cm                      D#
  It's all about the spin baby, spin baby
                           A#     Dm
 'Cause that's the way to win



 CHORUS 5:
                      Cm             D#
  It's all about the spin - yeah
                             A#         Dm
 'Cause that's the way they win, oh
                    Cm        D#
  It's all about the spin
                           A#     Dm
 'Cause that's the way to win



 OUTRO [to fade]:
Cm - D# - A# - Dm (x3)




xxxxxxxxxxxxxxxxxxxxxxxxxxxxxxxxxxxxxxxxxxxxxxxxxxxxxxxxxxxxxxxxxxxxxxxxxxxxxxxxxxxxxxxxxxxxxxxxxxxx
5.                                            L o n e l y
xxxxxxxxxxxxxxxxxxxxxxxxxxxxxxxxxxxxxxxxxxxxxxxxxxxxxxxxxxxxxxxxxxxxxxxxxxxxxxxxxxxxxxxxxxxxxxxxxxxx

Tabbed by Jordan Lapping

Tuning: E (Standard)


 CHORDS USED:
     A7   Am   A#   C    D9   Dm  Dm7   F    Fm   G
e]---5----5----6----x----5----5----5----1----1----3---|
B]---5----5----6----5----5----6----6----1----1----3---|
G]---6----5----7----5----5----7----5----2----1----4---|
D]---5----7----8----5----7----7----7----3----3----5---|
A]---7----7----8----3----5----5----5----3----3----5---|
E]---5----5----6------------------------1----1----3---|



 INTRO [Piano]:
Am - D9 (x2)



 VERSE 1 [Piano]:
Am                               D9
  Didn't know what this feeling was
Am                        D9
 'Til it stopped right behind me
Am                           D9
  Don't know if I'd call it love
Am                       D9
  But I'm not taking it lightly



 PRE-CHORUS 1:
              F
  'Cause I'm living in my own world
          F
  No-one cares if I stay or go
   Am    C   F
  Away from here, in my own world
     F                           Am    C       D9
  I don't have much to show; but one thing I know



 CHORUS 1:
   C  G       A#           A7
  Lonely has always been friends with me
      Dm       Dm7    G                 Fm       G
  And I don't know if I could give you what you need
       C  G       A#         A7
  And lonely has always had time for me
      Dm Dm7      G       Fm         (Am)
  But maybe your love is just what I need



 TRANSITION 1:
Am - D9 (x2)



 VERSE 2:
Am                D9
  Take away this pain
Am               D9
  That I have created
Am                      D9
 'Cause you helped me change
Am                      D9
 'Cause I'm broken and faded



 PRE-CHORUS 2:
              F
  'Cause I'm living in my own world
          F
  No-one cares if I stay or go
   Am    C   F
  Away from here, in my own world
     F                           Am    C       D9
  I don't have much to show; but one thing I know



 CHORUS 2:
   C  G       A#           A7
  Lonely has always been friends with me
      Dm       Dm7    G                 Fm       G
  And I don't know if I could give you what you need
       C  G       A#         A7
  And lonely has always had time for me
      Dm Dm7      G
  But maybe your love...



 BRIDGE:
Am
  Try to fight, try to stop, try to hold back
C
  Try to stay all alone, 'cause I know that
   D9              F     Fm
  Loving me ends tragically



 INTERLUDE:

e]--12-13-14b15b14------------------------|
B]-----------------13--12-13-14b15b14-----|
G]------------------------------------12--|
D]----------------------------------------|
A]----------------------------------------|
E]----------------------------------------|

e]--------------------17--15b17----------------------------------------------(15)--|
B]--------13-15-15b17-----------17--15b16b15\13--15b17-17b18b17--15b16b15\13-------|
G]--12/14--------------------------------------------------------------------------|
D]---------------------------------------------------------------------------------|
A]---------------------------------------------------------------------------------|
E]---------------------------------------------------------------------------------|



 CHORUS 3:
   C  G       A#           A7
  Lonely has always been friends with me
      Dm       Dm7    G                 Fm       G
  And I don't know if I could give you what you need
       C  G       A#         A7
  And lonely has always had time for me
      Dm Dm7      G       Fm      G  C
  But maybe your love is all that I need



 OUTRO [to fade]:
   G          A#     A7     Dm    Dm7     G
  All that I need
     Fm       G  C     G   A#   A7   Dm   Dm7
  Is all that I need




xxxxxxxxxxxxxxxxxxxxxxxxxxxxxxxxxxxxxxxxxxxxxxxxxxxxxxxxxxxxxxxxxxxxxxxxxxxxxxxxxxxxxxxxxxxxxxxxxxxx
6.                                   1 4 U   ( O n e   F o r  Y o u )
xxxxxxxxxxxxxxxxxxxxxxxxxxxxxxxxxxxxxxxxxxxxxxxxxxxxxxxxxxxxxxxxxxxxxxxxxxxxxxxxxxxxxxxxxxxxxxxxxxxx

Tabbed by Jordan Lapping

Tuning: E (Standard)


 CHORDS USED:
     A    Am   A#   C   C#m   D    E    F   F#7   G    G#
e]---5----5----x----x----4----x----x----1----2----3----4---|
B]---5----5----3----5----5----7----9----1----2----3----4---|
G]---6----5----3----5----6----7----9----2----3----4----5---|
D]---7----7----3----5----6----7----9----3----2----5----6---|
A]---7----7----1----3----4----5----7----3----4----5----6---|
E]---5----5-----------------------------1----2----3----3---|



 INTRO:
C#m - F# - A - A (x2)



 VERSE 1:
C#m          F#7       A           A
  We'd have lunch in Spain, but I heard it's gonna rain
C#m         F#7      A             A
  We could take my plane, but it's in the shop again



 PRE-CHORUS 1:
E        D       A                Am                 E
  Well, you may laugh - but it's hard to find good style
     D     A      Am
  Especially when you have all I have



 CHORUS 1:
C                             G           Am  G
  Just like one and three add up to two
A#                           F             F   G
  The sky is green and the grass is blue
C                          G              Am  G
  Just like I always tell you the truth
A#                        F
  How could I not be the one for you?



 VERSE 2:
C#m     F#7    A      A
  How about a ride in my McClaron?
C#m        F#7       A        A
  You know my best friend is Bobby Darren?



 PRE-CHORUS 2:
E       D         A            Am                E
  Now, don't you laugh, 'cause I was born with class
     D           A      Am
  I can't keep track of all the things I have



 CHORUS 2:
C                             G           Am  G
  Just like one and three add up to two
A#                           F             F   G
  The sky is green and the grass is blue
C                          G              Am  G
  Just like I always tell you the truth
A#                        F
  How could I not be the one for you?



 BRIDGE [Piano]:
G#
  Should I be honest, tell you everything you need to know?
A#
  Tell the truth about my bank account - decide to close
G#
  Tell you all the things I don't have in my little life
A#      C
  No - not to lie



 VERSE 3:
C#m     F#7    A        A
  How about a night in Montecarlo?
C#m     F#7     A      A
  After all, I own my own casino



 PRE-CHORUS 2:
E       D         A           Am
  Now, don't you laugh, it's called palagio
E      D         A         Am
  I'm quite the catch, in case you didn't know



 CHORUS 2:
C                             G            C
  Just like one and three add up to two
A#                           F             G
  The sky is green and the grass is blue
C                          G              C
  Just like I always tell you the truth
A#                        F
  How could I not be the one for you?



 OUTRO:
C                             G           Am  G
  Just like one and three add up to two
A#                           F             F   G
  The sky is green and the grass is blue
C                         G               Am  G
  You know that I always tell the truth
A#                        F
  How could I not be the one for you?




xxxxxxxxxxxxxxxxxxxxxxxxxxxxxxxxxxxxxxxxxxxxxxxxxxxxxxxxxxxxxxxxxxxxxxxxxxxxxxxxxxxxxxxxxxxxxxxxxxxx
                                     A n y   Q u e s t i o n s ?
xxxxxxxxxxxxxxxxxxxxxxxxxxxxxxxxxxxxxxxxxxxxxxxxxxxxxxxxxxxxxxxxxxxxxxxxxxxxxxxxxxxxxxxxxxxxxxxxxxxx


If you have any questions regarding anything in this guide, feel free to message me over here on
Ultimate Guitar. I'll try and respond as quickly as possible, and I'm more than happy to help out
if I can. Any corrections may also be messaged to me, but I have done my best to double-check (and
triple-check) everything in here. But, there's often that pesky little mistake that seems to stick
out like a sore thumb to everyone else, although I never noticed inputting the data wrongly!

Lastly, the content here is as correct as I can get it. I've tabbed this out in the manner which
Drake and/or band mates perform the songs; if you prefer to perform it different then that is
absolutely fine. However, 100% accuracy cannot ever be ensured, but a good 90% of the content in
here certainly is.

Thanks for reading guys, I hope this proves useful!


xxxxxxxxxxxxxxxxxxxxxxxxxxxxxxxxxxxxxxxxxxxxxxxxxxxxxxxxxxxxxxxxxxxxxxxxxxxxxxxxxxxxxxxxxxxxxxxxxx
                                            T H E   E N D
xxxxxxxxxxxxxxxxxxxxxxxxxxxxxxxxxxxxxxxxxxxxxxxxxxxxxxxxxxxxxxxxxxxxxxxxxxxxxxxxxxxxxxxxxxxxxxxx
comments
print report bad tab
1 comment total.
0 reply
BlenderBR wrote on October 3 2014, 02:23 pm

This is really, really good! It's all incredibly accurate.

Thanks for tabbing it!

I want to post or [tab]
guest
You may want to rate the tab now too:
select rating
Please do not post tabs as comments. Select "correction" instead!