Oops, an error
Loading. Please wait.

6 00 Bass Tab

ver2
7,161 views 6 this week
1 commentread comment
1 2 3 4 5
excellent!
x 2
Autoscroll
+/-
esc
set tempo
stop
WARNING: You are trying to view
                                    content from Ultimate-Guitar.com
                                    in an unauthorized application,
                                    which is prohibited.

                                    Please use an official Ultimate
                                    Guitar Tabs application for iPhone,
                                    iPad or Android to access legitimate
                                    chords, guitar, bass, and drum tabs
                                    from Ultimate-Guitar.com database.

                                    Type "ultimate guitar tabs" in Apple
                                    App Store's or Android Market's
                                    search to find the application.
Here the 6 o'clock bass tab
Author: Bernardo Borghetti
-=6 o'clock - Dream Theater=-
  -=from "Awake"album=-

Transcribed by Bernardo Borghetti - borghetti@netgo.com.br

Arraged for 4-String Bass



G|----------------|---------------|-------------------------------------|
D|---Drums--------|---Keyboard----|-7-7-7---7-7-7---7-7-7---7-7-7-------|
A|---Solo---------|---------------|-------------------------------------|
E|----------------|---------------|-------------------------------------|


G|----------------------------------------------------------------------|
D|--------------5-------------5-------------5-------------5-------------|
A|--7-7-5-5-7-5---7-7-5-5-7-5---7-7-5-5-7-5---7-7-5-5-7-5---------------|
E|----------------------------------------------------------------------|

										6 o'clock on
G|---------------------------------------------------------|------------|
D|-------------5-------------5-------------5-------------5-|------------|
A|-5h7-5-5-7-5---5h7-5-5-7-5---5h7-5-5-7-5---5h7-5-5-7-5---|------------|
E|---------------------------------------------------------|------------|

  a Christmas morning... (2x)  6 o'clock on a Christmas morning... (2x)   
G|----------------------------------------------------------------------|
D|----------------------------------------------------------------------|
A|----------------------------------------------------------------------|
E|-----------------------------5-X--5--5--5-5---5-X--5--5--5---5--------|

  
G|----------------------------------------------------------------------|
D|----------------------------------------------------------------------|
A|-7-5-7-5-7---7-7-5-7-5-5-7---7-5-7-5-------5-----5-----5--------------|
E|-----------0---------------0---------7-3-7---5-7---6-7---0------------|


G|----------------------------------------------------------------------|
D|----------------------------------------------------------------------|
A|-7-5-7-5-7---7-7-5-7-5-5-7---7-5-7-5-------5-----5---5-7--------------|
E|-----------0---------------0---------7-3-7---5-7---7------------------|


  Verse 1 & 2
G|----------------------------------------------------------------------|
D|----------------------------------------------------------------------|
A|-7-5-7-5-7---7-7-5-7-5-5-7---7-5-7-5-------5-----5-----5--------------|
E|-----------0---------------0---------7-3-7---5-7---6-7---0------------|


G|----------------------------------------------------------------------|
D|----------------------------------------------------------------------|
A|-7-5-7-5-7---7-7-5-7-5-5-7---7-5-7-5-------5-----5---5-7--------------|
E|-----------0---------------0---------7-3-7---5-7---7------------------|


G|----------------------------------------------------------------------|
D|----------------------------------------------------------------------|
A|-7-5-7-5-7---7-7-5-7-5-5-7---7-5-7-5-------5-----5-----5--------------|
E|-----------0---------------0---------7-3-7---5-7---6-7---0------------|


G|----------------------------------------------------------------------|
D|----------------------------------------------------------------------|
A|-7-5-7-5-7---7-7-5-7-5-5-7---7-5-7-5-------5-----5---5--7-------------|
E|-----------0---------------0---------7-3-7---5-7---7------------------|


  Bridge 1, 2 & 3
G|----------------------|---------------------------------|-------------|
D|----------------------|-5-4-5-4-5-4---------------------|-------------|
A|----------------------|-------------5-7-5---5-4---------|-------------|
E|-3--5----3--5---3--5--|-------------------7-----5-3-2-0-|-------------|


  Fill 1
G|----------------------------------------------------------------------|
D|----------------------------------------------------------------------|
A|-7-5--------7-5-------------------------------------------------------|
E|-----3-4-4------8-8--8-8--8-8--8-8--8---------------------------------|


  Chorus
G|----------------------------------------------------------------------|
D|-------------5-------------5-------------5--------------5-------------|
A|-7-7-5-5-7-5---7-7-5-5-7-5---7-7-5-5-7-5----7-7-5-5-7-5---------------|
E|----------------------------------------------------------------------|


G|----------------------------------------------------------------------|
D|-------------5-------------5-------------5-------------5--------------|
A|-5h7-5-5-7-5---5h7-5-5-7-5---5h7-5-5-7-5---5h7-5-5-7-5----------------|
E|----------------------------------------------------------------------|


G|----------------------------------------------------------------------|
D|----------------------------------------------------------------------|
A|-2--2-2-2-2-2--2--2--2-2-2-2-2--2--2-2-2-2-2--2--2-2-2-2-2------------|
E|----------------------------------------------------------------------|


  Keyboard Solo
G|----------------------------------------------------------------------|
D|----------------------------------------------------------------------|
A|-7-5-7-5-7---7-7-5-7-5-5-7---7-5-7-5-------5-----5-----5--------------|
E|-----------0---------------0---------7-3-7---5-7---6-7---0------------|


G|----------------------------------------------------------------------|
D|----------------------------------------------------------------------|
A|-7-5-7-5-7---7-7-5-7-5-5-7---7-5-7-5-------5-----5---5-7--------------|
E|-----------0---------------0---------7-3-7---5-7---7------------------|


G|----------------------------------------------------------------------|
D|----------------------------------------------------------------------|
A|-7-5-7-5-7---7-7-5-7-5-5-7---7-5-7-5-------5-----5-----5--------------|
E|-----------0---------------0---------7-3-7---5-7---6-7---0------------|


G|----------------------------------------------------------------------|
D|----------------------------------------------------------------------|
A|-7-5-7-5-7---7-7-5-7-5-5-7---7-5-7-5-------5-----5---5-7--------------|
E|-----------0---------------0---------7-3-7---5-7---7------------------|


G|----------------------------------------------------------------------|
D|-----5----------------------------8-----------------------------------|
A|-5-7----7-5-7-5-7---7-5-7-5-7-5-7---7-5-7-5-------5-----5---5-7-------|
E|------------------0-------------------------7-3-7---5-7---7-----------|


G|----------------------------------------------------------------------|
D|-7-5-----------------------------4-5----------------------------------|
A|-----7--5-7-5-7----7-5-7-5-7-5-7-----7-5-7-5-------5-----5---5-7------|
E|----------------0----------------------------7-3-7---5-7---7----------|


G|----------------------------------------------------------------------|
D|-----5----------------------------8-----------------------------------|
A|-5-7----7-5-7-5-7---7-5-7-5-7-5-7---7-5-7-5-------5-----5---5-7-------|
E|------------------0-------------------------7-3-7---5-7---7-----------|


G|----------------------------------------------------------------------|
D|-7-5-----------------------------4-5----------------------------------|
A|-----7--5-7-5-7----7-5-7-5-7-5-7-----7-5-7-5-------5-----5---5-7------|
E|----------------0----------------------------7-3-7---5-7---7----------|


  Inside...               Comin' Outside...
G|----------------------------------------------------------------------|
D|----------------9~~~~--------------------7~~~~------------------------|
A|-2----------------------0---------------------------------------------|
E|----------------------------------------------------------------------|


  Inside...               Comin' Outside...
G|----------------------------------------------------------------------|
D|----------------5~~~---------------------7~~~~------------------------|
A|------------------------0---------------------------------------------|
E|-3--------------------------------------------------------------------|

  (the good part)
G|-----------------|---------------|---------------|--------------------|
D|--7-5-7-5-7-5---7|5-7-5-7-5---5-7|8-9-7---7-5---5|7-6-7-5-7-8-7-5-----|
A|--------------7--|----------5----|------7-----7--|--------------------|
E|-----------------|---------------|---------------|--------------------|

G|-----------------|---------------|----7----------|--------------------|
D|--7-5-7-5-7-5---7|5-7-5-7-5---5-7|8-9---8-9-8-7-8|7-5-7-5-4-5-4-5-----|
A|--------------7--|----------5----|---------------|--------------------|
E|-----------------|---------------|---------------|--------------------|

G|-----------------|--7---9-7------|--------------7|----------7---------|
D|--7-5-7-5-7-5---8|7---8-----8-7--|8-9-8-7-9-8-7--|9-8-7-------9-8-----|
A|--------------7--|-------------10|---------------|-----10-7-----------|
E|-----------------|---------------|---------------|--------------------|

G|-----------------|------9---7----|------7-9-7---7|6---6-4---3-2-------|
D|--7-8-7---7-----8|9-------------8|9-7-9-------9--|--7-----5-----5-----|
A|-------10---9-10-|--7-10--7---7--|---------------|--------------------|
E|-----------------|---------------|---------------|--------------------|


G|-----------------|---------------|---------------|--------------------|
D|--7-5-7-5-7-5---7|5-7-5-7-5---5-7|8-9-7---7-5---5|7-6-7-5-7-8-7-5-----|
A|--------------7--|----------5----|------7-----7--|--------------------|
E|-----------------|---------------|---------------|--------------------|

G|-----------------|---------------|----7----------|--------------------|
D|--7-5-7-5-7-5---7|5-7-5-7-5---5-7|8-9---8-9-8-7-8|7-5-7-5-4-5-4-5-----|
A|--------------7--|----------5----|---------------|--------------------|
E|-----------------|---------------|---------------|--------------------|

G|-----------------|--7---9-7------|--------------7|----------7---------|
D|--7-5-7-5-7-5---8|7---8-----8-7--|8-9-8-7-9-8-7--|9-8-7-------9-8-----|
A|--------------7--|-------------10|---------------|-----10-7-----------|
E|-----------------|---------------|---------------|--------------------|

G|-----------------|------9---7----|------7-9-7---7|6---6-4---3-2-------|
D|--7-8-7---7-----8|9-------------8|9-7-9-------9--|--7-----5-----5-----|
A|-------10---9-10-|--7-10--7---7--|---------------|--------------------|
E|-----------------|---------------|---------------|--------------------|


-Repeat Verse(1x)

-Repeat Bridge(1x)

  Chorus
G|----------------------------------------------------------------------|
D|-------------5-------------5-------------5--------------5-------------|
A|-7-7-5-5-7-5---7-7-5-5-7-5---7-7-5-5-7-5----7-7-5-5-7-5---------------|
E|----------------------------------------------------------------------|


G|----------------------------------------------------------------------|
D|-------------5-------------5-------------5-------------5--------------|
A|-5h7-5-5-7-5---5h7-5-5-7-5---5h7-5-5-7-5---5h7-5-5-7-5----------------|
E|----------------------------------------------------------------------|


G|----------------------------------------------------------------------|
D|-0-------0------------------------------------------------------------|
A|----0-------0-----5-5-5-5---------0-0-0-0-7-7-7-7---------------------|
E|-------0-------0----------0-0-0-0-------------------------------------|


  6 o'clock on...
G|----------------|----------------|----------------|-------------------|
D|----------------|----------------|----------------|-------------------|
A|-2--2-2-2-2-2-2-|-2--2-2-2-2-2-2-|-2--2-2-2-2-2-2-|-2--2-2-2-2-2-2----|
E|----------------|----------------|----------------|-------------------|

  "I know all about the honor of God, Mary Jane."
G|----------------------------------------------------------------------|
D|----------------------------------------------------------------------|
A|----------------------------------------------------------------------|
E|-4-4-4-4-4-4-4-4-4-4-4-4-4-4-4-4-4-4-4-4-4-4-4-4-4-4-4-4--------------|



-
Transcribed by Bernardo Borghetti - borghetti@netgo.com.br
-
comments
We did not receive enough feedback on this tab! Please rate:
print report bad tab
1 2 3 4 5
1 comment total.
0 reply
goldenarrow25 wrote on March 20 2011, 06:39 pm

The intro's wrong, but the rest is pretty accurate. Good job.

I want to post or [tab]
guest
You may want to rate the tab now too:
select rating
Please do not post tabs as comments. Select "correction" instead!