Oops, an error
Loading. Please wait.

A Change Of Seasons Bass Tab

ver1
ver1

Whole song

More versions @911Tabs.com
6,237 views 18 this week
5 commentsread comments
1 2 3 4 5
accurate
x 9
Autoscroll
+/-
esc
set tempo
stop
Contributor
WARNING: You are trying to view
                                    content from Ultimate-Guitar.com
                                    in an unauthorized application,
                                    which is prohibited.

                                    Please use an official Ultimate
                                    Guitar Tabs application for iPhone,
                                    iPad or Android to access legitimate
                                    chords, guitar, bass, and drum tabs
                                    from Ultimate-Guitar.com database.

                                    Type "ultimate guitar tabs" in Apple
                                    App Store's or Android Market's
                                    search to find the application.
Standard Tuning

		    (0:22)
G----|----|----|----|----|----|----|------|------|-----|--------|------|
D----|----|----|----|----|----|----|------|------|-----|--------|------|
A----|----|----|----|----|----|----|---3--|-2----|-----|-0------|------|
E----|----|----|----|----|----|----|------|------|-----|-----3--|-0----|
B----|----|----|----|----|----|----|------|------|-----|--------|----3-|

G|--|------|-----|-------|-------|------|------|-------|-------|-------|
D|--|------|-----|-------|-------|------|------|-------|-------|-------|
A|--|------|-----|-0-----|-------|------|------|-0--2--|-------|-------|
E|--|------|-----|----3--|-0-----|-2----|-3----|-------|-0--3--|--2----|
B|--|-0----|-----|-------|----1--|------|------|-------|-------|-------|

G-|------|-------|-------|-----------|----------------|----------|-9\-7-|
D-|------|-------|-------|-----------|----------------|----------|------|
A-|------|-0--2--|-------|-----------|------5---5/-7\-|----------|------|
E-|-3----|-------|-0--3--|-----------|--------5-------|----------|------|
B-|------|-------|-------|---0-------|-0--------------|-0--------|------|

G|--------------|----------------|---------------|----------------|----|
D|--------------|----------------|---------------|----------------|----|
A|----5---5/-7\-|----------------|---------------|----------------|----|
E|------5-------|----------------|---------------|----------------|----|
B|--------------|-0--0--0--0--0--|--0--0--0--0---|-0--0--0--0--0--|--0-|

G|---------------------|--------------------------|--------------------|
D|---------------------|--------------------------|--------------------|
A|---------------------|--------------------------|--------------------|
E|-----------------1---|------2--3--------2-------|--------------------|
B|--0--0-3-5-0-2-3---2-|---0--------0--5-----0--3-|-5--0--2--3--0--3---|

G-|--------------------------|--------------------|--------------------|
D-|--------------------------|--------------------|--------------------|
A-|--------------------------|--------------------|--------------------|
E-|-----2--3--------2--------|---------------1----|------2--3--------2-|
B-|--0--------0--5-----0--3--|---5--0--2--3-------|---0--------0--5----|

G-------|-----------------------|--------------------------|-----------|
D-------|-----------------------|--------------------------|-----------|
A-------|-----------------------|--------------------------|-----------|
E-------|-----------------------|-----2--3--------2--------|-----------|
B--0--3-|-5--0--2--3--0--3------|--0--------0--5-----0--3--|---5--0--2-|

G|----------|---------------------------------------------|------------|
D|----------|---------------------------------------------|------------|
A|----------|---------------------------------------------|------------|
E|-----1----|------2--3--------2--------------------------|----2--3----|
B|--3-------|---0--------0--5-----0--3--5--0--2--3--0--3--|-0--------0-|

G|-------------------------------|--------------------------------------|
D|-------------------------------|--------------------------------------|
A|-------------------------------|--------------------------------------|
E|-----2--------------------1----|------2--3--------2-------------------|
B|--5-----0--3--5--0--2--3-------|---0--------0--5-----0--3--5--0--2--3-|

G|--------|----------------------------------------|-------11--7--9-----11-|
D|--------|----------------------------------------|-----------------9-----|
A|--------|----------------------------------------|-----------------------|
E|--------|----2--3--------2-------------------1---|-----------------------|
B|--0--3--|-0--------0--5-----0--3--5--0--2--3-----|-0--0------------------|

G|--7--9--|-------11--7--9-----11--7--9--|---------------|-------------|
D|--------|-----------------9------------|---------------|-------------|
A|--------|------------------------------|---------------|-----0--2----|
E|--------|------------------------------|---------------|-----------0-|
B|--------|-0--0-------------------------|-0----0--2--3--|--0----------|

G|--------------|---------------|------------------------------|-------|
D|--------------|---------------|------------------------------|-------|
A|--------------|---------------|-----0--2---------------------|-----0-|
E|--2--0--------|---------------|-----------0--2--0-----0--0-2-|-------|
B|--------2--3--|-0----0--2--3--|--0-----------------3---------|--0----|

G|-----------------------|-----------------------------|----------------|
D|-----------------------|-----------------------------|----------------|
A|--2--0--2--------0--2--|-----0--2--0--2--------0--2--|-----0--2--0--2-|
E|-----------0--2--------|-----------------0--2--------|----------------|
B|-----------------------|--0--------------------------|--0-------------|

G|--------------|--------------------------------|---------------------|
D|--------------|-----------------0--2--0h2p0----|---------------------|
A|--------0--2--|-----0--2--0--2--------------2--|------2--0-0-0-2-2-2-|
E|--0--2--------|--------------------------------|---------------------|
B|--------------|--0-----------------------------|--0------------------|

G|-------------------|--------------------------------------|----------|
D|----------0--------|--------------------------------------|----------|
A|-0--2--------2--0--|-----2--0-0-0-2-2-2-0--2--------------|-----2--0-|
E|-------------------|--------------------------------0--2--|----------|
B|-------0-----------|--0-----------------------0--3--------|--0-------|

G|------------------------------|--------------------------------------|
D|--------------------0-2-0-----|--------------------------------------|
A|-0-0-2-2-2-0--2------------2--|-----2--0-0-0-2-2-2-0--2--------------|
E|------------------------------|--------------------------------0--2--|
B|-----------------0------------|--0-----------------------0--3--------|

G|----------------------------|------------------------------|---------|
D|----------------------------|------------------------2-----|---------|
A|----------------------------|------------------2--4-----5--|---------|
E|---------2-----4--2-2----5--|------4-----4--5--------------|---------|
B|---2--2-----2---------2-----|---2-----5--------------------|---2--2--|

G|--------------------|------------------------------|-----------------|
D|--------------------|------------------------2-----|---------4-----6-|
A|--------------------|------------------2--4-----5--|---4--4-----4----|
E|-2-----4--2-2----5--|------4-----4--5--------------|-----------------|
B|----2---------2-----|---2-----5--------------------|-----------------|

G|------------|------------------------------|---------2-----4--2-2----|
D|--4-4----7--|------6-----------------2-----|---2--2-----2---------2--|
A|------4-----|---4-----7--------2--4-----5--|-------------------------|
E|------------|------------4--5--------------|-------------------------|
B|------------|------------------------------|-------------------------|

G|-5--|------4-----------------------|---------2-----4--2-2----5--|-----|
D|----|---2-----5-----------2--5--3--|---2--2-----2---------2-----|---2-|
A|----|------------2--3--5-----------|----------------------------|-----|
E|----|------------------------------|----------------------------|-----|
B|----|------------------------------|----------------------------|-----|

G|--4-----------------------|----------------------------|--------------|
D|-----5--------------------|----------------------------|--------------|
A|--------------------------|---------0-----2--0-0----3--|------2-----2-|
E|-----------------0--3--1--|---0--0-----0---------0-----|---0-----3----|
B|--------0--1--3-----------|----------------------------|--------------|

G|-----------0-----|----------------------------|-----------------------|
D|-----0--2-----3--|----------------------------|-----------------------|
A|--3--------------|----------------------------|------------------2--4-|
E|-----------------|---------2-----4--2-2----5--|------4-----4--5-------|
B|-----------------|---2--2-----2---------2-----|---2-----5-------------|

G|--------|----------------------------|-------------------------------|
D|--2-----|----------------------------|------------------------2------|
A|-----5--|----------------------------|------------------2--4-----5---|
E|--------|---------2-----4--2-2----5--|------4-----4--5---------------|
B|--------|---2--2-----2---------2-----|---2-----5---------------------|

G----------------------------|-----------------------------|---------2-|
D---------4-----6--4-4----7--|------6-----------------2----|---2--2----|
A---4--4-----4---------4-----|---4-----7--------2--4-----5-|-----------|
E----------------------------|------------4--5-------------|-----------|
B----------------------------|-----------------------------|-----------|

G|-----4--2-2----5--|------4-----------------------|---------2-----4--2-|
D|--2---------2-----|---2-----5-----------2--5--3--|---2--2-----2-------|
A|------------------|------------2--3--5-----------|--------------------|
E|------------------|------------------------------|--------------------|
B|------------------|------------------------------|--------------------|

G|-2----5--|------4-----------------------|----------------------------|
D|---2-----|---2-----5--------------------|----------------------------|
A|---------|------------------------------|---------0-----2--0-0----3--|
E|---------|---------------------0--3--1--|---0--0-----0---------0-----|
B|---------|------------0--1--3-----------|----------------------------|

G-|------------------------0-----|-----------|-------------------------|
D-|------------------0--2-----3--|-----------|-------------------2-----|
A-|------2-----2--3--------------|-----------|-------------2--4-----5--|
E-|---0-----3--------------------|-----------|---0---4--5--------------|
B-|------------------------------|---2----3--|-------------------------|

G-|-----------|-------------------------|-----------|-------------------|
D-|-----------|-------------------2-----|-----------|-----------------2-|
A-|-----------|-------------2--4-----5--|-----------|-----------2--4----|
E-|-----------|-------4--5--------------|-----------|---0---4-----------|
B-|---2----3--|---0---------------------|---2----3--|-------------------|

G|-----|-----------------5--8--|--7---11--14--13---17--20--|---19-----|
D|-----|-------4--7--6---------|---------------------------|----------|
A|--6--|---5-------------------|---------------------------|----------|
E|-----|-----------------------|---------------------------|----------|
B|-----|-----------------------|---------------------------|----------|

G|---20-19-17----------------|--------------------------|--------------|
D|------------19-18-16-13-12-|---10---------------------|--------------|
A|---------------------------|------12----9-------------|--------------|
E|---------------------------|---------11---11-9-8------|--------------|
B|---------------------------|---------------------10-9-|--7--7-7-7--7-|

G|----*|-
D|----*|-
A|----*|-
E|----*|-
B|-7--*|-

thanks, please rate it after you learn it
comments
print report bad tab
5 comments total. Showing first comments.
0 reply
Theater Dreamer wrote on July 1 2005, 12:00 am

doesn't he use a 6 string bass??

0 reply
Bassace_72 wrote on July 25 2006, 11:09 am

yeah he uses a 6 string.... wtf?

0 reply
mfurseman wrote on June 3 2007, 08:29 am

just transpose the last 5 bars so that you can use the c if you actually have a six string, as far more people own a five string surely this tab is more convenient?
good tab by the way, cheers

I want to post or [tab]
guest
You may want to rate the tab now too:
select rating
Please do not post tabs as comments. Select "correction" instead!