Oops, an error
Loading. Please wait.

A Change Of Seasons Bass Tab

ver2
ver2

Whole song

More versions @911Tabs.com
7,709 views 18 this week
3 commentsread comments
1 2 3 4 5
excellent!
x 6
Autoscroll
+/-
esc
set tempo
stop
Contributor
Hey! There's an official Ultimate Guitar app which is ideal
for learning songs when you're away from computer. Get the app
WARNING: You are trying to view
                                    content from Ultimate-Guitar.com
                                    in an unauthorized application,
                                    which is prohibited.

                                    Please use an official Ultimate
                                    Guitar Tabs application for iPhone,
                                    iPad or Android to access legitimate
                                    chords, guitar, bass, and drum tabs
                                    from Ultimate-Guitar.com database.

                                    Type "ultimate guitar tabs" in Apple
                                    App Store's or Android Market's
                                    search to find the application.
A Change Of Seasons
by Dream Theater (off the album "A Change Of Seasons", 1995)

Standard tuning (4-string)

I realise Myung uses a 6-string, but I have a 4-string and have been using
this tab I transcribed for a 4-string bass to learn it, and thought I should share
it with anyone else who has a 4-string.
Feel free to adapt it - some parts have bits that a 4-string can't reach, so they're
written on different octaves but it sounds the same.

To find the 7 sections of the song easily (correct me if I've labelled them in
the wrong place!), Ctrl+F and type in either:

Crimson Sunrise
Innocence
Carpe Diem
The Darkest Of Winters
Another World
Inevitable Summer
Crimson Sunset

I've also put timestamps. Enjoy.

_____________________________________________________________________________
	i. The Crimson Sunrise
_____________________________________________________________________________

0:23

  W                   W                   H        H         
-------------------|-------------------|--------------------|
-------------------|-------------------|--7--------5--------|
--2----------------|--L----------------|--------------------|
-------------------|-------------------|--------------------|


  H        H           W                   W                 
--------------------|-------------------|-------------------|
--2-----------------|-------------------|-------------------|
-----------5--------|--2----------------|--L----------------|
--------------------|-------------------|-------------------|


  H        H           H        H           W                 
--------------------|--------------------|-------------------|
--7--------5--------|--2-----------------|-------------------|
--------------------|-----------3--------|-------------------|
--------------------|--------------------|--2----------------|


  H                   H        H           H        H         
-------------------|--------------------|--------------------|
-------------------|--------------------|--------------------|
-------------------|--0--------2--------|--------------------|
--3----------------|--------------------|--0--------3--------|


  W                   W                   H        H         
-------------------|-------------------|--------------------|
-------------------|-------------------|--------------------|
-------------------|-------------------|--0--------2--------|
--2----------------|--3----------------|--------------------|


  H        H           W                H.            
--------------------|--------------------------------|
--------------------|--------------------------------|
--------------------|--2----------------L------------|
--0--------3--------|--------------------------------|


  W                H.               W                 H.            
--------------------------------|----------------------------------|
--------------------------------|----------------------------------|
--L----------------L------------|--(2)----------------L------------|
--------------------------------|----------------------------------|


  W                H.                                                    
--------------------------------|
--------------------------------|
--L----------------L------------|
--------------------------------|

_____________________________________________________________________________
	
1:27


  E  E  E  E  E  E  E  E  E  E  E  E  E  E   
--------------------------------------------|
-----4--5-----2--4-----0--2-----------------|
--2--------2--------2--------2--4--5--2--2--|
--------------------------------------------|


  E  E  E  E  E  E  E  E  E  E  E  E  E  E   
--------------------------------------------|
-----4--5-----2--4-----0--2--------------7--|
--2--------2--------2--------2--4--5--8-----|
--------------------------------------------|


  E  E  E  E  E  E  E  E  E  E  E  E  E  E   
--------------------------------------------|
-----4--5-----2--4-----0--2-----------------|
--2--------2--------2--------2--4--5--2--2--|
--------------------------------------------|
					      
					      1:39


  E  E  E  E  E  E  E  E  E  E  E  E  E  E     E  E  E  E  E  E  E  E   
--------------------------------------------|--------------------------|
-----4--5-----2--4-----0--2--------------7--|-----4--5-----2--4-----0--|
--2--------2--------2--------2--4--5--8-----|--2--------2--------2-----|
--------------------------------------------|--------------------------|


  E  E  E  E  E  Q.        E  E  E  E  E  E  E  E     E  E  E  E  Q     
------------------------|--------------------------|-------------------|
--2--------------0------|-----4--5-----2--4-----0--|--2-----------3----|
-----2--4--5--2---------|--2--------2--------2-----|-----2--4--5-------|
------------------------|--------------------------|-------------------|


  E  E  E  E  E  E  E  E     E  E  E  E  E  Q.        E  E  E  E  E  E  E  E   
--------------------------|------------------------|--------------------------|
-----4--5-----2--4-----0--|--2--------------0------|-----4--5-----2--4-----0--|
--2--------2--------2-----|-----2--4--5--2---------|--2--------2--------2-----|
--------------------------|------------------------|--------------------------|

                    1:53


  E  E  E  E  Q       E  E  E  E  E  E  E  E  E  E  E  E  E  E   
-------------------|--------------------------------------------|
--2-----------3----|-----4--5-----2--4-----0--2-----------------|
-----2--4--5-------|--2--------2--------2--------2--4--5--2--5--|
-------------------|--------------------------------------------|


  E  E  E  E  E  E  E  E  E  E  E  E  E  E   
--------------------------------------------|
-----4--5-----2--4-----0--2-----------------|
--2--------2--------2--------2--4--5--2--5--|
--------------------------------------------|


  E  E  E  E  E  E  E  E  E  E  E  E  E  E   
--------------------------------------------|
-----4--5-----2--4-----0--2-----------------|
--2--------2--------2--------2--4--5--2--5--|
--------------------------------------------|


  E  E  E  E  E  E  E  E  E  E  E  E  E  E   
--------------------------------------------|
-----4--5-----2--4-----0--2--------------0--|
--2--------2--------2--------2--4--5--2-----|
--------------------------------------------|

_____________________________________________________________________________

2:05

  E  E   Q     E  E  E  E  E   E   E   E  Q      
--------11--------9-----------11--11------9\----|
--------------12--------9--9----------12--------|
------------------------------------------------|
--7--7------------------------------------------|


  E  E   Q     E  E  E  E  E   E   E   E  Q      
--------11--------9-----------11--11------9\----|
--------------12--------9--9----------12--------|
------------------------------------------------|
--7--7------------------------------------------|

_____________________________________________________________________________

2:12

  Q    Q    Q    Q    Q    E  E  E  E   
---------------------------------------|
---------------------------------------|
--2----2----2----2----2----2--5--6--7--|
---------------------------------------|


  E  E  E  E  Q     E  E  E  E  E  E  Q     
-------------------------------------------|
-------------------------------------------|
--2--------------------------------5--5----|
--------5-----7\-------0--0--2--0----------|


  Q    Q    Q    Q    Q    E  E  E  E   
---------------------------------------|
---------------------------------------|
--2----2----2----2----2----2--5--6--7--|
---------------------------------------|


  E  E  E  E  Q     E  E  E  E  E  E  E   E   
---------------------------------------------|
---------------------------------------------|
--2--------------------------------5--5h--7--|
--------5-----7\-------0--0--2--0------------|

2:24

  E  E  E  E  Q    Q    Q    E  E  E  E   
-----------------------------------------|
-----------------------------------------|
--2--------------------------------------|
--------5-----7---------5----7--0--5--7--|


  E  E  E  E  Q    Q    Q    E  E  E  E   
-----------------------------------------|
-----------------------------------------|
--2--------------------------------------|
--------5-----7---------5----7--0--5--7--|


  E  E  E  E  Q    Q    Q    E  E  E  E   
-----------------------------------------|
-----------------------------------------|
--2--------------------------------------|
--------5-----7---------5----7--0--5--7--|


                                   |-3-|     
  Q    E  E  E  Q    Q    E  E  E  S S S E   
--------------------------------------------|
--------------------------------------------|
--2--------------------------5--7--5-7-5----|
-------5-----7-------5----7--------------7--|

2:36

  Q    E  E  E   E  E  Q    E  E  E  E  E   
-------------------------------------------|
--9-------9---------9----------------------|
----------------------------------5--------|
-------7-----5s--7-----5----7--7-----0--2--|


  Q    E  E  E   E  E  Q    E  E  E  E  E   
-------------------------------------------|
--9-------9---------9----------------------|
----------------------------------5--7--9--|
-------7-----5s--7-----5----7--7-----------|


  Q    E  E  E   E  E  Q    E  E  S  S E  E   
---------------------------------------------|
--9-------9---------9----------9-------------|
----------------------------------5h-7-5-----|
-------7-----5s--7-----5----7-------------7--|

					    2:48

  Q    E  E  E   E  E  Q    E  E  E  E  E     E  E  E  E  E  S S E  E   
-------------------------------------------|---------------------------|
--9-------9---------9----------------------|--------4-----6--4-4----7--|
----------------------------------5--------|--4--4-----4---------4-----|
-------7-----5s--7-----5----7--7-----0--2--|---------------------------|


  E  E  E   E   E   E   E   E   E     E  E  E  E  E  S S E  E   
-----------------------------------|---------------------------|
-----6-----------------11--14--12--|--------4-----6--4-4----7--|
--4-----7--11--12--14--------------|--4--4-----4---------4-----|
-----------------------------------|---------------------------|


  E  E  E  E  E  E  E  E  E     E  E  E  E  E  S S E  E   
-----------------------------|---------------------------|
-----6-----------------------|--------4-----6--4-4----7--|
--4-----------------4--7--5--|--4--4-----4---------4-----|
--------0--4--5--7-----------|---------------------------|


  E  E  E  E  E  E  E  E  E     E  E  E  E  E  S S E   E   
-----------------------------|----------------------------|
-----6-----------------------|--------7-----9--7-7----10--|
--4-----7-----------4--7--5--|--7--7-----7---------7------|
-----------4--5--7-----------|----------------------------|


  E  E   E  E  E   E  E   E  E     E  E  E  E  E  S S E  E   
--------------------------------|---------------------------|
-----9--------------------------|--------7-----9--7-7-------|
--7-----10------------7--10--8--|--7--7-----7---------7-----|
------------7--8--10------------|------------------------8--|


  E  E  E  E  E   E  E   E  E     E  E  E  E  E  S S E  E   
-------------------------------|---------------------------|
-----9-------------------------|---------------------------|
--7------------------7--10--8--|---------------------------|
--------3--7--8--10------------|--0--0--5--0--7--5-5-0--8--|


  E  E  E  E  E   E  E  E  E     E  E  E  E  E  S S E  E   
------------------------------|---------------------------|
--------5---------------------|--------4-----6--4-4----7--|
---------------------7--------|--4--4-----4---------4-----|
--0--7-----7--8--10-----3--1--|---------------------------|


  E  E  E   E   E   E   E   E   E     E  E  E  E  E  S S E  E   
-----------------------------------|---------------------------|
-----6-----------------11--14--12--|--------4-----6--4-4----7--|
--4-----7--11--12--14--------------|--4--4-----4---------4-----|
-----------------------------------|---------------------------|


  E  E  E  E  E  E  E  E  E     E  E  E  E  E  S S E  E   
-----------------------------|---------------------------|
-----6-----------------------|--------4-----6--4-4----7--|
--4-----------------4--7--5--|--4--4-----4---------4-----|
--------0--4--5--7-----------|---------------------------|


  E  E  E  E  E  E  E  E  E     E  E  E  E  E  S S E   E   
-----------------------------|----------------------------|
-----6-----------------------|--------7-----9--7-7----10--|
--4-----7-----------4--7--5--|--7--7-----7---------7------|
-----------4--5--7-----------|----------------------------|


  E  E   E  E  E   E  E   E  E     E  E  E  E  E  S S E  E   
--------------------------------|---------------------------|
-----9--------------------------|--------7-----9--7-7-------|
--7-----10------------7--10--8--|--7--7-----7---------7-----|
------------7--8--10------------|------------------------8--|


  E  E  E  E  E   E  E   E  E     E  E  E  E  E  S S E  E   
-------------------------------|---------------------------|
-----9-------------------------|---------------------------|
--7------------------7--10--8--|---------------------------|
--------3--7--8--10------------|--0--0--5--0--7--5-5-0--8--|

			       3:30

  E  E  E  E  E  E  E  E  E      H.            E  E   
-----------------------------|-----------------------|
--------5--------------------|-----------------------|
-----------------5-----------|--(4)---------------5--|
--0--7-----7--8-----0--3--2--|-----------------------|


  E  Q    E  E  E  E  E  E      H.            E  E   
----------------------------|-----------------------|
----------------------------|-----------------------|
-----7-------------4--7--5--|-----------------------|
----------4--5--7-----------|--(4)------------L--0--|


  E  Q     E   E   E   E   E   E     H.           E  Q     
----------------------------------|-----------------------|
----------------------11--14--12--|-----------------------|
-----2----11--12--14--------------|--4---------------5----|
----------------------------------|-----------------------|

			   3:42

  Q    E  E  E  E  E  E     Q    E  E  Q     E  E   
-------------------------|----------------------8--|
-------------------------|----------7--6----10-----|
----------------4--7--6--|--5----9-----------------|
--0----4--5--7-----------|-------------------------|


  Q     E   E   Q     E   E      Q.     Q     
--7----11--14--------17--20--|--19-----------|
---------------18------------|---------------|
-----------------------------|---------------|
-----------------------------|---------------|


   S  S  S  S  S  S  S  S S S S S S S S S S    E  Q    S S Q    E  S S  
--20-18-17----------------------------------|--------------------------|
-----------19-18-16---------4---4-----------|--------------------------|
--------------------18-16-0---6---6-4-3-----|--------------------------|
----------------------------------------5-4-|--2-------2-2-2-------2-2-|

_____________________________________________________________________________
	ii. Innocence
_____________________________________________________________________________

3:50

  Q    Q    Q      Q        Q    Q    S S E  S S E     Q    Q    Q      Q      
-------------------------|--------------------------|-------------------------|
-------------------------|--------------------------|-------------------------|
-------------------------|----------------5------5--|-------------------------|
--2----2----0----4g7\----|--2----2----4-4----3-3----|--2----2----0----4g7\----|


  Q    Q    S S E  Q       Q    Q    Q      Q        Q    Q    S S E  S S E   
------------------------|-------------------------|--------------------------|
------------------------|-------------------------|--------------------------|
----------------5-------|-------------------------|----------------5------5--|
--2----2----4-4----3----|--2----2----0----4g7\----|--2----2----4-4----3-3----|

                                                  4:09

  Q    Q    Q      Q        Q    Q    Q    Q       H        E  Q    E   
-------------------------|----------------------|----------------------|
-------------------------|----------------------|----------------------|
-------------------------|-----------------5----|--2-------------------|
--2----2----0----4g7\----|--2----2----0---------|--------------5----7--|


  E  E  E  Q    E  Q        H          H             H          H          
------------------------|------------------------|------------------------|
------------------------|------------------------|------------------------|
------------------------|------------------------|-------------(5)--------|
--L--5--7--7----5--7----|--(5)--------(3)--------|--(0)-------------------|


   H         E  Q    E     E  E  S S Q    E  Q        H          H          
------------------------|-------------------------|------------------------|
------------------------|-------------------------|------------------------|
--(2)-------------------|-------------------------|------------------------|
----------------5----7--|--L--5--7-5-7----5--7----|--(5)--------(3)--------|

			 4:27

   H          H             H.                H          H         E   
------------------------|-----------------|---------------------------|
------------------------|-----------------|---------------------------|
-------------(3)--------|-----------------|------------------------0--|
--(0)-------------------|--(2)------------|--(3)--------(3)-----------|


  Q.     Q.        E  H        Q.     E      H.             
----------------|------------------------|-----------------|
----------------|------------------------|-----------------|
--0------2------|--2---------------------|-----------------|
----------------|-----0--------3------3--|--(2)------------|


   H          H         E     Q.     Q.        E  H        Q.     E   
---------------------------|----------------|------------------------|
---------------------------|----------------|------------------------|
------------------------0--|--0------2------|--L---------------------|
--(3)--------(3)--------L--|----------------|-----0--------3------3--|

4:44

   H.                W                 E      H.             
-----------------|------------------------|-----------------|
-----------------|------------------------|-----------------|
-----------------|------------------------|--(0)------------|
--(2)------------|--(3)----------------3--|-----------------|


   H         E  E  E  E  E      H.                H         Q    Q    S S  
-------------2-----2--4-----|-----------------|---------------------------|
----------------4--------4--|-----------------|---------------------------|
--(2)-----------------------|-----------------|---------------------------|
----------------------------|--(2)------------|--(3)--------3---------3-3-|

						5:00

   H.                H         S S  S S  Q       H        E  E  E  E   
-----------------|----------------------------|-----------------------|
-----------------|----------------------------|-----------------------|
--(0)------------|-------------8-7------------|--2--------------------|
-----------------|--(0)------------10-8-10----|--------------5--5--7--|


  E  E  S S Q    E  Q        H          H            Q.     Q.     Q.      
-------------------------|------------------------|-----------------------|
-------------------------|------------------------|--2--------------------|
-------------------------|------------------------|---------5------3------|
--L--5--7-5-7----5--7----|--(5)--------(3)--------|-----------------------|


  H        E  E  E  E     E  E  S S Q    E  Q        H          H          
-----------------------|-------------------------|------------------------|
--9--------------------|-------------------------|------------------------|
-----------------------|-------------------------|------------------------|
--------------5--5--7--|--L--5--7-5-7----5--7----|--(5)--------(3)--------|

			5:19

  Q.     Q.     Q.        Q    Q    Q      Q        Q    Q    S E  S S E  S  
-----------------------|-------------------------|--------------------------|
--2------0------2------|-------------------------|--------------------------|
-----------------------|-------------------------|--------------------------|
-----------------------|--2----2----0----2g7\----|--2----2----4-5--4-3-3--3-|

						   5:29

  Q    Q    Q      Q        Q    Q    S S E  Q       E  S S E  E  E  E   
-------------------------|------------------------|---------4--------2--|
-------------------------|------------------------|-----4-4----4--------|
-------------------------|----------------5-------|---------------------|
--2----2----0----2g7\----|--2----2----4-4----3----|--2------------2-----|


  E  S S E  E  E  E  E  E  E     E  S S E  E  E  E   
---------4--------2-----------|---------4--------2--|
-----4-4----4--------2--------|-----4-4----4--------|
------------------------------|---------------------|
--2------------2--------3--2--|--2------------2-----|


  E  S S E  E  E  E  E  E  E     E  S S E  E  E  E   
---------4--------2-----------|---------4--------2--|
-----4-4----4--------2--------|-----4-4----4--------|
------------------------------|---------------------|
--2------------2--------3--2--|--2------------2-----|


  E  S S E  E  E  E  E  E  E     E  S S E  E  E  E   
---------4--------2-----------|---------4--------2--|
-----4-4----4--------2--------|-----4-4----4--------|
------------------------------|---------------------|
--2------------2--------3--2--|--2------------2-----|


  E  S S E  E  E  E  E  E  E     E  S S E  E  E  E  E  S S  
---------4--------2-----------|---------4--------2-----4-4-|
-----4-4----4--------2--------|-----4-4----4---------------|
------------------------------|----------------------------|
--2------------2--------3--2--|--2------------2-----2------|


  E  E  E  E  E  E  E     E  S S E  E  E  E  E  S S    E  E  E  E  E  E  E   
--4--------2-----------|---------4--------2-----4-4-|--4--------2-----------|
-----4--------2--------|-----4-4----4---------------|-----4--------2--------|
-----------------------|----------------------------|-----------------------|
--------2--------2--3--|--2------------2-----2------|--------2--------2--2--|


  E  S S E  E  E  E  E  S S    E  E  E  E  E  E  E   
---------4--------2-----4-4-|--4--------2-----------|
-----4-4----4---------------|-----4--------2--------|
----------------------------|-----------------------|
--2------------2-----2------|--------2--------2--3--|


  E  S S E  E  E  E  E  S S    E  E  E  E  E  E  E     E  S S E  E  E  E   
---------4--------2-----4-4-|--4--------2-----------|---------4--------2--|
-----4-4----4---------------|-----4--------2--------|-----4-4----4--------|
----------------------------|-----------------------|---------------------|
--2------------2-----2------|--------2--------2--2--|--2------------2-----|


  E  S S E  E  E  E  E  E  E     E  S S E  E  E  E   
---------4--------2-----------|---------4--------2--|
-----4-4----4--------2--------|-----4-4----4--------|
------------------------------|---------------------|
--2------------2--------2--3--|--2------------2-----|


  E  S S E  E  E  E  E  E  E     E  S S E  E  E  E   
---------4--------2-----------|---------4--------2--|
-----4-4----4--------2--------|-----4-4----4--------|
------------------------------|---------------------|
--2------------2--------2--2--|--2------------2-----|


  E  S S E  E  E  E  E  E  E     E  S S E  E  E  E   
---------4--------2-----------|---------4--------2--|
-----4-4----4--------2--------|-----4-4----4--------|
------------------------------|---------------------|
--2------------2--------2--3--|--2------------2-----|

_____________________________________________________________________________

6:12

  E  S S S S S S S S S S S S E  E      H.                W                 E   
-------9-6-------------------------|-----------------|------------------------|
-----9-----7---9-7-----------------|-----------------|------------------------|
-------------9-----7---9-7---------|-----------------|------------------------|
--2------------------9-----7-5--4--|--(2)------------|--(3)----------------3--|


   H.                H         E  E  E  E  E      H.             
-----------------|-------------2-----2--4-----|-----------------|
-----------------|----------------4--------4--|-----------------|
--(0)------------|--(2)-----------------------|-----------------|
-----------------|----------------------------|--(2)------------|


   H         Q    Q    S S     H.                H         S S  S S  Q     
---------------------------|-----------------|----------------------------|
---------------------------|-----------------|----------------------------|
---------------------------|--(0)------------|-------------8-7------------|
--(3)--------3---------3-3-|-----------------|--(0)------------10-7-10----|

6:30

  H        E  E  E  E     E  E  S S Q    E  Q        H          H          
-----------------------|-------------------------|------------------------|
-----------------------|-------------------------|------------------------|
--2--------------------|-------------------------|------------------------|
--------------5--5--7--|--L--5--7-5-7----5--7----|--(5)--------(3)--------|


  Q.     Q.     Q.        H        E  E  E  E     E  E  S S Q    E  E.  S  
-----------------------|-----------------------|--------------------------|
--2--------------------|--9--------------------|--------------------------|
---------5------3------|-----------------------|--------------------------|
-----------------------|--------------5--5--7--|--L--5--7-5-7----5--7---5-|


   H          H            Q.     Q.     Q.         W                  
------------------------|-----------------------|---------------------|
------------------------|----------------7------|---------------------|
------------------------|--7------5-------------|---------------------|
--(5)--------(3)--------|-----------------------|--(0)----------------|


   W                    W                                     
---------------------|-------------------|-------------------|
---------------------|-------------------|-------------------|
---------------------|-------------------|-------------------|
--(0)----------------|--L----------------|-------------------|

_____________________________________________________________________________
	iii. Carpe Diem
_____________________________________________________________________________
 

(rest)


(barely audible for a few bars)


  H        Q        H         Q        H.                 H.             
----------------|------------------|-----------------|------------------|
----------------|------------------|-----------------|--(13)------------|
-----------7----|--(8)--------7----|--(6)------------|------------------|
----------------|------------------|-----------------|------------------|


   H         Q        H         Q        H         Q        H.             
------------------|------------------|------------------|-----------------|
------------------|------------------|------------------|-----------------|
--(5)-------------|--(5)-------------|--(5)-------------|--(5)------------|
------------------|------------------|------------------|-----------------|


  H.              H.              H.               H.             
---------------|---------------|---------------|-----------------|
---------------|---------------|---------------|-----------------|
--L------------|--L------------|--L------------|-----------------|
---------------|---------------|---------------|--(5)------------|


   H.                H.                H.               H.            
-----------------|-----------------|-----------------|---------------|
-----------------|-----------------|-----------------|---------------|
--(5)------------|--(5)------------|--(5)------------|--L------------|
-----------------|-----------------|-----------------|---------------|


   H.                H.                H.                H.             
-----------------|-----------------|-----------------|-----------------|
-----------------|-----------------|-----------------|-----------------|
--(5)------------|--(5)------------|--(3)------------|--(0)------------|
-----------------|-----------------|-----------------|-----------------|


   H.               H.               H.                H.             
-----------------|---------------|-----------------|-----------------|
-----------------|---------------|-----------------|-----------------|
--(1)------------|--L------------|--(3)------------|--(0)------------|
-----------------|---------------|-----------------|-----------------|


   H.               H.               H.               Q.     Q     
-----------------|---------------|-----------------|--------------|
-----------------|---------------|-----------------|--------------|
--(1)------------|--L------------|-----------------|--------------|
-----------------|---------------|--(2)------------|--0------3----|


   H.               Q.     Q        H.               Q.      Q     
-----------------|--------------|-----------------|---------------|
-----------------|--------------|-----------------|---------------|
-----------------|--------------|-----------------|--7------------|
--(2)------------|--0------3----|--(2)------------|---------10----|


   H.                Q.      Q        H.                Q.      Q     
-----------------|----------------|-----------------|----------------|
-----------------|----------------|-----------------|----------------|
-----------------|----------------|-----------------|----------------|
--(8)------------|--10------10----|--(8)------------|--10------10----|

				8:30
  H.                               H.               H.            
---------------|---------------|-----------------|---------------|
---------------|---------------|-----------------|---------------|
---------------|---------------|-----------------|---------------|
--8------------|---------------|--(3)------------|--L------------|


   H.               H.               H.               H.            
-----------------|---------------|-----------------|---------------|
-----------------|---------------|-----------------|---------------|
-----------------|---------------|-----------------|---------------|
--(2)------------|--L------------|--(1)------------|--L------------|


   H.               H.              W                Q     
-----------------|---------------|------------------------|
-----------------|---------------|------------------------|
-----------------|---------------|------------------------|
--(0)------------|--L------------|------------------------|


_____________________________________________________________________________

(rest)
8:07

  S  S S  E.  S S   S  S S S  H         
---------------------------------------|
--7h-9-7------7-9h-10p-9-7-9~-L--------|
---------10----------------------------|
---------------------------------------|


  E    E    W                         H.             Q    S  E.   
------------------------------|-----------------------------19---|
--9h--10--(10)----------------|--10g(14)------------14------19---|
------------------------------|----------------------------------|
------------------------------|----------------------------------|


  E   E    H.             Q          Q     E.  E.  E   E  E.  E.   
--L--17--(17)------------17S----|--(16)----------------L----------|
--L--17--(17)------------17-----|---------------------------------|
--------------------------------|----------0---0---0------0---0---|
--------------------------------|---------------------------------|


    Q      E.  E.  E   E  E.  E.       Q     E.  E.  E   E  E.  E.   
--(20)b----------------L----------|--(19)---------------------------|
----------------------------------|---------------------------------|
----0------0---0---0------0---0---|----0-----0---0---0------0---0---|
----------------------------------|---------------------------------|

9:27

  Q    E.  E.  Q    E.  E.      S S S S S S S S E  E  E  S S S S E   
-----------------------------|--------------------------------------|
-----------------------------|--------------------------------------|
--8----8---8---8----8---8\---|--0-0-0-0-0-0-0-0----0-----0-0-0-0----|
-----------------------------|--------------------------------------|


  S S S S S S S S E  E  E  S S S S E     S S S S S S S S E  E  E  S S S S E   
--------------------------------------|--------------------------------------|
--------------------------------------|--------------------------------------|
--0-0-0-0-0-0-0-0----0-----0-0-0-0----|--0-0-0-0-0-0-0-0----0-----0-0-0-0----|
--------------------------------------|--------------------------------------|


  S S S S S S S S E  E  E  S S S S E     S S S S S S S S E  E  E  S S S S E   
--------------------------------------|--------------------------------------|
--------------------------------------|--------------------------------------|
--0-0-0-0-0-0-0-0----0-----0-0-0-0----|--0-0-0-0-0-0-0-0----0-----0-0-0-0----|
--------------------------------------|--------------------------------------|


  S S S S S S S S E  E  E  S S S S E     S S S S S S S S E  E  E  S S S S E   
--------------------------------------|--------------------------------------|
--------------------------------------|--------------------------------------|
--0-0-0-0-0-0-0-0----0-----0-0-0-0----|--0-0-0-0-0-0-0-0----0-----0-0-0-0----|
--------------------------------------|--------------------------------------|


  S S S S S S S S H        Q       S S S S S S S S S S S S S  S S S S  S S S  
--------------------------------|--------------------------------------------|
--------------------------------|--------------------------5h-7-7-7-5h-7-7-7-|
--------------------------------|--0-0-0-0-0-0-0-0-0-0-0-0-------------------|
--1-1-1-1-1-1-1-1---------------|--------------------------------------------|


  S S S S S S S S S S S S S S S S S S S S  
------------------------------------------|
------------------------------------------|
--2-2-2-2-2-2-2-2-2-2-2-2-2-2-2-2-2-2-2-2-|
------------------------------------------|


  S S S S S S S S S S S S S S S S S S S S  
------------------------------------------|
------------------------------------------|
--3-3-3-3-3-3-3-3-3-3-3-3-3-3-3-3-3-3-3-3-|
------------------------------------------|


  S S S S S S S S S S S S S S S S S S S S  
------------------------------------------|
------------------------------------------|
--5-5-5-5-5-5-5-5-5-5-5-5-5-5-5-5-5-5-5-5-|
------------------------------------------|


  S S S S S S S S S S S S S S S S S S S S  
------------------------------------------|
------------------------------------------|
--7-7-7-7-7-7-7-7-7-7-7-7-7-7-7-7-7-7-7-7-|
------------------------------------------|


  S S S S S S S S S S S S S S S S S S S S  
------------------------------------------|
------------------------------------------|
--8-8-8-8-8-8-8-8-8-8-8-8-8-8-8-8-8-8-8-8-|
------------------------------------------|


  S S S S S S S S S S S S S S S S S S S S    S S S S S S S S E  E  E  E  E  E   
------------------------------------------|------------------------------------|
------------------------------------------|------------------------------------|
--5-5-5-5-5-5-5-5-5-5-5-5-5-5-5-5-5-5-5-5-|------------------------------------|
------------------------------------------|--1-1-1-1-1-1-1-1----1-----1-----1--|

_____________________________________________________________________________
	iv. The Darkest of Winters
_____________________________________________________________________________


10:09

  S S S S E.  S S S S E  E  E  S S S    S S S S E.  S S S S E  E  E  S S S  
-------------------------------------|-------------------------------------|
-------------------------------------|-------------------------------------|
--------4-3-------4-5----------------|--------4-3-------4-5----------------|
--2-0-2-------2----------3-----2-3-5-|--2-0-2-------2----------3-----2-3-5-|


  S S S S E.  S S S S E  E  E  S S S    S S S S E.  S S S S E  E  E  S S S  
-------------------------------------|-------------------------------------|
-------------------------------------|-------------------------------------|
--------4-3-------4-5----------------|--------4-3-------4-5----------------|
--2-0-2-------2----------3-----2-3-5-|--2-0-2-------2----------3-----2-3-5-|


  S S S  S  E.  E   S  Q     E.  S  S  S  
-----------------------------------------|
-----------------------------------------|
--------11-10------11-12---------9-------|
--9---9---------9-----------10-----12-10-|


  S S S  S  E.  E   S Q     E.   S  S S  
----------------------------------------|
----------------------9-----------------|
--------11-12------12-----------12-11-9-|
--9---9---------9----------10-----------|


  S S S  S E.  E  S  Q     E.  S  S  S    S S S S  E.  E   S  Q    S S  
-----------9------9-11---------9-------|--------9-11------11-12----L---|
--------12----------------10-----12-11-|-------------------------------|
--9---9--------9-----------------------|--9---9--------9-------------9-|
---------------------------------------|-------------------------------|

					10:31

                    |--3--|  |--3--|     |--3--|  |--3--|  |--3--|  |--3--|   
  Q    Q    Q       E  E  E  E  E  E     E  E  E  E  E  E  E  E  E  E  E  E   
-----------------|--------------------|--------------------------------------|
-----------------|--------------------|-----------6-----------------6--------|
--9----7----5----|--9-----7-----5--5--|--4--4--4--------4--4--4--4--------4--|
-----------------|--------------------|--------------------------------------|


  |--3--|  |--3--|  |--3--|  |--3--|     |--3--|  |--3--|  |--3--|  |--3--|   
  E  E  E  E  E  E  E  E  E  E  E  E     E  E  E  E  E  E  E  E  E  E  E  E   
-----------------------------4--------|--------------------------------------|
-----------7--------------------------|-----------6-----------------6--------|
--4--4--4--------4--4--4--4--------4--|--4--4--4--------4--4--4--4--------4--|
--------------------------------------|--------------------------------------|


  |--3--|  |--3--|  |--3--|  |--3-|                       
  E  E  E  E  E  E  E  E  E  Q    E                       
-------------------------------------|-------------------|
-----------7-------------------------|-------------------|
--4--4--4--------4-----------7----7--|-------------------|
--------------------0--0--0----------|-------------------|

_____________________________________________________________________________

10:40

  E  E  E  E  E  E  E  E     E  E  E  E  E  E  E  E   
--------------------------|--------------------------|
--------------------------|--------------------------|
--------------------------|-----2-----1--------------|
--2--2--2--2--3--0--2--3--|--------3-----2--3--2--0--|


  E  E  E  E  E  E  E  E     E  E  E  E  E  E  E  E   
--------------------------|--------------------------|
-----------------------4--|-----3-----2--------------|
--------------------2-----|--2-----5-----4--0--------|
--2--2--2--2--3--0--------|--------------------4--3--|


  E  E  E  E  E  E  E  E     E  E  E  E  E  E  E  E   
--------------------------|--------------------------|
--------------------------|--------------------------|
--------------------------|-----2-----1--------------|
--2--2--2--2--3--0--2--3--|--------3-----2--3--2--0--|


  E  E  E  E  E  E  E  E     E  E   E  E  E  E  E  E   
--------------------------|---------------------------|
--------------------------|---------------------------|
-----------------------4--|-----5s--4--2--0-----------|
--2--2--2--2--3--0--2-----|--2---------------4--3--2--|

10:53

                     PM PM                             
  E  E  E  E  E   E  E  E     E  E  E  E  E  E  E  E   
---------------------------|--------------------------|
---------------------------|-----5--------------------|
--------------7p--5-----5--|--7-----7--5--------------|
--0--0--0--0---------7-----|--------------7--6--5--3--|


    E  E  E  E  E   E  E  E      E  E  E   E  E  E    E  E   
------------------------------|-----------------------------|
------------------------------|-----------------------------|
--5g7--7--7--7--7s--5-----5s--|--4-----4s--2-------------5--|
-----------------------7------|-----5---------3--0--5g7-----|


  E  E  E  E  E   E  E  E     E  E  E  E  S S E  S S E   
---------------------------|----------------------------|
---------------------------|-----5----------------------|
--7--7--7--7--7p--5-----5--|--7-----7--5----------------|
---------------------7-----|--------------7-7-6--3-3-0--|


    E  E  E  E  E   E  E  E     E  E  E  E  E  Q.      
-----------------------------|------------------------|
-----------------------------|------------------------|
--5g7--7--7--7--7p--5-----5--|------------------------|
-----------------------7-----|-----6-----5-----3------|

11:05

  E  E  E  E  E  E  E  E     E  E  E  E  E  E  E  E   
--------------------------|--------------------------|
--------------------------|--------------------------|
--------------------------|-----2-----1--------------|
--2--2--2--2--3--0--2--3--|--------3-----2--3--2--0--|


  E  E  E  E  E  E  E  E     E  E  E  E  E  E  E  E   
--------------------------|--------------------------|
-----------------------4--|-----3-----2--------------|
--------------------2-----|--2-----5-----4--0--------|
--2--2--2--2--3--0--------|--------------------4--3--|


  E  E  E  E  E  E  E  E     Q    Q    E   S  S E  E   
--------------------------|---------------------------|
--------------------------|---------------------------|
--------------------------|-------2----0h--1p-0-------|
--2--2--2--2--3--0--2--3--|---------------------2--0--|


  E  E  E  E  E  E  E  E     E  E  E  E  E  E  E  E   
--------------------------|-----------4--5-----------|
-----------------------4--|--5-----------------------|
--------------------2-----|-----0--1--------4--5--6--|
--2--2--2--2--3--0--------|--------------------------|

11:17

  E  S S E  E  E   E  E  E     E  E  E  E  E  E  E  E   
----------------------------|--------------------------|
----------------------------|-----5--------------------|
--7--7-7-7--7--7p--5-----5--|--7-----7--5--------------|
----------------------7-----|--------------7--6--5--3--|


    E  E  E  E  E   E  E  E      E  E  E   E  E  E    E  S S  
------------------------------|------------------------------|
------------------------------|------------------------------|
--5g7--7--7--7--7p--5-----5s--|--4-----4s--2-------------5-6-|
-----------------------7------|-----5---------3--0--5g7------|


  E  E  E  E  E   E  E  E     E  E  E  E  S S E  S S E   
---------------------------|----------------------------|
---------------------------|-----5----------------------|
--7--7--7--7--7p--5-----5--|--7-----7--5----------------|
---------------------7-----|--------------7-7-6--3-3-0--|


    E  E  E  E  E   E  E  E     E  E  E  E  E  Q.      
-----------------------------|------------------------|
-----------------------------|------------------------|
--5g7--7--7--7--7p--5-----5--|------------------------|
-----------------------7-----|-----6-----5-----3------|

10:30


  E  E  E  E  E  E  E  E     E  E  E  E  E  E  E  E   
--------------------------|--------------------------|
--------------------------|--------------------------|
--------------------------|-----2-----1--------------|
--2--2--2--2--3--0--2--3--|--------3-----2--3--2--0--|


  E  E  E  E  E  E  E  E     E  E  E  E  E  E  E  E   
--------------------------|--------------------------|
-----------------------4--|-----3--------------------|
--------------------2-----|--2-----5-----------------|
--2--2--2--2--3--0--------|-----------3--2--5--4--3--|


  E  E  E  E  E  E  E  E     E  E  E  E  E  E  E  E   
--------------------------|--------------------------|
--------------------------|--------------------------|
--------------------------|-----2-----1--------------|
--2--2--2--2--3--0--2--3--|--------3-----2--3--2--0--|


  E  E  E  E  E  E  E  E     E  E  H.              E  E  E  E  E  E  E  E   
--------------------------|---------------------|--------------------------|
-----------------------4--|-----3---------------|--------------------------|
--------------------2-----|--2-----5------------|--------------------------|
--2--2--2--2--3--0--------|---------------------|--2--2--2--2--3--0--2--3--|


  E  E  E  E  E  E  E  E     E  E  E  E  E  E  E  E   
--------------------------|--------------------------|
--------------------------|-----------------------4--|
-----2-----1--------------|--------------------2-----|
--------3-----2--3--2--0--|--2--2--2--2--3--0--------|


  E  E  E  E  E  E  E  E     E  E  E  E  E  E  E  E   
--------------------------|--------------------------|
-----3--------------------|--------------------------|
--2-----5--------5--4--3--|--------------------------|
-----------3--2-----------|--2--2--2--2--3--0--2--3--|


  E  E  E  E  E  E  E  E     E  E  E  E  E  E  E  E   
--------------------------|--------------------------|
--------------------------|-----------------------2--|
-----2-----1--------------|--------------------2-----|
--------3-----2--3--2--0--|--2--2--2--2--3--0--------|


  E  E  E  E  E  E  E  E     E  E  E  E  E  E  E  E   
--------------------------|--------------------------|
-----2--------------------|--------------------------|
--5-----5-----5--5--5--5--|--------------------------|
-----------3--------------|--2--2--2--2--3--0--2--3--|


  E  E  E  E  E  E  E  E     E  E  E  E  E  E  E  E   
--------------------------|--------------------------|
--------------------------|-----------------------4--|
-----2-----1--------------|--------------------2-----|
--------3-----2--3--2--0--|--2--2--2--2--3--0--------|


  E  E  E  E  E  E  E  E     E  E  E  E  E  E  E  E   
--------------------------|--------------------------|
-----3--------------------|--------------------------|
--2-----5--------5--4--3--|--------------------------|
-----------3--2-----------|--2--2--2--2--3--0--2--3--|


  E  E  E  E  E  E  E  E     E  E  E  E  E  E  E  E     E  E  E  E  H         
--------------------------|--------------------------|-----------------------|
--------------------------|-----------------------4--|-----3--2--------------|
-----2-----1--------------|--------------------2-----|--2--------5--L--------|
--------3-----2--3--2--0--|--2--2--2--2--3--0--------|-----------------------|

12:06

  E   E  E  E  Q    E  E     E   E  E  Q    E  E  S S  
--------------------------|---------------------------|
--------------------------|---------------------------|
--2h--4--4--4--4----4--4--|--2h--4--4--4----5--5--5-5-|
--------------------------|---------------------------|


  E   E  E  E  Q    E  E     E   E  S S Q    Q.        E   E  E  E  Q    E  E   
--------------------------|-------------------------|--------------------------|
--------------------------|-------------------------|--------------------------|
--2h--4--4--4--4----4--4--|--0h--2--2-2-2-----------|--2h--4--4--4--4----4--4--|
--------------------------|------------------2------|--------------------------|


  E   E  E  Q    E  E  S S    E   E  E  E  Q    E  E   
---------------------------|--------------------------|
---------------------------|--------------------------|
--2h--4--4--4----5--5--5-5-|--2h--4--4--4--4----4--4--|
---------------------------|--------------------------|

			  12:18

  E   E  S S Q    Q.        S S S S S S S S S S S S S S S S  
-------------------------|--6-7-6---------------------------|
-------------------------|--------9-7-6---6-7-9-7-6---6-7-9-|
--0h--2--2-2-2-----------|--------------9-----------9-------|
------------------2------|----------------------------------|


  S S S S S S S S S S S S S S S S    S S S S S S S S S S S S S S S S  
--6-7-6---------------------------|--6-7-6---------------------------|
--------9-7-6---6-7-9-7-6---6-7-9-|--------9-7-6---6-7-9-7-6---6-7-9-|
--------------9-----------9-------|--------------9-----------9-------|
----------------------------------|----------------------------------|


  S S S S S S S S S S S S S S S S    S S S S S S S S S S S S S S S S  
--6-7-6---------------6-7---------|--6-7-6---------------------------|
--------9-7-6---6-7-9-------6-7-9-|--------9-7-6---6-7-9-7-6---6-7-9-|
--------------9-----------9-------|--------------9-----------9-------|
----------------------------------|----------------------------------|


  S S S S S S S S S S S S S S S S    S S S S S S S  S S S S S S S S S  
--6-7-6---------------------------|--6-7-8-9--------------------------|
--------9-7-6---6-7-9-7-6---6-7-9-|----------7-8-9-10-3-4-5-6---------|
--------------9-----------9-------|---------------------------4-5-6-7-|
----------------------------------|-----------------------------------|


  S S S S S S S  S S S S S S S S S    H.              H.            
--6-7-8-9--------------------------|---------------|---------------|
----------7-8-9-10-3-4-5-6---------|---------------|---------------|
---------------------------4-5-6-7-|--4------------|--4------------|
-----------------------------------|---------------|---------------|


  H.              H.            
---------------|---------------|
---------------|---------------|
--4------------|--4------------|
---------------|---------------|

_____________________________________________________________________________

12:35

           ring to index                                                    
   |---3---|             |---3---|    |---3---|      |---3---|              
   E   E   E             E   E   E    E   E   E      E   E   E   Q    Q     
------16--------------------14-----------16------|--------------19---------|
--14------16s-----------12------12s--14------14--|------17-----------------|
-------------------------------------------------|--15------15-------------|
-------------------------------------------------|-------------------------|


   H          H             H          H             H          H          
------------------------|------------------------|------------------------|
------------------------|------------------------|------------------------|
--(4)--------(2)--------|------------------------|------------------------|
------------------------|--(2)--------(5)--------|--(0)--------(3)--------|

12:42

                                          S S S S S S S S S S S S S S S S  
-------------------|-------------------|----------------------------------|
-------------------|-------------------|----------------------------------|
-------------------|-------------------|--7-7-7-7-7-7-7-7-7-7-7-7-7-7-7-7-|
-------------------|-------------------|----------------------------------|


  S S S S S S S S S S S S S S S S    E  E  E  E  E  E  E  E   
----------------------------------|--------------------------|
----------------------------------|--------------------------|
--5-5-5-5-5-5-5-5-5-5-5-5-5-5-5-5-|-----2--5-----4--5--------|
----------------------------------|--3--------1--------0--5--|

_____________________________________________________________________________

12:51

                                                    H.             
-------------------|-------------------|-------|------------------|
-------------------|-------------------|-------|------------------|
-------------------|-------------------|-------|--(10)------------|
-------------------|-------------------|-------|------------------|


    H.                 H.                    H.                 H.             
--(14)------------|--(10)------------|--17g(19)------------|--(12)------------|
------------------|------------------|---------------------|------------------|
------------------|------------------|---------------------|------------------|
------------------|------------------|---------------------|------------------|

_____________________________________________________________________________
	v. Another World
_____________________________________________________________________________

		   13:02

    H.                H         E  Q.         H         E  E  E  E   
--(13)------------|-----------------------|-------------------------|
------------------|-----------------------|-------------------------|
------------------|-----------------------|--(3)--------3--3--3--3--|
------------------|--(0)--------0--0------|-------------------------|


  W                   W                    H         T T S S S T T S T T S  
-------------------|-------------------|-----------------------------------|
-------------------|-------------------|-----------------------------------|
--2----------------|--5----------------|-----------------------------------|
-------------------|-------------------|--(0)--------0-0-0-0-0-0-0-0-0-0-0-|


   W                     H         E  Q.         W                  
---------------------|-----------------------|---------------------|
---------------------|-----------------------|---------------------|
--(3)----------------|--(2)--------2--2------|--(5)----------------|
---------------------|-----------------------|---------------------|


  W                                                                             
-------------------|
-------------------|
--2----------------|
-------------------|

_____________________________________________________________________________

(rest)

13:53

         NH  NH   NH     NH                NH     NH  NH    NH      
  Q      S   E    S E    Q.        E.  S   E  S   S   S S   Q.      
-----------<>7------------------|--------<>7--------------<>7------|
-------<>7------<>7-L--<>5------|---------------<>7-<>7------------|
--------------------------------|----------------------------------|
--0-----------------------------|--8---8------8---------8----------|


       NH   NH   NH     NH               NH   NH           
  E    E    E    Q      Q.        Q      E    H        E   
---------------<>5-------------|-------<>7--<>5--------L--|
----------<>4---------<>4------|--------------------------|
-----<>5-----------------------|--5-----------------------|
--7----------------------------|--------------------------|


         NH  NH   NH     NH                NH     NH  NH    NH      
  Q      S   E    S E    Q.        E.  S   E  S   S   S S   Q.      
-----------<>7------------------|--------<>7--------------<>7------|
-------<>7------<>7-L--<>5------|---------------<>7-<>7------------|
--------------------------------|----------------------------------|
--0-----------------------------|--8---8------8---------8----------|


       NH   NH   NH     NH               NH   NH           
  E    E    E    Q      Q.        Q      E    H        E   
---------------<>5-------------|-------<>7--<>5--------L--|
----------<>4---------<>4------|--------------------------|
-----<>5-----------------------|--5-----------------------|
--7----------------------------|--------------------------|




14:20

  W                W                W                 W
----------------|----------------|-----------------|---------------|
----------------|----------------|-----------------|---------------|
--4-------------|----------------|-----------------|---------------|
----------------|--5-------------|--2--------------|--4------------|

  W                W                W                 W
----------------|----------------|-----------------|---------------|
----------------|----------------|-----------------|---------------|
--4-------------|----------------|-----------------|--2------------|
----------------|--5-------------|--2--------------|---------------|

14:49

  Q.     S S E  Q.      
-----------------------|
-----------------------|
-----------------------|
--0------L-0-0--0------|


  Q.     S S E  Q.        Q.     S S E  Q.        Q.     S S E  Q.      
-----------------------|-----------------------|-----------------------|
-----------------------|-----------------------|-----------------------|
--3--------3-3--3------|--2------L-2-2--2------|--5------L-5-5--5------|
-----------------------|-----------------------|-----------------------|


  Q.     S S E  Q.        Q.     S S E  Q.        Q.     S S E  Q.      
-----------------------|-----------------------|-----------------------|
-----------------------|-----------------------|-----------------------|
-----------------------|--3------L-3-3--3------|--2------L-2-2--2------|
--0------L-0-0--0------|-----------------------|-----------------------|

			   15:12

  Q.     S S E  E  Q        S S H.           S S    S S H.           E   
-------------------7\----|-----------------------|----------------------|
-------------------------|-----------------------|----------------------|
--5------L-5-5--5--------|-------------------0-2-|--3-3-----------------|
-------------------------|--0-0------------------|----------------------|




  E  H.           S S    E  E  H        Q        S S H.           S S  
----------------------|-----------------------|-----------------------|
----------------------|-----------------------|-----------------------|
--2-------------------|--5--------------7\----|-------------------0-2-|
------------------5-7-|-----------------------|--0-0------------------|


  S S H.           E     E  H.           E   
----------------------|---------------------|
----------------------|---------------------|
--3-3-----------------|--2------------------|
----------------------|---------------------|

_____________________________________________________________________________

				     15:38
                  |--3--|  |--3--|                           
  S S S S S S S S E  E  E  E  E  E     Q.     S S E  Q.      
------------------------------------|-----------------------|
------------------------------------|-----------------------|
--5-5-5-5-5-5-5-5-5--5--5--5--------|-----------------------|
------------------------------7--5--|--0------L-0-0--0------|


  Q.     S S E  Q.        Q.     S S E  Q.        Q.     S S E  Q.      
-----------------------|-----------------------|-----------------------|
-----------------------|-----------------------|-----------------------|
--3------L-3-3--3------|--2------L-2-2--2------|--5------L-5-5--5------|
-----------------------|-----------------------|-----------------------|


                                   |--3--|  |3|                              
  Q.     S S E  Q.        H        E  E  E  S E  E     Q.     S S E  Q.      
-----------------------|----------------------------|-----------------------|
-----------------------|----------------------------|-----------------------|
-----------------------|--3--------3--3--3--3-3--3--|--2------L-2-2--2------|
--0------L-0-0--0------|----------------------------|-----------------------|


  Q.     S S E  Q.        E  S S E  S S E  S S E  S S  
-----------------------|------------------------------|
-----------------------|------------------------------|
--5------L-5-5--5------|--4--4-4-4--4-4-4--4-4-4--4-4-|
-----------------------|------------------------------|


  E  S S E  S S E  S S E  S S    S S S S S S S S S S S S S S S S  
------------------------------|----------------------------------|
------------------------------|----------------------------------|
--0--0-0-0--0-0-0--0-0-0--0-0-|--------------------------4-4-----|
------------------------------|--2-2-2-2-2-2-2-2-2-2-2-2-----2-2-|


  S S S S S S S S S S S S S S S S    E  S S E  S S E  S S E  S S  
----------------------------------|------------------------------|
----------------------------------|------------------------------|
----------------------------------|--4--4-4-4--4-4-4--4-4-4--4-4-|
--4-4-4-4-4-4-4-4-4-4-4-4-4-4-4-4-|------------------------------|


  E  S S E  S S E  S S E  S S    S S S S S S S S S S S S S S S S  
------------------------------|----------------------------------|
------------------------------|----------------------------------|
--0--0-0-0--0-0-0--0-0-0--0-0-|----------------------------------|
------------------------------|--2-2-2-2-2-2-2-2-2-2-2-2-2-2-2-2-|

				16:31

  E  S S E  S S S S S S S S S S    Q.     S S E  Q.      
--------------------------------|-----------------------|
--------------------------------|-----------------------|
--2--2-2-2--2-2-2-2-2-2-2-2-2-2-|-----------------------|
--------------------------------|--0------L-0-0--0------|


   H         Q.     E     Q.     S S E  Q.        W                    
-----------------------|-----------------------|------------------------|
-----------------------|-----------------------|------------------------|
--(3)--------3------3--|--2------L-2-2--2------|--5---------------------|
-----------------------|-----------------------|------------------------|


  Q.     S S E  Q.        Q.     S S E  Q.        Q.     S S E  Q.      
-----------------------|-----------------------|-----------------------|
-----------------------|-----------------------|-----------------------|
-----------------------|--3------L-3-3--3------|--2------L-2-2--2------|
--0------L-0-0--0------|-----------------------|-----------------------|

_____________________________________________________________________________
	vi. The Inevitable Summer
_____________________________________________________________________________

		    16:57

                                     |-3|                                  
  W                   S S S S E      E  Q    H.                            
-------------------|--------------|-----------------------|---------------|
-------------------|--------------|-----------------------|---------------|
--5----------------|--5-7-5-7-7\--|--2--2-----------------|---------------|
-------------------|--------------|-----------------------|---------------| (with riff at 2:05)


                                      |-3|                                  
  W                                   E  Q    H.                            
-------------------|---------------|-----------------------|---------------|
-------------------|---------------|-----------------------|---------------|
--2----------------|---------------|--2--2-----------------|---------------|
-------------------|---------------|-----------------------|---------------|


                                      |-3|                                  
  W                   H.              E  Q    H.                            
-------------------|---------------|-----------------------|---------------|
-------------------|---------------|-----------------------|---------------|
--2----------------|--L------------|--2--2-----------------|---------------|
-------------------|---------------|-----------------------|---------------|


                                      |-3|                                  
  W                   H.              E  Q    H.                            
-------------------|---------------|-----------------------|---------------|
-------------------|---------------|-----------------------|---------------|
--2----------------|--L------------|--2--2-----------------|---------------|
-------------------|---------------|-----------------------|---------------|


  W                   H.              E  E  H        E  E     E  E  Q    Q      
-------------------|---------------|-----------------------|-------------------|
-------------------|---------------|-----------------------|-------------------|
--2----------------|--L------------|--2--2-----------2--2--|--------5----------|
-------------------|---------------|-----------------------|-----7-------7\----|


  E  E  H        E  E     E  E  Q    Q        E  E  H        E  E   
-----------------------|-------------------|-----------------------|
-----------------------|-------------------|-----------------------|
--2--2-----------2--2--|--------5----------|--2--2-----------2--2--|
-----------------------|-----7-------7\----|-----------------------|


  E  E  Q    Q        E  E  H        E  E     E  E  Q    E  E   
-------------------|-----------------------|-------------------|
-------------------|-----------------------|-------------4-----|
--------5----------|-----------------------|--------5-------5--|
-----7-------7\----|--7--7-----------7--7--|-----7-------------|


17:32

  E  Q.      Q    E  E     E  E  E  E  S S E     E  Q.      Q    E  E   
------------------------|---------------------|------------------------|
------------------------|--------------4------|------------------------|
-----5\--------------8--|--------8--7----7-5--|-----5\--------------5--|
--7---------------7-----|-----7---------------|--7---------------7-----|


  E  E  E   E  E  E     Q    Q    E.  S Q       E  Q    Q    E   
---------------------|-----------------------|------------------|
------------------7--|-----------------------|------------------|
--L-----5s--7--9-----|-----------------------|------------------|
-----7---------------|--3----3----3---3-3----|--L--3----3----3--|


					   17:44

  Q    Q    E.  S Q       E  Q    Q    E     E   E  E  E  E  E  E  E   
-----------------------|------------------|---------------------------|
-----------------------|------------------|---------------------------|
-----------------------|------------------|---------------------------|
--3----3----3---3-3----|--L--3----3----3--|--5s--7-----5--7-----5--7--|


  E  E  E  E  E  E     E  E  E  E  E  E  E  E     E  E  E  E  E  E   
--------------------|--------------------------|--------------------|
--------------------|--------------------------|--------------------|
-----------5--------|--------------------------|-----------5--------|
-----5--7-----7--5--|--5--7-----5--7-----5--7--|-----5--7-----7--5--|


  E  E  E  E  E  E  E  E     E  E  E  E  E  E     E  E  E  E  E  E  E  E   
--------------------------|--------------------|--------------------------|
--------------------------|--------------------|--------------------------|
--------------------------|-----------------5--|--------------------------|
--5--7-----5--7-----5--7--|-----5--7--5--7-----|--5--7-----5--7-----5--7--|


  E  E  E  E  E  E     E  E  E  E  E  E  E  E     E  E  E  E  E  E   
--------------------|--------------------------|--------------------|
--------------------|--------------------------|--------------------|
-----------------5--|--------------------------|-----------5--------|
-----5--7--5--7-----|--5--7-----5--7-----5--7--|-----5--7-----7--5--|

						18:01

  E  E  E  E  E  E  E  E     E  E  E  E  E  E     Q    Q    E.  S Q     
--------------------------|--------------------|-----------------------|
--------------------------|--------------------|-----------------------|
--------------------------|-----------------5--|-----------------------|
--5--7-----5--7-----5--7--|-----5--7--5--7-----|--3----3----3---3-3----|


  E  Q    Q    E     Q    Q    E.  S E  E     E  Q    Q    E   
------------------|------------------------|------------------|
------------------|------------------------|------------------|
------------------|------------------------|------------------|
--L--3----3----3--|--3----3----3---3-3--3--|--L--3----3----3--|


  Q    Q    S E  S S S E     E  Q    E  E  E     Q    Q    S E  S S S E   
--------------------------|-------------------|--------------------------|
--9-----------------------|-------------------|--------------------------|
--------------------------|----------5--------|--------------------------|
-------7----5-5--7-7-7-5--|--L--7-------7--5--|--7----7----5-5--7-7-7-5--|


  E  E  E   E  E  E     Q    Q    S E  S S S E     E  Q    E  E  E   
---------------------|--------------------------|-------------------|
---------------------|--9-----------------------|-------------------|
---------------------|--------------------------|----------5--------|
--L--7--7--10--0--2--|-------7----5-5--7-7-7-5--|--L--7-------7--5--|


  Q    Q    S E  S S S E     E  E  E   E  E  E     Q    Q    S E  S S S E   
--------------------------|---------------------|--------------------------|
--------------------------|--------9------------|--------------------------|
--------------------------|---------------------|--------------------------|
--7----7----5-5--7-7-7-5--|--L--7-----10--0--2--|--7----7----5-5--7-7-7-5--|


  E  Q    E  E  E     Q    Q    S E  S S S E     E  E  E  E  E  E   
-------------------|--------------------------|--------------------|
-------------------|-------9------------------|--------------------|
----------5--------|--------------------------|-----------5--------|
--L--7-------7--5--|--7---------5-5--7-7-7-5--|--L--7--7-----0--2--|

18:24

  Q    Q    E.  S E  E     E  Q    Q    E     Q    Q    E.  S E  E   
------------------------|------------------|------------------------|
------------------------|------------------|------------------------|
------------------------|------------------|------------------------|
--3----3----3---3-3--3--|--L--3----3----3--|--3----3----3---3-3--3--|

		   18:29

  E  Q    Q    E     Q.     Q.        Q.     Q       Q.     Q.      
------------------|----------------|--------------|----------------|
------------------|---------3------|--2------5----|---------4------|
------------------|--2-------------|--------------|--3-------------|
--L--3----3----3--|----------------|--------------|----------------|

_____________________________________________________________________________

					    18:36

   H             H             E  E   E  E     S S S S S S S S S S S S S S S S  
-------------|-------------|--11--9---------|----------------------------------|
--(3)--------|--(6)--------|---------11--9--|----------------------------------|
-------------|-------------|----------------|--2-4---4---4-2-4---4-4-4-2-4---4-|
-------------|-------------|----------------|----------------------------------|


  S S S S S S S S S S S S S S S S    S S S S S S S S S S S S S S S S  
----------------------------------|----------------------------------|
--------------------------4-2-----|----------------------------------|
----4-2-4-4-4-2-4---4---4-----4-2-|--2-4---4---4-2-4---4-4-4-2-4---4-|
----------------------------------|----------------------------------|


  S S S S S S S S S S S S S S S S    S S S S S S S S S S S S S S S S  
----------------------------------|----------------------------------|
--------------------------4-2-----|----------------------------------|
----4-2-4-4-4-2-4---4---4-----4-2-|--2-4---4---4-2-4---4-4-4-2-4---4-|
----------------------------------|----------------------------------|


  S S S S S S S S S S S S S S S S    S S S S S S S S S S S S S S S S  
----------------------------------|----------------------------------|
--------------------------4-2-----|----------------------------------|
----4-2-4-4-4-2-4---4---4-----4-2-|--2-4---4---4-2-4---4---4-2-4-4-4-|
----------------------------------|----------------------------------|


  Q    H.              S S S S S S S S S S S S S S S S  
--------------------|----------------------------------|
--------------------|----------------------------------|
--4-----------------|--2-4---4---4-2-4---4-4-4-2-4---4-|
--------------------|----------------------------------|


  S S S S S S S S S S S S S S S S    S S S S S S S S S S S S S S E   
----------------------------------|---------------------------------|
--------------------------4-2-----|----------------------------0----|
----4-2-4-4-4-2-4---4---4-----4-2-|--2-4---4---4-2-4---4---4-2------|
----------------------------------|---------------------------------|

				19:00

  S  E  E  S S  E  E  S Q       S S S S S S S S S S S S S S S S  
-----------------------------|----------------------------------|
-----------------------------|----------------------------------|
------------------------5----|--2-4---4---4-2-4---4---4-2-4---4-|
--0h-2--2--0-2h-3--3--0------|----------------------------------|


  S S S S S S S S S S S S S S S S    S S S S S S S S S S S S S S E   
----------------------------------|---------------------------------|
--------------------------4-2-----|----------------------------0----|
----4-2-4-4-4-2-4---4-4-4-----4-2-|--2-4---4---4-2-4---4---4-2------|
----------------------------------|---------------------------------|

				19:08

  S  E  E  S S  E  E  S Q       S S S S S S S S S S S S S S S S  
-----------------------------|----------------------------------|
-----------------------------|----------------------------------|
------------------------5----|--5-7---7-7-7-5-7---7-7-7-5-7---7-|
--0h-2--2--0-2h-3--3--0------|----------------------------------|


  S S S S S S S S S S S S S S S S    S S S S S S S S S S S S S S S S  
----------------------------------|----------------------------------|
--------------------------7-6-----|----------------------------------|
--7-7-5-7-7-7-5-7---7-7-7-----7-5-|--5-7---7-7-7-5-7---7-7-7-5-7---7-|
----------------------------------|----------------------------------|


  S S S S S S S S S S S S S S S S    S S S S S S S S S S S S S S S S  
----------------------------------|----------------------------------|
--------------------------7-6-----|----------------------------------|
--7-7-5-7-7-7-5-7---7-7-7-----7-5-|--2-4---4-4-4-2-4---4---4-2-4---4-|
----------------------------------|----------------------------------|


  S S S S S S S S S S S S S S S S    S S S S S S S S S S S S S S E   
----------------------------------|---------------------------------|
--------------------------4-2-----|---------------------------------|
----4-2-4-4-4-2-4---4-4-4-----4-2-|--2-4---4---4-2-4---4---4-2-4----|
----------------------------------|---------------------------------|

				19:23

  S  E  E  S S  E  E  S Q       Q    Q    E  S S E     Q    Q    Q    E   
-----------------------------|----------------------|--------------------|
-----------------------------|----------------------|--------------------|
------------------------5----|-------7----9--9-7----|-------9---------9--|
--0h-2--2--0-2h-3--3--0------|--9----------------9--|--7---------7-------|


  Q    Q    E  S S E     Q    Q    E  S S E     Q    Q    E  S S E   
----------------------|----------------------|----------------------|
----------------------|------------9--9-7----|----------------------|
-------7----9--9-7----|-------7-----------7--|-------7----9--9-7----|
--9----------------9--|--5-------------------|--9----------------9--|


  Q    Q    Q    E     Q    Q    E  S S E     Q    Q    Q    E   
--------------------|----------------------|--------------------|
--------------------|----------------------|------------9-------|
-------9---------9--|-------7----9--9-7----|-------7---------7--|
--7---------7-------|--9----------------9--|--5-----------------|


  Q    Q    E  S S E     Q    Q    Q    E     Q    Q    E  S S E   
----------------------|--------------------|----------------------|
----------------------|--------------------|----------------------|
-------7----9--9-7----|-------9---------9--|-------7----9--9-7----|
--9----------------9--|--7---------7-------|--9----------------9--|


                                    |--3--|                          
  Q    Q    Q    E     Q    Q    E  S  S  S E     Q    Q    Q    E   
--------------------|--------------------------|--------------------|
------------9-------|--------------------------|--------------------|
-------7---------7--|-------7----9--7h-9p-7----|-------9---------9--|
--5-----------------|--9--------------------9--|--7---------7-------|


               |--3--|                                         |--3--|     
  Q    Q    E  S  S  S E     Q    Q    Q    E     Q    Q    E  S  S  S E   
--------------------------|--------------------|--------------------------|
--------------------------|------------9-------|--------------------------|
-------7----9--7h-9p-7----|-------7---------7--|-------7----9--7h-9p-7----|
--9--------------------9--|--5-----------------|--9--------------------9--|


                                    |--3--|                          
  Q    Q    Q    E     Q    Q    E  S  S  S E     Q    Q    Q    E   
--------------------|--------------------------|--------------------|
--------------------|--------------------------|------------9-------|
-------9---------9--|-------7----9--7h-9p-7----|-------7---------7--|
--7---------7-------|--9--------------------9--|--5-----------------|

_____________________________________________________________________________

19:54

  E  E  E  E  E  E  E  E     E  E  E  E  E  E     E  E  E  E  E  E  E  E   
--------------------------|--------------------|--------------------------|
-----6--7-----4--6--------|--4-----------------|-----6--7-----4--6--------|
--4--------4--------4--7--|-----4--6--7--4--7--|--4--------4--------4--7--|
--------------------------|--------------------|--------------------------|


  E  E  E  E  Q       E  E  E  E  E  E  E  E     E  E  E  E  E  E   
-------------------|--------------------------|--------------------|
--4-----------5----|-----4--5-----2--4-----0--|-----------0-----0--|
-----4--6--7-------|--2--------2--------2-----|-----2--4-----2-----|
-------------------|--------------------------|--0-----------------|


  E  E  E  E  E  E     E  E  E  E  E  E       Q.     Q.      
--------------------|--------------------|------------------|
-----1--0-----------|-----------4--7--6--|--7g9------7------|
--2-----------------|--3--6--5-----------|------------------|
-----------2--5--4--|--------------------|------------------|


    Q.      Q.         Q.     Q.        Q.        Q    Q     
--/14------12------|--11------9------|--9------|--7---------|
-------------------|----------7------|---------|------------|
-------------------|-----------------|---------|------------|
-------------------|-----------------|---------|------------|

_____________________________________________________________________________
	vii. The Crimson Sunset
_____________________________________________________________________________

20:13

  |--3--|  |--3--|  |--3--|  |--3--|     |--3--|  |--3--|  |--3--|  |--3--|   
  E  E  E  E  E  E  E  E  E  E  E  E     E  E  E  E  E  E  E  E  E  E  E  E   
--------------------------------------|--------------------------------------|
--------------------------------------|--------------------------------------|
--4--4--4--4--4--4--4--4--4--4--4--4--|--------------------------------------|
--------------------------------------|--2--2--2--2--2--2--2--2--2--2--2--2--|


  |--3--|  |--3--|  |--3--|  |--3--|     |--3--|  |--3--|  |--3--|  |--3--|   
  E  E  E  E  E  E  E  E  E  E  E  E     E  E  E  E  E  E  E  E  E  E  E  E   
--------------------------------------|--------------------------------------|
--------------------------------------|--------------------------------------|
--------------------------------------|--2--2--2--2--2--2--2--2--2--2--2--2--|
--0--0--0--0--0--0--0--0--0--0--0--0--|--------------------------------------|


  |--3--|  |--3--|  |--3--|  |--3--|     |--3--|  |--3--|  |--3--|  |--3--|   
  E  E  E  E  E  E  E  E  E  E  E  E     E  E  E  E  E  E  E  E  E  E  E  E   
--------------------------------------|--------------------------------------|
--------------------------------------|--------------------------------------|
--4--4--4--4--4--4--4--4--4--4--4--4--|--------------------------------------|
--------------------------------------|--2--2--2--2--2--2--2--2--2--2--2--2--|


  |--3--|  |--3--|  |--3--|  |--3--|     |--3--|  |--3--|  |--3--|  |--3--|   
  E  E  E  E  E  E  E  E  E  E  E  E     E  E  E  E  E  E  E  E  E  E  E  E   
--------------------------------------|--------------------------------------|
--------------------------------------|--------------------------------------|
--2--2--2--2--2--2--2--2--2--2--2--2--|--------------------------------------|
--------------------------------------|--4--4--4--4--4--4--4--4--4--4--4--4--|


  |--3--|  |--3--|  |--3--|  |--3--|     |--3--|  |--3--|  |--3--|  |--3--|   
  E  E  E  E  E  E  E  E  E  E  E  E     E  E  E  E  E  E  E  E  E  E  E  E   
--------------------------------------|--------------------------------------|
--------------------------------------|--------------------------------------|
--4--4--4--4--4--4--4--4--4--4--4--4--|--------------------------------------|
--------------------------------------|--0--0--0--0--0--0--0--0--0--0--0--0--|


  |--3--|  |--3--|  |--3--|  |--3--|   
  E  E  E  E  E  E  E  E  E  E  E  E   
--------------------------------------|
--------------------------------------|
--------------------------------------|
--3--3--3--3--3--3--3--3--3--3--3--3--|


  |--3--|  |--3--|  |--3--|    |---3---|   
  E  E  E  E  E  E  E  E  E    E   E   E   
------------------------------------------|
------------------------------------------|
--5--5--5--5--5--5--5--5--5s--11--11--11--|
------------------------------------------|

_____________________________________________________________________________

20:36

  |--3--|  |--3--|  |--3--|  |--3--|     |--3--|  |--3--|  |--3--|  |--3--|   
  E  E  E  E  E  E  E  E  E  E  E  E     E  E  E  E  E  E  E  E  E  E  E  E   
--------------------------------------|--------------------------------------|
--------------------------------------|--------------------------4--2--------|
--4--4--4-----4--4--2--4--4-----2--2--|--4--4--4-----4--4--2--4--------4--2--|
--------------------------------------|--------------------------------------|


  |--3--|  |--3--|  |--3--|  |--3--|     |--3--|  |--3--|  |--3--|  |--3--|   
  E  E  E  E  E  E  E  E  E  E  E  E     E  E  E  E  E  E  E  E  E  E  E  E   
--------------------------------------|--------------------------------------|
--------------------------2-----------|--------------------------7-----9--7--|
--4--4--4-----4--4--2--4--------4--2--|--2--2--2-----2--2--7--9-----9--------|
--------------------------------------|--------------------------------------|


  |--3--|  |--3--|  |--3--|  |--3--|     |--3--|  |--3--|  |--3--|  |--3--|   
  E  E  E  E  E  E  E  E  E  E  E  E     E  E  E  E  E  E  E  E  E  E  E  E   
--------------------------------------|--------------------------------------|
--------------------------------------|--------------------------2-----------|
--4--4--4-----4--4--2--4--4-----2--2--|--4--4--4-----4--4--2--4--------4--2--|
--------------------------------------|--------------------------------------|


  |--3--|  |--3--|  |--3--|  |--3--|     |--3--|        |--3--|  |--3--|   
  E  E  E  E  E  E  E  E  E  E  E  E     E  E  E  E  E  E  E  E  E  E  E   
--------------------------------------|-----------------------------------|
--------------------------------------|-----------------------4-----------|
--2--2--2-----2--2--2--2--2-----2--2--|-----6--------7--6--7--------7--6--|
--------------------------------------|--4-----4--L-----------------------|

20:51

  |--3--|  |--3--|  |--3--|  |--3--|     |--3--|  |--3--|  |--3--|  |--3--|   
  E  E  E  E  E  E  E  E  E  E  E  E     E  E  E  E  E  E  E  E  E  E  E  E   
--------------------------------------|--------------------------------------|
--------------------------------------|--------------------------------------|
--4--4--4--4--4--4--4--4--4--4--4--4--|--------------------------------------|
--------------------------------------|--0--0--0--0--0--0--0--0--0--0--0--0--|


  |--3--|  |--3--|  |--3--|  |--3--|     |--3--|  |--3--|  |--3--|  |--3--|   
  E  E  E  E  E  E  E  E  E  E  E  E     E  E  E  E  E  E  E  E  E  E  E  E   
--------------------------------------|--------------------------------------|
--------------------------------------|-----------------------------------6--|
--------------------------------------|--5--5--5--5--5--5--5--5--5--5--5-----|
--3--3--3--3--3--3--3--3--3--3--3--3--|--------------------------------------|


  |---3--|  |--3--|  |--3--|  |--3--|                |--3--|  |--3--|   
  E   E  E  E  E  E  E  E  E  E  E  E      H         E  E  E  E  E  E   
-----11-----9-----8--------------------|-------------------------------|
--7------7-----7-----9--7--6-----------|-------------------------------|
------------------------------9--7--6--|--(4)--------------4--7--6--4--|
---------------------------------------|-------------4--5--------------|


                   |--3--|              |--3--|  |--3--|   
  Q    E  E  E  E  E  E  E     H        E  E  E  E  E  E   
----------------------------|-----------------------------|
-------------7-----5-----4--|-----------------------------|
-------5--------------------|--4--------------4--7--6--4--|
--3-------3-----3-----3-----|-----------4--5--------------|

_____________________________________________________________________________

			21:08

       |--3--|                                                              
  Q    E  E  E  Q        H.                H.                H.             
---------------------|-----------------|-----------------|-----------------|
---------------------|-----------------|-----------------|-----------------|
--3----3--3--3--3----|--(2)------------|--(0)------------|-----------------|
---------------------|-----------------|-----------------|--(2)------------|


   H.                H.                H.                H.             
-----------------|-----------------|-----------------|-----------------|
-----------------|-----------------|-----------------|-----------------|
-----------------|--(2)------------|--(0)------------|-----------------|
--(3)------------|-----------------|-----------------|--(2)------------|

		  21:19

   H.               E.  S E  E  E.  S    E  E  E.  S E  E   
-----------------|--------------------|--------------------|
-----------------|--------------------|--------------------|
-----------------|--2---2-2--2--2---2-|--0--0--0---0-0--0--|
--(3)------------|--------------------|--------------------|


  E.  S E  E  E.  S    E  E  E.  S E  E     E.  S E  E  E.  S  
--------------------|--------------------|--------------------|
--------------------|--------------------|--------------------|
--------------------|--------------------|--2---2-2--2--2---2-|
--2---2-2--2--2---2-|--3--3--3---3-3--3--|--------------------|


  E  E  E.  S E  E     E.  S E  E  E.  S    E  E  E.  S E  E   
--------------------|--------------------|--------------------|
--------------------|--------------------|--------------------|
--0--0--0---0-0--0--|--------------------|--------------------|
--------------------|--2---2-2--2--2---2-|--3--3--3---3-3--3--|


  E.  S E  E  E.  S    E  E  E.  S E  E     E.  S E  E  E  E   
--------------------|--------------------|--------------------|
--------------------|--------------------|--------------------|
--2---2-2--2--2---2-|--0--0--0---0-0--0--|--------------------|
--------------------|--------------------|--2---2-2--2--2--2--|


  S E.  E  E  E  E     E.  S E  E  E.  S    E  E  E.  S E  E   
--------------------|--------------------|--------------------|
--------------------|--------------------|--------------------|
--------------0--0--|--2---2-2--2--2---2-|--0--0--0---0-0--0--|
--L-3---3--3--------|--------------------|--------------------|


  E.  S E  E  E  E     S E.  E  E  E  E     E  E  E  E  E  E   
--------------------|--------------------|--------------------|
--------------------|--------------------|--------------------|
--------------------|--------------0--0--|--2--2--2--2--2--2--|
--2---2-2--2--2--2--|--L-3---3--3--------|--------------------|


  E  E  E  E  E  E     E  E  E  E  E  E     E  E  E  E  E  E   
--------------------|--------------------|--------------------|
--------------------|--------------------|--------------------|
--0--0--0--0--0--0--|--------------------|--------------0--0--|
--------------------|--2--2--2--2--2--2--|--3--3--3--3--------|


  E  E  E  E  E  E     E  E  E  E  E  E     E  E  E  E  E  E   
--------------------|--------------------|--------------------|
--------------------|--------------------|--------------------|
--2--2--2--2--2--2--|--4--4--4--4--4--4--|--5--5--5--5--5--5--|
--------------------|--------------------|--------------------|

			21:54

  E  E  E  E  E  E     S S S S S S S S S S S S    S S S S S S S S S S S S  
--------------------|--------------------------|--------------------------|
--------------------|--------------------------|--------------------------|
--7--7--7--7--7--7--|--5-5-5-5-5-5-5-5-5-5-5-5-|--4-4-4-4-4-4-4-4-4-4-4-4-|
--------------------|--------------------------|--------------------------|


  S S S S S S S S S S S S    S S S S S S S S S S S S  
--------------------------|--------------------------|
--------------------------|--------------------------|
--------------------------|------------------0-0-0-0-|
--2-2-2-2-2-2-2-2-2-2-2-2-|--3-3-3-3-3-3-3-3---------|


  S S S S S S S S S S S S    S S S S S S S S S S S S  
--------------------------|--------------------------|
--------------------------|--------------------------|
--2-2-2-2-2-2-2-2-2-2-2-2-|--4-4-4-4-4-4-4-4-4-4-4-4-|
--------------------------|--------------------------|

						      22:05

  S S S S S S S S S S S S    S S S S S S S S S S S S     H.             
--------------------------|--------------------------|-----------------|
--------------------------|--------------------------|-----------------|
--5-5-5-5-5-5-5-5-5-5-5-5-|--7-7-7-7-7-7-7-7-7-7-7-7-|--(2)------------|
--------------------------|--------------------------|-----------------|


   H.                H.                H.                H.             
-----------------|-----------------|-----------------|-----------------|
-----------------|-----------------|-----------------|-----------------|
--(0)------------|-----------------|-----------------|--(2)------------|
-----------------|--(2)------------|--(3)------------|-----------------|


   H.                H.               Q    Q.         W                  
-----------------|-----------------|--------------|---------------------|
-----------------|-----------------|--------------|--(5)----------------|
--(0)------------|-----------------|--------------|---------------------|
-----------------|--(2)------------|--L-----------|---------------------|


  W                   W                   W                 
-------------------|-------------------|-------------------|
--L----------------|--L----------------|--L----------------|
-------------------|-------------------|-------------------|
-------------------|-------------------|-------------------|


   W                    W                   W                 
---------------------|-------------------|-------------------|
---------------------|-------------------|-------------------|
--(4)----------------|--L----------------|--L----------------|
---------------------|-------------------|-------------------|


  W                   W                  
-------------------|-------------------||
-------------------|-------------------||
--L----------------|--L----------------||
-------------------|-------------------||



Duration Legend
---------------
W - whole
H - half
Q - quarter
E - 8th
S - 16th
T - 32nd
X - 64th
. - note dotted
|-n-|  - n-tuplets


Tablature Legend
----------------
L - tied note
x - dead note
g - grace note
(n) - ghost note
> - accentuded note
NH - natural harmonic
AH - artificial harmonic
TH - tapped harmonic
SH - semi harmonic
PH - pitch harmonic
h - hammer on
p - pull off
b - bend
br - bendRelease
pb - preBend
pbr - preBendRelease
brb - bendReleaseBend
\n/ - tremolo bar dip
\n - tremolo bar dive
-/n - tremolo bar Release up
/n\ - tremolo bar inverted dip
/n - tremolo bar return
-\n - tremolo bar Release down
S - shift slide
s - legato slide
/ -  slide into from below or out of upwards
\ -  slide into from above or out of downwards
~ - vibrato
W - wide vibrato
tr - trill
TP - tremolo picking
T - tapping
S - slap
P - pop
< - fade in
^ - brush up
v - brush down
comments
print report bad tab
3 comments total.
+1 reply
beefofjesusbass wrote on June 10 2008, 03:09 pm

nice job mate by the looks of it you have got most of the notes right but you really do need at least a 5 string to play this because there are some heavy sections in the song that dont sound right without the 5th string

0 reply
arrell wrote on March 22 2009, 09:28 pm

Good effort, in spite of the physical limitations.

0 reply
MrGloogie wrote on June 12 2013, 08:53 am

Thank you very much, man! Have have only a 4-string bass and finally, someone transcribed it from 6-string to 4-string!

I want to post or [tab]
guest
You may want to rate the tab now too:
select rating
Please do not post tabs as comments. Select "correction" instead!