Oops, an error
Loading. Please wait.

A Fortune In Lies Tab

ver2
ver2

Whole song

Interactive

More versions @911Tabs.com
2,073 views 1 this week
no commentswrite comment
1 2 3 4 5
excellent!
x 1
add to favorites launch autoscroll
font size
0
reset
Autoscroll
+/-
esc
set tempo
stop
Contributor
Difficulty
intermediate
WARNING: You are trying to view
                                    content from Ultimate-Guitar.com
                                    in an unauthorized application,
                                    which is prohibited.

                                    Please use an official Ultimate
                                    Guitar Tabs application for iPhone,
                                    iPad or Android to access legitimate
                                    chords, guitar, bass, and drum tabs
                                    from Ultimate-Guitar.com database.

                                    Type "ultimate guitar tabs" in Apple
                                    App Store's or Android Market's
                                    search to find the application.
#----------------------------------PLEASE NOTE---------------------------------#
#This file is the author's own work and represents their interpretation of the #
#song. You may only use this file for private study, scholarship, or research. #
#------------------------------------------------------------------------------#

A FORTUNE IN LIES
As recorded by Dream Theater
(From the 1989 Album WHEN DREAM AND DAY UNITE)
*Listen to record for exact rhythm*

Transcribed by Erik Alfredsson (Asmogriff)
Posted by Iron Pete
 Words by John Petrucci Music by Dream Theater

 

Gtr I (E A D G B E) - 'Distorted'
Gtr II (E A D G B E) - 'Overdriven'
Gtr III (E A D G B E) - 'Strings'
Gtr IV (E A D G B E) - 'Clean'
Gtr V (E A D G B E) - 'Church Organ'


 Intro
  Q=140
         B5/F#                       E5         B5    C5
 2/4    4/4
  Gtr I
  W      W             +H.      Q    H.       E   E   W
|------|-------------|-------------|----------------|------|
|------|-------------|-------------|-5--------------|------|
|------|-4-----------|-(4)---------|-4------------4-|-5----|
|------|-4-----------|-(4)---------|-2------------4-|-5----|
|------|-2-----------|-(2)---------|-2------------2-|-3----|
|------|-2-----------|-(2)---------|-0--------------|------|
|
| Gtr II
|                       ~~~                           ~
| W      H    Q  E E    W            H     Q  E   E   W
|------|-------------|-------------|----------------|------|
|------|-----------7-|--5----------|----------------|-8----|
|------|-----------7-|--6----------|------------/11-|-9----|
|------|-------------|-------------|----------------|------|
|------|-------------|-------------|----------------|------|
|------|-------------|-------------|----------------|------|


  B5                          G5         A5   B5
  W             +H.      Q    H.       E  E    W
|-------------|-------------|---------------|-------||
|-------------|-------------|-3-------------|-------||
|-4-----------|-(4)---------|-0-------------|-------||
|-4-----------|-(4)---------|-0-------------|--4----||
|-2-----------|-(2)---------|-------------0-|--2----||
|-2-----------|-(2)---------|-3-------------|-------||
|
|                ~~~                           ~~
| H    Q  E E    W            H     Q  E  E    W
|-------------|-------------|-------------9-|-10----||
|-----------7-|--5----------|------------10-|-12----||
|-----------7-|--6----------|---------------|-------||
|-------------|-------------|---------------|-------||
|-------------|-------------|---------------|-------||
|-------------|-------------|---------------|-------||


  N.C.(B)
  PM-----------------------------------------------------------------
  S S S S S S S S S S S S S S S S   S S S S S S S S S S S S S S S S
|---------------------------------|---------------------------------|
|-2-2-------------2-2-------------|-2-2-------------2-2-------------|
|-----4-4-------------4-4---------|-----4-4-------------4-4---------|
|---------4-4-------------4-4-----|---------4-4-------------4-4-----|
|-------------2-2-------------2-2-|-------------2-2-------------2-2-|
|---------------------------------|---------------------------------|


  N.C.(E)                           N.C.(C)
 -----------------------------------------------------------------|
  S S S S S S S S S S S S S S S S   S S S S S S S S S S S S S S S S
|-2-2-------------2-2-------------|------------------------------------|
|-----5-5-------------5-5---------|-3-3-------------3-3----------------|
|---------4-4-------------4-4-----|-----5-5-------------5-5------------|
|-------------2-2-----------------|---------5-5-------------5-5--------|
|-----------------------------2-2-|-------------3-3-------------3-3----|
|---------------------------------|------------------------------------|


  N.C.(B)
  PM-----------------------------------------------------------------
  S S S S S S S S S S S S S S S S   S S S S S S S S S S S S S S S S
|---------------------------------|---------------------------------|
|-2-2-------------2-2-------------|-2-2-------------2-2-------------|
|-----4-4-------------4-4---------|-----4-4-------------4-4---------|
|---------4-4-------------4-4-----|---------4-4-------------4-4-----|
|-------------2-2-------------2-2-|-------------2-2-------------2-2-|
|---------------------------------|---------------------------------|
|
| Gtr II
| W                                 W
|---------------------------------|---------------------------------|
|---------------------------------|---------------------------------|
|---------------------------------|---------------------------------|
|---------------------------------|---------------------------------|
|---------------------------------|---------------------------------|
|---------------------------------|---------------------------------|


  N.C.(G)                           N.C.(B)         B5  A5
 -------------------------------------------------|
  S S S S S S S S S S S S S S S S   S S S S S S S S E E  Q
|-5-5-------------5-5-------------|--------------------------||
|-----8-8-------------8-8---------|-2-2----------------------||
|---------7-7-------------7-7-----|-----4-4---------4----2---||
|-------------5-5-----------------|---------4-4-----4----2---||
|-----------------------------5-5-|-------------2-2-2----0---||
|---------------------------------|--------------------------||
|
| W                                 H               Q    Q
|---------------------------------|--------------------------||
|---------------------------------|--------------------------||
|---------------------------------|---------------------\9---||
|---------------------------------|--------------------------||
|---------------------------------|--------------------------||
|---------------------------------|--------------------------||


 Guitar Solo
  B5                            F           C5                D5
             3/4               4/4
   W           +H.               W           H.               Q
|-----------|----------------||--1--------|----------------------|
|-----------|----------------||--1--------|----------------------|
|--4--------|--(4)-----------||--2--------|--5----------------7--|
|--4--------|--(4)-----------||--3--------|--5----------------7--|
|--2--------|--(2)-----------||--3--------|--3----------------5--|
|-----------|----------------||--1--------|----------------------|
|
|  ~~~~~~~~~~~~~~~~              ~~                        ~~
|                                                 |--3--|
|  W           +H      Q         W           Q    E  E  E  H
|-----------|----------------||-----------|-15---13-12-----------|
|-12--------|-(12)----13b15--||-13--------|------------13--------|
|-----------|----------------||-----------|---------------12-----|
|-----------|----------------||-----------|----------------------|
|-----------|----------------||-----------|----------------------|
|-----------|----------------||-----------|----------------------|


  E5                     F5                          E5         B5
 5/4                    3/4                  4/4               5/4
   W             +Q       H.                   Q      H.          E  E  +W
|-----------------|--------------------|-----------------|----------------|
|-----------------|--------------------|-----------------|----------------|
|9----------(9)---|-10-----------------|-10------9-------|---4--4--(4)----|
|9----------(9)---|-10-----------------|-10------9-------|---4--4--(4)----|
|7----------(7)---|--8-----------------|--8------7-------|---2--2--(2)----|
|-----------------|--------------------|-----------------|----------------|
|
|                                                                    ~~~~~~~
|  W             +Q       E   E  E  E  E  E    Q      H.          E  E  +W
|--------------------|--------------------|----------------|--------------|
|-15b17=========(15)r|--------------------|-----------------|-/12-12-(12)-|
|--------------------|--------------------|-13b14--13-------|-------------|
|--------------------|-----------------14-|-----------------|-------------|
|--------------------|--------12-14-15----|-----------------|-------------|
|--------------------|-12--13-------------|-----------------|-------------|


  Q.=140
  Eb5                C5
 12/8                                    4/4
   H.                 H.                  +W
|---------------------------------------|--------------------------|
|---------------------------------------|--------------------------|
|--8------------------5-----------------|-(5)----------------------|
|--8------------------5-----------------|-(5)----------------------|
|--6------------------3-----------------|-(3)----------------------|
|---------------------------------------|--------------------------|
|
|  E   E  E  E  E  E  E   E  E  E  E  E    E   E  E  E  E  E  E  E
|---------------------------------------|-----------15----17----18-|
|------------------------13----15-13-16-|-15--18-16----18----20----|
|-----12----14-12-15-14-----15----------|--------------------------|
|-13-----15-----------------------------|--------------------------|
|---------------------------------------|--------------------------|
|---------------------------------------|--------------------------|


  Q=150
  F#5
 3/4
   H.        +H.          +H.
|----------|------------|-------------------------|
|----------|------------|-------------------------|
|----------|------------|-------------------------|
|--4-------|-(4)--------|-(4)---------------------|
|--4-------|-(4)--------|-(4)---------------------|
|--2-------|-(2)--------|-(2)---------------------|
|
|  ~~~
|  H.         H.           Q       +E   +E   E  E
|-17-------|-19b21------|-------------------16-17-|
|----------|------------|-19b21===(19)r(19)-------|
|----------|------------|-------------------------|
|----------|------------|-------------------------|
|----------|------------|-------------------------|
|----------|------------|-------------------------|


 2/4        3/4
  +H         +H.
|----------|-----------------------|
|----------|-----------------------|
|----------|-----------------------|
|-(4)------|-(4)-------------------|
|-(4)------|-(4)-------------------|
|-(2)------|-(2)-------------------|
|
|  ~~~        ~~~~~~~~~~~
|  Q.    E    H      +E  T T T T
|----------|-19-----(19)-------x---|
|-19----17-|-----------------x-----|
|----------|---------------x-------|
|----------|-------------x---------|
|----------|-----------------------|
|----------|-----------------------|


  D5                      N.C.
 4/4
                           PM----------------------------------|
   W                       E     E     E     E    E    E     E E
|-----------------------|----------------------------------------|
|-----------------------|----------------------------------------|
|--7--------------------|----------------------------------------|
|--7--------------------|----------------------------------------|
|--5--------------------|--4-----5-----4-----5----4----5-----0---|
|-----------------------|--------------------------------------4-|
|
|  E E  E  E E  E  E  E    S  S  S  S  S  S  S  S S S  S  S  E E
|-14S9-10---------------|-----------------------------------10-9-|
|---------10-9----------|-------------------------9-9-10-10------|
|--------------11-10----|-------------10-10-11-11----------------|
|--------------------12-|-11-11-12-12----------------------------|
|-----------------------|----------------------------------------|
|-----------------------|----------------------------------------|


                                                           D5
 5/4
  W                                                   E    E
|---------------------------------------------------------------|
|---------------------------------------------------------------|
|----------------------------------------------------------7----|
|----------------------------------------------------------7----|
|----------------------------------------------------------5----|
|---------------------------------------------------------------|
|
| |----6-----| |-----6-----| |----6----| |----6----|
| S S S  S S S S  S S S  S S S S S S S S S S S S S S +S  S E
|-9-9-9-10------------------------------------------------------|
|----------7-7-9h10p9-7-----------------------------------------|
|-----------------------10-7p6h7-9p7-----------------------7----|
|------------------------------------7p6h7-9-7p6-----------7----|
|------------------------------------------------9p8-(8)---5----|
|---------------------------------------------------------------|


  H=H                 Q=200
  C#5
 4/4
  W          Q  Q  Q  Q
|----------|--------------||
|----------|--------------||
|-6--------|-6------------||
|-6--------|-6------------||
|-4--------|-4------------||
|----------|----------7\--||
|
| W          Q  Q  H
|----------|--------------||
|----------|--------------||
|-6--------|-6------------||
|-6--------|-6------------||
|-4--------|-4------------||
|----------|--------------||


 Pre-Verse
  Q=160
  N.C.(F#)                            B5 C5
  PM--------------------------------|
  E S S E E S S E E S S   S S E S S E Q  Q
|-----------------------|-------------------|
|-----------------------|-------------------|
|-----------------------|-------------4--5--|
|-----------------------|-------------4--5--|
|-----------------------|-------------2--3--|
|-2-2-2-2-2-2-2-2-2-2-2-|-2-2-2-2-2-2-------|


  N.C.(F#)                            B5 C5
  PM--------------------------------|
  E S S E E S S E E S S   S S E S S E Q  Q
|-----------------------|---------------------|
|-----------------------|---------------------|
|-----------------------|-------------4--5----|
|-----------------------|-------------4--5----|
|-----------------------|-------------2--3----|
|-2-2-2-2-2-2-2-2-2-2-2-|-2-2-2-2-2-2---------|


  N.C.(F#)
  PM---------------------------------------------
  E S S E E S S E E S S   S S E S S E E E S S E
|-----------------------|-----------------------|
|-----------------------|-----------------------|
|-----------------------|-----------------------|
|-----------------------|-----------------------|
|-----------------------|-----------------------|
|-2-2-2-2-2-2-2-2-2-2-2-|-2-2-2-2-2-2-2-2-2-2-2-|


                                          B5    C5
 ---------------------------------------|   PM|
  E S S E E S S E E S S   S S E S S E S S E S S E
|-----------------------|---------------------------||
|-----------------------|---------------------------||
|-----------------------|-----------------4-----5---||
|-----------------------|-----------------4-----5---||
|-----------------------|-----------------2-----3---||
|-2-2-2-2-2-2-2-2-2-2-2-|-2-2-2-2-2-2-2-2---2-2-----||


  N.C.(E)
  PM---------------------------------------------------
  E  S S  E E  S S E E S S   S S  E S S E E  E S S  E
|--------------------------|--------------------------|
|--------------------------|--------------------------|
|--------------------------|--------------------------|
|--------------------------|--------------------------|
|--------------------------|--------------------------|
|-0--0-0--0-0--0-0-0-0-0-0-|-0-0--0-0-0-0-0--0-0-0--0-|
|
| Gtr III
| E  S S  E E  E   E E E     E    E E   E E  E E    E
|------------------7-8-7---|-----10-----8-7-----------|
|------9-10-9-10-----------|----------------10-9------|
|-9-10---------------------|-9------9--------------10-|
|--------------------------|--------------------------|
|--------------------------|--------------------------|
|--------------------------|--------------------------|


 -------------------------------------------------------|
  E  S S E  E  S S  E  E S S    S S E S S E E  E    S S E
|----------------------------|------------------------------|
|----------------------------|------------------------------|
|----------------------------|------------------------------|
|----------------------------|------------------------------|
|----------------------------|------------------------------|
|-0--0-0-0--0--0-0--0--0-0-0-|--0-0-0-0-0-0-0--0----0-0-0---|
|
| E  E   E  E  E    E  E E      E   E E   E E  S S  E   E
|---12-----12-13---12-12-----|-10---8-----8-7---------------|
|----------------------------|----------------10-8----------|
|-9------9---------------9---|--------9------------10---9---|
|----------------------------|------------------------------|
|----------------------------|------------------------------|
|----------------------------|------------------------------|


  C#5      D5 E5       B5     G#5G5   N.C.
  PM                                          PM--|
                                              |-3-|
  E E +Q   Q  Q    +E  E +Q   Q  Q    E E E E S S S e S S e
|----------------|------------------|-----------------------||
|----------------|------------------|-----------------------||
|---6-(6)--7--9--|-(9)--------------|-7-6-------------------||
|---6-(6)--7--9--|-(9)-9-(9)--6--5--|-----6-4---------------||
|-4-4-(4)--5--7--|-(7)-9-(9)--6--5--|---------5-5-5-4-2-2---||
|----------------|-----7-(7)--4--3--|---------------------3-||


   Verse
    N.C.(F#)
    PM---------------------------------------------
    E S S E E S S E E S S   S S E S S E E E S S E
||------------------------|-----------------------|
||o-----------------------|-----------------------|
||------------------------|-----------------------|
||------------------------|-----------------------|
||o-----------------------|-----------------------|
||--2-2-2-2-2-2-2-2-2-2-2-|-2-2-2-2-2-2-2-2-2-2-2-|


    E5           B5
 -|
  E E +H.        H    Q  Q
|--------------|---------------||
|--------------|--------------o||
|---9-(9)------|-4-------------||
|---9-(9)------|-4----5--2-----||
|---7-(7)------|-2------------o||
|-2------------|---------------||


  F#m        D5         E5         B5   D5
  Gtrs I, IV
  W          W          W          H    H
|-2--------|----------|----------|-----------|
|-2--------|----------|----------|-----------|
|-2--------|-7--------|-9--------|-4----7----|
|-4--------|-7--------|-9--------|-4----7----|
|-4--------|-5--------|-7--------|-2----5----|
|-2--------|----------|----------|-----------|


  F#m        D5         E5         N.C.
                                  5/4
                                 Gtr I
                                   |----6:5----|
  W          W          W          Q Q Q Q   Q Q
|-2--------|----------|----------|----------------||
|-2--------|----------|----------|----------------||
|-2--------|-7--------|-9--------|-----7-8--------||
|-4--------|-7--------|-9--------|-6-9-----/10-9--||
|-4--------|-5--------|-7--------|----------------||
|-2--------|----------|----------|----------------||


 Pre-Chorus
  Q=140
  N.C.(A)
 4/4
           ~~~~~~~~PM--------|            ~~~~~~~~PM--------|
  S S S S +Q   +E  S S S S S S   S S S S +Q   +E  S S S S S S
|------------------------------|------------------------------|
|------------------------------|------------------------------|
|------------------------------|------------------------------|
|-------7-(7)--(7)-------------|-------7-(7)--(7)-------------|
|------------------------5-----|------------------------5-----|
|-5-5-5------------5-7-8---8-7-|-5-5-5------------5-7-8---8-7-|


  N.C.(D)
           ~~~~~~~~PM--------|            ~~~~~~~~PM--------|
  S S S S +Q   +E  S S S S S S   S S S S +Q   +E  S S S S S S
|------------------------------|--------------------------------||
|------------------------------|--------------------------------||
|-------7-(7)--(7)-------------|-------7-(7)--(7)---------------||
|------------------------5-----|------------------5-3-2---------||
|-5-5-5------------5-7-8---8-7-|-5-5-5------------------5-3-2---||
|------------------------------|--------------------------------||


 Chorus
  Q=128
  Am                   Fmaj7/A
  >
  W                    +H            H
|--------------------|---------------------|
|--------------------|---------------------|
|-2------------------|-(2)-----------------|
|-2------------------|-(2)-----------------|
|-0------------------|-(0)-----------------|
|--------------------|---------------------|
|
| Gtr IV
| E. S +S  S E Q  Q     E. S +S  S E Q  Q
|--------------0-----|---------------0-----|
|----------1-0----0--|-----------1-0----0--|
|--------------------|---------------------|
|----2-(2)-----------|-----3-(3)-----------|
|-0------------------|--0------------------|
|--------------------|---------------------|


  Dsus4                Bb5
  W                    W
|--------------------|--------------------|
|--------------------|--------------------|
|--------------------|--------------------|
|--------------------|--------------------|
|--------------------|--------------------|
|--------------------|--------------------|
|
| E. S +S  S E Q  Q    E. S +S  S E Q  Q
|--------------5-----|-----------------6--|
|------------8----8--|--------------6-----|
|----------7---------|--------------------|
|----5-(5)-----------|----------8---------|
|-5------------------|----8-(8)---8-------|
|--------------------|-6------------------|


  Am                   Fmaj7/A
  Gtr IV
  E. S +S  S E Q  Q    E. S +S  S E Q  Q
|--------------0-----|--------------0-----|
|----------1-0----0--|----------1-0----0--|
|--------------------|--------------------|
|----2-(2)-----------|----3-(3)-----------|
|-0------------------|-0------------------|
|--------------------|--------------------|


                     Q=160
  G5/B                 N.C.
                      5/4
                     Gtr I
                       |-3-|            |-3-| |-3-|
  E. S +S  S E Q  Q    E E E Q  S S S S E E E E E E
|--------------3-----|------------------------------||
|------------3----3--|------------------------------||
|----------0---------|------------------------------||
|----0-(0)-----------|-------8--7-5-----------------||
|-2------------------|--------------8-7-5-3---------||
|--------------------|-6-6-6----------------6-5-3-1-||


 Pre-Verse
  N.C.(E)
 4/4
  PM---------------------------------------------
  E S S E E S S E E S S   S S E S S E E E S S E
|-----------------------|-----------------------|
|-----------------------|-----------------------|
|-----------------------|-----------------------|
|-----------------------|-----------------------|
|-----------------------|-----------------------|
|-0-0-0-0-0-0-0-0-0-0-0-|-0-0-0-0-0-0-0-0-0-0-0-|


                                          B5    C5
 ---------------------------------------|   PM|
  E S S E E S S E E S S   S S E S S E S S E S S E
|-----------------------|--------------------------||
|-----------------------|--------------------------||
|-----------------------|-----------------4-----5--||
|-----------------------|-----------------4-----5--||
|-----------------------|-----------------2-----3--||
|-0-0-0-0-0-0-0-0-0-0-0-|-0-0-0-0-0-0-0-0---0-0----||


   Verse
    N.C.(F#)
    PM---------------------------------------------
    E S S E E S S E E S S   S S E S S E E E S S E
||------------------------|-----------------------|
||o-----------------------|-----------------------|
||------------------------|-----------------------|
||------------------------|-----------------------|
||o-----------------------|-----------------------|
||--2-2-2-2-2-2-2-2-2-2-2-|-2-2-2-2-2-2-2-2-2-2-2-|


    E5           B5
 -|
  E E +H.        H    Q  Q
|--------------|---------------||
|--------------|--------------o||
|---9-(9)------|-4-------------||
|---9-(9)------|-4----5--2-----||
|---7-(7)------|-2------------o||
|-2------------|---------------||


  F#m        D5         E5         B5   D5
  Gtrs I, IV
  W          W          W          H    H
|-2--------|----------|----------|-----------|
|-2--------|----------|----------|-----------|
|-2--------|-7--------|-9--------|-4----7----|
|-4--------|-7--------|-9--------|-4----7----|
|-4--------|-5--------|-7--------|-2----5----|
|-2--------|----------|----------|-----------|


  F#m        D5         E5         N.C.
                                  9/8
                                 Gtr I
                                   PM------------------------|
                                   |-----7-----| |-----7-----|
  W          W          W          E E E E E E E E E E E E E E E
|-2--------|----------|----------|-------------------------------||
|-2--------|----------|----------|-------------------------------||
|-2--------|-7--------|-9--------|-----------------------------9-||
|-4--------|-7--------|-9--------|-------------5-5-7-7-7-9-9-9---||
|-4--------|-5--------|-7--------|-5-5-5-7-7-7-------------------||
|-2--------|----------|----------|-------------------------------||


 Pre-Chorus
  Q=140
  N.C.(A)
 4/4
           ~~~~~~~~PM--------|            ~~~~~~~~PM--------|
  S S S S +Q   +E  S S S S S S   S S S S +Q   +E  S S S S S S
|------------------------------|------------------------------|
|------------------------------|------------------------------|
|------------------------------|------------------------------|
|-------7-(7)--(7)-------------|-------7-(7)--(7)-------------|
|------------------------5-----|------------------------5-----|
|-5-5-5------------5-7-8---8-7-|-5-5-5------------5-7-8---8-7-|


  N.C.(D)
           ~~~~~~~~PM--------|            ~~~~~~~~PM--------|
  S S S S +Q   +E  S S S S S S   S S S S +Q   +E  S S S S S S
|------------------------------|--------------------------------||
|------------------------------|--------------------------------||
|-------7-(7)--(7)-------------|-------7-(7)--(7)---------------||
|------------------------5-----|------------------5-3-2---------||
|-5-5-5------------5-7-8---8-7-|-5-5-5------------------5-3-2---||
|------------------------------|--------------------------------||


 Chorus
  Q=128
  Am                   Fmaj7/A
  >
  W                    +H            H
|--------------------|---------------------|
|--------------------|---------------------|
|-2------------------|-(2)-----------------|
|-2------------------|-(2)-----------------|
|-0------------------|-(0)-----------------|
|--------------------|---------------------|
|
| Gtr IV
| E. S +S  S E Q  Q     E. S +S  S E Q  Q
|--------------0-----|---------------0-----|
|----------1-0----0--|-----------1-0----0--|
|--------------------|---------------------|
|----2-(2)-----------|-----3-(3)-----------|
|-0------------------|--0------------------|
|--------------------|---------------------|


  Dsus4                Bb5
  W                    W
|--------------------|--------------------|
|--------------------|--------------------|
|--------------------|--------------------|
|--------------------|--------------------|
|--------------------|--------------------|
|--------------------|--------------------|
|
| E. S +S  S E Q  Q    E. S +S  S E Q  Q
|--------------5-----|-----------------6--|
|------------8----8--|--------------6-----|
|----------7---------|--------------------|
|----5-(5)-----------|----------8---------|
|-5------------------|----8-(8)---8-------|
|--------------------|-6------------------|


  Am                   Fmaj7/A
  Gtr IV
  E. S +S  S E Q  Q    E. S +S  S E Q  Q
|--------------0-----|--------------0-----|
|----------1-0----0--|----------1-0----0--|
|--------------------|--------------------|
|----2-(2)-----------|----3-(3)-----------|
|-0------------------|-0------------------|
|--------------------|--------------------|


  G5/B                 Bb
  E. S +S  S E Q  Q    E. S +E  E Q  Q
|--------------3-----|------------1------||
|------------3----3--|----------3----1---||
|----------0---------|----3-(3)----------||
|----0-(0)-----------|-------------------||
|-2------------------|-1-----------------||
|--------------------|-------------------||


 Verse
  E          C             D                F
  Gtr I
  W          W             W                 W
|----------|-------------|----------------|--------------|
|----------|-------------|----------------|--------------|
|-9--------|-5-----------|-7--------------|-10-----------|
|-9--------|-5-----------|-7--------------|-10-----------|
|-7--------|-3-----------|-5--------------|--8-----------|
|----------|-------------|----------------|--------------|
|
| Gtr IV
| W          Q   H.        H     Q    Q      H     H
|-0--------|-----0-------|-2-----2---(2)--|--------1-----|
|-0--------|-1--(1)------|-3----(3)---3---|--1----(1)----|
|-1--------|-0--(0)------|-2----(2)--(2)--|--2----(2)----|
|-2--------|-2--(2)------|-0----(0)--(0)--|--3----(3)----|
|-2--------|-3--(3)------|----------------|--3----(3)----|
|-0--------|-------------|----------------|--1----(1)----|


  E             C             B5              A5      G5
  W             W              W              H.      Q
|-------------|-------------|---------------|------------||
|-------------|-------------|---------------|------------||
|-9-----------|-5-----------|--4------------|------------||
|-9-----------|-5-----------|--4------------|-7-------5--||
|-7-----------|-3-----------|--2------------|-7-------5--||
|-------------|-------------|---------------|-5-------3--||
|
| Q   H.        Q   H.         Q    H.        H.      Q
|-----0-------|-----0-------|-------0-------|-5-------3--||
|-0--(0)------|-1--(1)------|-12--(12)------|-5-------3--||
|-1--(1)------|-0--(0)------|-11--(11)------|-2-------0--||
|-2--(2)------|-2--(2)------|--9---(9)------|------------||
|-2--(2)------|-3--(3)------|---------------|------------||
|-0--(0)------|-------------|---------------|------------||


   Interlude
    Q=160
    N.C.(F#)
    PM---------------------------------------------
    E S S E E S S E E S S   S S E S S E E E S S E
||------------------------|-----------------------|
||o-----------------------|-----------------------|
||------------------------|-----------------------|
||------------------------|-----------------------|
||o-----------------------|-----------------------|
||--2-2-2-2-2-2-2-2-2-2-2-|-2-2-2-2-2-2-2-2-2-2-2-|


 -----------------------------------------------|
  S S S S E E S S E E S S   S S E S S E E E S S E  4x
|-------------------------|------------------------||
|-------------------------|-----------------------o||
|-------------------------|------------------------||
|-------------------------|------------------------||
|-------------------------|-----------------------o||
|-2-2-2-2-2-2-2-2-2-2-2-2-|-2-2-2-2-2-2-2-2-2-2-2--||


  C#
  PM-----------------------------------------------
  E S S E E S S E E S S    S  S E S S E E E S S E
|-----------------------|-------------------------|
|-----------------------|-------------------------|
|-----------------------|-------------------------|
|-----------------------|-------------------------|
|-----------------------|-------------------------|
|-2-2-2-2-2-2-2-2-2-2-2-|--2--2-2-2-2-2-2-2-2-2-2-|
|
| Gtr V
| W                       +W
|-9---------------------|-(9)---------------------|
|-7---------------------|-(7)---------------------|
|-6---------------------|-(6)---------------------|
|-----------------------|-------------------------|
|-----------------------|-------------------------|
|-----------------------|-------------------------|


  D
 ---------------------------------------------------|
   S S S S E E S S E E S S     S  S E S S E E E S S E
|--------------------------|---------------------------|
|--------------------------|---------------------------|
|--------------------------|---------------------------|
|--------------------------|---------------------------|
|--------------------------|---------------------------|
|--2-2-2-2-2-2-2-2-2-2-2-2-|---2--2-2-2-2-2-2-2-2-2-2--|
|
|  W                          +W
|-10-----------------------|-(10)----------------------|
|--7-----------------------|--(7)----------------------|
|--7-----------------------|--(7)----------------------|
|--------------------------|---------------------------|
|--------------------------|---------------------------|
|--------------------------|---------------------------|


  E5/B
   PM------------------------------------------------
   E S S E E S S E E S S     S  S E S S E E E S S E
|------------------------|--------------------------|
|------------------------|--------------------------|
|------------------------|--------------------------|
|------------------------|--------------------------|
|------------------------|--------------------------|
|--2-2-2-2-2-2-2-2-2-2-2-|---2--2-2-2-2-2-2-2-2-2-2-|
|
|  W                        +W
|-12---------------------|-(12)---------------------|
|------------------------|--------------------------|
|--9---------------------|--(9)---------------------|
|--9---------------------|--(9)---------------------|
|------------------------|--------------------------|
|------------------------|--------------------------|


  B
 ---------------------------------------------------|
   S S S S E E S S E E S S     S  S E S S E E E S S E
|--------------------------|---------------------------|
|--------------------------|---------------------------|
|--------------------------|---------------------------|
|--------------------------|---------------------------|
|--------------------------|---------------------------|
|--2-2-2-2-2-2-2-2-2-2-2-2-|---2--2-2-2-2-2-2-2-2-2-2--|
|
|  W                          +W
|-11-----------------------|-(11)----------------------|
|--------------------------|---------------------------|
|--8-----------------------|--(8)----------------------|
|--9-----------------------|--(9)----------------------|
|--------------------------|---------------------------|
|--------------------------|---------------------------|


  C#
  PM-----------------------------------------------
  E S S E E S S E E S S    S  S E S S E E E S S E
|-----------------------|-------------------------|
|-----------------------|-------------------------|
|-----------------------|-------------------------|
|-----------------------|-------------------------|
|-----------------------|-------------------------|
|-2-2-2-2-2-2-2-2-2-2-2-|--2--2-2-2-2-2-2-2-2-2-2-|
|
| W                       +W
|-9---------------------|-(9)---------------------|
|-7---------------------|-(7)---------------------|
|-6---------------------|-(6)---------------------|
|-----------------------|-------------------------|
|-----------------------|-------------------------|
|-----------------------|-------------------------|


  D
 ---------------------------------------------------|
   S S S S E E S S E E S S     S  S E S S E E E S S E
|--------------------------|---------------------------|
|--------------------------|---------------------------|
|--------------------------|---------------------------|
|--------------------------|---------------------------|
|--------------------------|---------------------------|
|--2-2-2-2-2-2-2-2-2-2-2-2-|---2--2-2-2-2-2-2-2-2-2-2--|
|
|  W                          +W
|-10-----------------------|-(10)----------------------|
|--7-----------------------|--(7)----------------------|
|--7-----------------------|--(7)----------------------|
|--------------------------|---------------------------|
|--------------------------|---------------------------|
|--------------------------|---------------------------|


  E5/B
   PM------------------------------------------------
   E S S E E S S E E S S     S  S E S S E E E S S E
|------------------------|--------------------------|
|------------------------|--------------------------|
|------------------------|--------------------------|
|------------------------|--------------------------|
|------------------------|--------------------------|
|--2-2-2-2-2-2-2-2-2-2-2-|---2--2-2-2-2-2-2-2-2-2-2-|
|
|  W                        +W
|-12---------------------|-(12)---------------------|
|------------------------|--------------------------|
|--9---------------------|--(9)---------------------|
|--9---------------------|--(9)---------------------|
|------------------------|--------------------------|
|------------------------|--------------------------|


  B
 -----------------------------------------------------|
   S S S S E E S S E E S S     S  S E S S E S S E S S E
|--------------------------|----------------------------|
|--------------------------|----------------------------|
|--------------------------|----------------------------|
|--------------------------|----------------------------|
|--------------------------|----------------------------|
|--2-2-2-2-2-2-2-2-2-2-2-2-|---2--2-2-2-2-2-2-2-2-2-2-2-|
|
|  W                           W
|-11-----------------------|-(11)-----------------------|
|--------------------------|---7------------------------|
|--8-----------------------|--(8)-----------------------|
|--9-----------------------|--(9)-----------------------|
|--------------------------|----------------------------|
|--------------------------|----------------------------|


  E5                      B5
  W          +W           W          +W
|----------|------------|----------|--------|
|----------|------------|----------|--------|
|-9--------|-(9)--------|-4--------|-(4)----|
|-9--------|-(9)--------|-4--------|-(4)----|
|-7--------|-(7)--------|-2--------|-(2)----|
|----------|------------|----------|--------|
|
| W          +W           W          +W
|-7--------|-(7)--------|-7--------|-(7)----|
|-5--------|-(5)--------|-4--------|-(4)----|
|-4--------|-(4)--------|-4--------|-(4)----|
|----------|------------|----------|--------|
|----------|------------|----------|--------|
|----------|------------|----------|--------|


  D5                      C#5
                                                           PM
  W          +W           W          +H.       +E          E
|----------|------------|----------|----------------------------||
|----------|------------|----------|----------------------------||
|-7--------|-(7)--------|-6--------|-(6)-------(6)--------------||
|-7--------|-(7)--------|-6--------|-(6)-------(6)--------------||
|-5--------|-(5)--------|-4--------|-(4)-------(4)--------------||
|----------|------------|----------|-----------------------0----||
|
| W          +W           W          +W
|-5--------|-(5)--------|-4--------|-(4)------------------------||
|-3--------|-(3)--------|-2--------|-(2)------------------------||
|-2--------|-(2)--------|-1--------|-(1)------------------------||
|----------|------------|----------|----------------------------||
|----------|------------|----------|----------------------------||
|----------|------------|----------|----------------------------||
|
| Gtr II
|                                                       T
| W           W           W           H     Q   S    a  S  S  S
|----------|------------|----------|---------------h10-14p10h12-||
|----------|------------|----------|----------------------------||
|----------|------------|----------|----------------------------||
|----------|------------|----------|----------------------------||
|----------|------------|----------|----------------------------||
|----------|------------|----------|----------------------------||


 Guitar Solo
  F#5
   PM-----------|            PM                 PM---|            PM------
   E       S    S    E       E      +E          S    S     E      E
|------------------------------------------------------------------------|
|------------------------------------------------------------------------|
|------------------------------------------------------------------------|
|--------------------4-------------------------------------4-------------|
|--------------------4-------------------------------------4-------------|
|--2-------2----2----2-------2------(2)---------2----2-----2------0------|
|
| Gtr II
|  T       T         T       T       T                  T       T
|  |------6-------|  |-----6------|  |--------6---------|  |-----5-----|
|  S  S S  S  S   S  S  S S  S  S S  S  S S  a  S  S    S  S S  S    S S
|-14p10p9-14p10p==9------------------------------------------------------|
|-------------------14p10p9-14p10p9--------------------------------------|
|-----------------------------------14p11p9-------h9---14p11p9-16p==11p9-|
|-------------------------------------------14p11------------------------|
|------------------------------------------------------------------------|
|------------------------------------------------------------------------|


 ---------------|            PM               PM---|             PM
   E       S    S    E       E      +E        S    S    E        E
|--------------------------------------------------------------------------|
|--------------------------------------------------------------------------|
|--------------------------------------------------------------------------|
|--------------------4----------------------------------4------------------|
|--------------------4----------------------------------4------------------|
|--2-------2----2----2-------2------(2)-------2----2----2--------0---------|
|
|  T       T         T       T       T           T         T     T
|  |------6-------|  |-----6------|  |-------6--------| |------6------|
|  S  S S  S  S   S  S  S S  S  S S  S  S S   S  S    S S  S  S  S  S S
|--------------------------------------------------------------------------|
|--------------------------------------------------------------------------|
|-14p11p9-----------------------------------h11-16p==11p9-14p11-14p11p9----|
|---------14p11p==9-----------------16p11p9--------------------------------|
|-------------------14p11p9-16p11p9----------------------------------------|
|--------------------------------------------------------------------------|


   PM-------------|           PM                PM---|           PM------
   E         S    S    E      E        +E       S    S    E      E
|-----------------------------------------------------------------------|
|-----------------------------------------------------------------------|
|-----------------------------------------------------------------------|
|----------------------4----------------------------------4-------------|
|----------------------4----------------------------------4-------------|
|--2---------2----2----2------2--------(2)------2----2----2------0------|
|
|  T     T      T      T      T      T      T      T      T    T      T
|            |--3---|  |-3-|            |------5-------|  |-----5-----|
|  T  T  T T S  S   S  S S S  T T T  T  S   S S    S   S  S S  S   S  S
|-----------------------------------------------------------------------|
|-----------------------------------------------------------------------|
|-14p11-14p9p7-14p==9-14p9p7-14p6h7-14p=7--14p9---14p==7-14p6-14p==4-14p|
|-----------------------------------------------------------------------|
|-----------------------------------------------------------------------|
|-----------------------------------------------------------------------|


 -------------|           PM    PM|   PM
  E      S    S    E      E +E  S S E E
|----------------------------------------------|
|----------------------------------------------|
|----------------------------------------------|
|------------------4----------------4----------|
|------------------4----------------4----------|
|-2------2----2----2------2-(2)-2-2-2-0--------|
|
|    T      T      T    T ~~~~~~
| |------5------|  |-3--|               |-3-|
| S  S S    S   S  S S  S E +Q.       S T T T
|----------------------------------------------|
|----------------------------------------------|
|-6-14p6---14p==4-14p6-14p6-(6)-------4p2h4p2--|
|----------------------------------------------|
|----------------------------------------------|
|----------------------------------------------|


  PM--------|         PM           PM--|         PM-----
  E     S   S   E     E     +E     S   S   E     E
|------------------------------------------------------|
|------------------------------------------------------|
|------------------------------------------------------|
|---------------4--------------------------4-----------|
|---------------4--------------------------4-----------|
|-2-----2---2---2-----2-----(2)----2---2---2-----0-----|
|
| T     T       T     T      T     T       T     T
| |-----6-----| |----6----|  |-----6-----| |----6----|
| S S S S S   S S S S S S S  S S S S S   S S S S S S S
|------------------------------------------------------|
|------------------------------------------------------|
|-6p2h4-6p2h==4-6p2h4-6p2h4--7p4h6-7p4h==6-7p4h6-7p4h6-|
|------------------------------------------------------|
|------------------------------------------------------|
|------------------------------------------------------|


 -----------|         PM            PM--|           PM
  E     S   S   E     E     +E      S   S    E      E
|---------------------------------------------------------|
|---------------------------------------------------------|
|---------------------------------------------------------|
|---------------4----------------------------4------------|
|---------------4----------------------------4------------|
|-2-----2---2---2-----2-----(2)-----2---2----2------0-----|
|
| T     T       T     T      T      T        T      T
| |-----6-----| |----6----|  |-----6------|  |----6-----|
| S S S S S   S S S S S S S  S S S  S S   S  S S S  S S S
|---------------------------------------------------------|
|---------------------------------------------------------|
|-9p6h7-9p6h==7-9p6h7-9p6h7-11p7h9-11p7h==9-11p7h9-11p7h9-|
|---------------------------------------------------------|
|---------------------------------------------------------|
|---------------------------------------------------------|


   PM------------|              PM                 PM---|              PM--------
   E        S    S     E        E       +E         S     S     E       E
|--------------------------------------------------------------------------|
|--------------------------------------------------------------------------|
|--------------------------------------------------------------------------|
|-----------------4---------------------------------------4----------------|
|-----------------4---------------------------------------4----------------|
|--2---2----2-----2--------2-------(2)--------2-----2-----2-------0--------|
|
|  T     T             T        T        T   T     T     T     T     T
|-------6--------|  |------6-------|  |--3---|              |------5-------|
|S  S  S  S  S    S  S  S  S  S  S  S  S   S  S  T  T  T  T  S  S  S    S  S
|----------------------------------19--------21p14-19p14-------------------|
|-------------------19p17p14-19p17p14----19p14------------17p14-19p==14----|
|15p13-16p13h14s==17---------------------------------------------------h16-|
|--------------------------------------------------------------------------|
|--------------------------------------------------------------------------|
|--------------------------------------------------------------------------|


 ----------|          PM|
   E     S  S   Q   E S S Q
|----------------------------||
|----------------------------||
|----------------------------||
|---------------4---------4--||
|---------------4---------4--||
|--2-----2--2---2---2-2-2-2--||
|
|  T            ~~~~
|  S  S  S  S  +H.
|----------------------------||
|----------------------------||
|-18p16p14h16-(16)-----------||
|----------------------------||
|----------------------------||
|----------------------------||


  F#5
   PM---------|             PM             PM|   PM-
   E     S     S      E     E          +E  S S E E
|--------------------------------------------------|
|--------------------------------------------------|
|--------------------------------------------------|
|---------------------4------------------------4---|
|---------------------4------------------------4---|
|--2-----2-----2------2-----2----------(2)-2-2-2-0-|
|
|                                       ~~~
|  S  S  T  T  T  T   S  S  T  T  T  T  H
|----------------14-/21p17-------------------------|
|-------------14-----------19----------------------|
|----------14-----------------18-------------------|
|-------16-----------------------19----------------|
|----16-----------------------------21-------------|
|-14-----------------------------------17----------|


  D5
 -------------|             PM---------------|   PM
   E     S     S      E     E          +E  S S E E
|---------------------------------------------------|
|---------------------------------------------------|
|---------------------7------------------------7----|
|---------------------7------------------------7----|
|--5-----5-----5------5-----5----------(5)-5-5-5-4--|
|---------------------------------------------------|
|
|                                       ~~~
|  S  S  T  T  T  T   S  S  T  T  T  T  H
|----------------10-/17p14--------------------------|
|-------------10-----------15-----------------------|
|----------11-----------------14--------------------|
|-------12-----------------------16-----------------|
|----12-----------------------------17--------------|
|-10-----------------------------------14-----------|


  B5
  PM------|           PM---------------|   PM
  E   S   S     E     E          +E  S S E E
|--------------------------------------------|
|--------------------------------------------|
|---------------4------------------------4---|
|---------------4------------------------4---|
|-2---2---2-----2-----2----------(2)-2-2-2-2-|
|--------------------------------------------|
|
|                                 ~~~
| S S T T T T   S  S  T  T  T  T  H
|-----------7-/14p11-------------------------|
|---------7----------12----------------------|
|-------8---------------11-------------------|
|-----9--------------------13----------------|
|---9-------------------------14-------------|
|-7------------------------------11----------|


  E5                          F5
   E        S     S     Q      E     S     S     Q
|-----------------------------------------------------------|
|-----------------------------------------------------------|
|-----------------------------------------------------------|
|-----------------------2------------------------3----------|
|-----------------------2------------------------3----------|
|--0--------0-----0-----0------1-----1-----1-----1----------|
|
|  S  T  T  T  T  T  T  E.  S  S  S  T  T  T  T  E   E
|----------------12-16-16--16-16p13-------------------------|
|-------------12--------------------14--------------17b19===|
|----------13--------------------------13-------------------|
|-------14--------------------------------15----------------|
|----14--------------------------------------16-------------|
|-12--------------------------------------------13\---------|


  F#5
    PM----|        PM                PM---|              PM
    E   S S  E     E       +E        S    S     E        E
|----------------------------------------------------------------|
|----------------------------------------------------------------|
|----------------------------------------------------------------|
|------------4----------------------------------4----------------|
|------------4----------------------------------4----------------|
|---2---2-2--2-----2-------(2)-------2----2-----2--------0-------|
|
|   ~~~~~
|                  |--3--|  |-------5--------|  |------6-------|
|  +Q        E     S  S  S  S   S  S    S    S  S  S  S  S  S  S
|----------------------------------------------------------------|
|-(17)r-----17b19-17-15-17-14--14-15---17---17-14-15-14----------|
|-------------------------------------------------------16-14-13-|
|----------------------------------------------------------------|
|----------------------------------------------------------------|
|----------------------------------------------------------------|


  D5
   E.           E.           E.             +E.           +Q
|--------------------------------------------------------------|
|--------------------------------------------------------------|
|--7------------7------------7--------------(7)-----------(7)--|
|--7------------7------------7--------------(7)-----------(7)--|
|--5------------5------------5--------------(5)-----------(5)--|
|--------------------------------------------------------------|
|
|                                                      ~~~~~~~
|  |--3---|         |-------6-------|  |----3----|
|  S   S  S  S  S   S  S  S  S   S  S  S  S      S  S  S  +Q
|--------------------------------------------------------------|
|--------------------------------------------------12-12-(12)--|
|-13--14-14-16-14--13-14-13-12--11-11-14-13-----11-------------|
|--------------------------------------------------------------|
|--------------------------------------------------------------|
|--------------------------------------------------------------|


  B5                                                 E5
    E. E.         E.     +E.      +Q                 W
|----------------------------------------------|--------------------------||
|----------------------------------------------|--------------------------||
|4--4---------4------(4)------(4)--------------|-----9--------------------||
|4--4---------4------(4)------(4)--------------|-----9--------------------||
|2--2---------2------(2)------(2)--------------|-----7--------------------||
|----------------------------------------------|--------------------------||
|
|   ~~~~                                               ~~
|                                            |-3-|
|  +Q      +S   S E    S  S   S S +S     +S  S S S   S E. +Q.     E  S S S  S
|----------------------------------------------|-----------------8-8-8-12-||
|-(12)(12)-10-9\-------------------------------|--------------------------||
|---------------------9------------------------|--------------------------||
|----------------/11-----11s9-(9)b11r(9)-7-----|-9----------(11)----------||
|------------------------------------------9-7-|---9--(9)-----------------||
|----------------------------------------------|--------------------------||


  Q=140
  N.C.(A)
              ~~~~~~~~~ PM-----------------|
    S  S S S +Q    +E   S S  S   S      S  S
|--------------------------------------------|
|--------------------------------------------|
|--------------------------------------------|
|----------7-(7)---(7)-----------------------|
|--------------------------------5-----------|
|---5--5-5--------------5-7--8----------8--7-|
|
|   ~~~~
|                            |--3---|
|  +H              +E   E    S S    S  +E
|-(12)------------(12)-12p==10p8-------------|
|----------------------------------12-(12)---|
|--------------------------------------------|
|--------------------------------------------|
|--------------------------------------------|
|--------------------------------------------|


              ~~~~~~~~~~~~  PM------------|
  S  S S  S  +Q       +E    S S  S   S  S S
|-------------------------------------------|
|-------------------------------------------|
|-------------------------------------------|
|---------7--(7)------(7)-------------------|
|------------------------------------5------|
|-5--5-5--------------------5-7--8------8-7-|
|
|         ~~~~~~~
| E.      S  +E.  +S   S  E   S  T T E.
|-8-----------------------------------------|
|--------10-(10)-(10)s=6s10p==8h10p8s6------|
|-------------------------------------------|
|-------------------------------------------|
|-------------------------------------------|
|-------------------------------------------|


              ~~~~~~~~   PM------------|
   S  S  S S +Q   +E     S   S   S S S S
|----------------------------------------|
|----------------------------------------|
|----------------------------------------|
|----------7-(7)--(7)--------------------|
|----------------------------------5-----|
|--5--5--5---------------5---7---8---8-7-|
|
|          ~~~~~~
|                  |-----5-----|
| +E     S S +Q    S S S   S   S S S S S
|----------------------------------------|
|-(6)---\6p5-(5)---5h6p5-------5---------|
|--------------------------7-----7s9s7p5-|
|----------------------------------------|
|----------------------------------------|
|----------------------------------------|


           ~~~~~~~~~~~PM----------|
  S S S S +Q      +E  S S S S S   S
|--------------------------------------|
|--------------------------------------|
|--------------------------------------|
|-------7-(7)-----(7)------------------|
|---------------------------5----------|
|-5-5-5---------------5-7-8---8---7----|
|
|          ~~~~    ~~~
|                             |--3--|
| S S E   +E  S S +Q.         S S   S
|--------------------------------------|
|--------------------------------------|
|-----------------------------2-4---0--|
|-7p5----------------------------------|
|-----5---(5)p3h5-(5)------------------|
|--------------------------------------|


                   ~~~~~~~~~~~~~~~~~    PM------------------|
  S   S   S   S   +Q            +E      S   S   S   S   S   S
|---------------------------------------------------------------|
|---------------------------------------------------------------|
|---------------------------------------------------------------|
|-------------7---(7)-----------(7)-----------------------------|
|---------------------------------------------------5-----------|
|-5---5---5-----------------------------5---7---8-------8---7---|
|
| |------6------|  |----6-----|  |-----6------| |------6------|
| S S   S S S   S  S  S S S S S  S  S S S S   S S S   S S S   S
|---------------------------------------------------------------|
|---------------------------------------------------------------|
|-4-5---5-0-2---4--2--0-4-5-2-0--5--7-2-0-4---5-2-5---5-7-7---7-|
|---------------------------------------------------------------|
|---------------------------------------------------------------|
|---------------------------------------------------------------|


                   ~~~~~~~~~~~~~~~~~    PM------------------|
  S   S   S   S   +Q            +E      S   S   S   S   S   S
|---------------------------------------------------------------|
|---------------------------------------------------------------|
|---------------------------------------------------------------|
|-------------7---(7)-----------(7)-----------------------------|
|---------------------------------------------------5-----------|
|-5---5---5-----------------------------5---7---8-------8---7---|
|
| |------6------|  |----6-----|  |-----6------| |------6------|
| S S   S S S   S  S  S S S S S  S  S S S S   S S S   S S S   S
|-----------------------5-7-7-8---------7-8---8---------5-5---5-|
|-5-6---6-0-6---8--8--0----------6--8-9---------6-8---8---------|
|---------------------------------------------------------------|
|---------------------------------------------------------------|
|---------------------------------------------------------------|
|---------------------------------------------------------------|


                       ~~~~~~~~~~~~~~~~~~~~       PM-------------------------|
  S    S    S    S    +Q               +E         S    S     S    S     S    S
|--------------------------------------------------------------------------|
|--------------------------------------------------------------------------|
|--------------------------------------------------------------------------|
|---------7----(7)--------------(7)----------------------------------------|
|----------------------------------------------------------5---------------|
|-5----5----5-------------------------------------5----7-----8----------8-7|
|
|--------6--------|  |------6------|  |--------6--------|  |--------6---------|
| S  S    S S  S    S  S   S  S  S S S  S   S  S  S  S    S  S  S    S  S  S    S
|-8-10---10------------------13-13-0-0--------------13-15-15---------------|
|-----------0-10--10-12--12-----------13-15-15-15-----------15--15-15-18-18|
|--------------------------------------------------------------------------|
|--------------------------------------------------------------------------|
|--------------------------------------------------------------------------|
|--------------------------------------------------------------------------|


                        ~~~~~~~~~~~~~~~~~~~~~~~~~~~~~~~~PM------------|
   S    S    S    S    +Q                           +E  S S  S    S S S
|------------------------------------------------------------------------||
|------------------------------------------------------------------------||
|------------------------------------------------------------------------||
|-----------------7----(7)--------------------------(7)------------------||
|-----------------------------------------------------------------5------||
|--5----5----5------------------------------------------5-7--8------8-7--||
|
|  |--------6--------|  |------------6------------|
|  S  S    S S  S    S  S   X  X  T  S  S      S  S  Q       Q
|-15-18---15-0-------------------15-17-20b22==20-20-20r-----20b22--------||
|--------------15---17-17--17-18-----------------------------------------||
|------------------------------------------------------------------------||
|------------------------------------------------------------------------||
|------------------------------------------------------------------------||
|------------------------------------------------------------------------||


 Chorus
  Am                                   F
   S    S S S  +E  E +H                 S    S S  S  +E   E +H
|-----------0--(0)-0-(0)-------------|------------1--(1)--1-(1)--------|
|-----------1--(1)-1-(1)-------------|------------1--(1)--1-(1)--------|
|-----------2--(2)-2-(2)-------------|------------2--(2)--2-(2)--------|
|-----------2--(2)-2-(2)-------------|------------3--(3)--3-(3)--------|
|--0----0-0-0--(0)-0-(0)-------------|--0----0-0--3--(3)--3-(3)--------|
|------------------------------------|---------------------------------|
|
|                                                                   ~~~~
|                              |-3-|
|  Q           +H          +E  S S S    E.        S  +E   E  E.  S  Q
|-20b22-------(20)--------(20)-------|-22b24-----20-(20)-20-20--19-17--|
|----------------------------------x-|---------------------------------|
|--------------------------------x---|---------------------------------|
|------------------------------x-----|---------------------------------|
|------------------------------------|---------------------------------|
|------------------------------------|---------------------------------|


  G                                          F
    S  S S S  +E   E      +H                  S S S S +E  E +H
|----------3--(3)--3------(3)--------------|--------1-(1)-1-(1)----|
|----------3--(3)--3------(3)--------------|--------1-(1)-1-(1)----|
|----------4--(4)--4------(4)--------------|--------2-(2)-2-(2)----|
|----------5--(5)--5------(5)--------------|--------3-(3)-3-(3)----|
|---0--0-0-5--(5)--5------(5)--------------|--0-0-0-3-(3)-3-(3)----|
|----------3--(3)--3------(3)--------------|--------1-(1)-1-(1)----|
|
|                                >
|~~~~~~
|  +Q         +E   E      +Q     E     +E     W
|-(17)-------(17)-16b17==(16)r--16b17r(16)-|-13--------------------|
|------------------------------------------|-----------------------|
|------------------------------------------|-----------------------|
|------------------------------------------|-----------------------|
|------------------------------------------|-----------------------|
|------------------------------------------|-----------------------|


  Am                     F
  S S S S +E  E +H       S S S S +E  E +H
|-------0-(0)-0-(0)----|-------1-(1)-1-(1)----|
|-------1-(1)-1-(1)----|-------1-(1)-1-(1)----|
|-------2-(2)-2-(2)----|-------2-(2)-2-(2)----|
|-------2-(2)-2-(2)----|-------3-(3)-3-(3)----|
|-0-0-0-0-(0)-0-(0)----|-0-0-0-3-(3)-3-(3)----|
|----------------------|----------------------|
|
| W                      W
|----------------------|----------------------|
|----------------------|----------------------|
|----------------------|----------------------|
|----------------------|----------------------|
|----------------------|----------------------|
|----------------------|----------------------|


  G                      F
  S S S S +E  E +H       S S S S +E  E +H
|-------3-(3)-3-(3)----|-------1-(1)-1-(1)----||
|-------3-(3)-3-(3)----|-------1-(1)-1-(1)----||
|-------4-(4)-4-(4)----|-------2-(2)-2-(2)----||
|-------5-(5)-5-(5)----|-------3-(3)-3-(3)----||
|-0-0-0-5-(5)-5-(5)----|-0-0-0-3-(3)-3-(3)----||
|-------3-(3)-3-(3)----|-------1-(1)-1-(1)----||
|
| W                      W
|----------------------|----------------------||
|----------------------|----------------------||
|----------------------|----------------------||
|----------------------|----------------------||
|----------------------|----------------------||
|----------------------|----------------------||


 Outro
  Q=160
  N.C.(E)
  PM---------------------------------------------
  E S S E E S S E E S S   S S E S S E E E S S E
|-----------------------|-----------------------|
|-----------------------|-----------------------|
|-----------------------|-----------------------|
|-----------------------|-----------------------|
|-----------------------|-----------------------|
|-0-0-0-0-0-0-0-0-0-0-0-|-0-0-0-0-0-0-0-0-0-0-0-|
|
|                                     <
|                                     ~~~~~~~~~~~
| W                       H           H
|-----------------------|-------------7---------|
|-----------------------|-----------------------|
|-----------------------|-----------------------|
|-----------------------|-----------------------|
|-----------------------|-----------------------|
|-----------------------|-----------------------|


                                              B5    C5
 -------------------------------------------|   PM|
   E  S S E E S S E E S S    S  S E S S E S S E S S E
|-------------------------|-----------------------------*|
|-------------------------|-----------------------------*|
|-------------------------|-------------------4-----5---*|
|-------------------------|-------------------4-----5---*|
|-------------------------|-------------------2-----3---*|
|--0--0-0-0-0-0-0-0-0-0-0-|--0--0-0-0-0-0-0-0---0-0-----*|
|
|~~~~~~~~~~~~~~~~~~~~~~~~~~~~~~~
| +W                        +W
|-(7)---------------------|-(7)-------------------------*|
|-------------------------|-----------------------------*|
|-------------------------|-----------------------------*|
|-------------------------|-----------------------------*|
|-------------------------|-----------------------------*|
|-------------------------|-----------------------------*|




--------------------------------------------------------------------------------


Duration Legend
---------------
W - whole; H - half; Q - quarter; E - 8th; S - 16th; T - 32nd; X - 64th; a - acciaccatura
+ - note tied to previous; . - note dotted; .. - note double dotted
Uncapitalized letters represent notes that are staccato (1/2 duration)
Irregular groupings are notated above the duration line
Duration letters will always appear directly above the note/fret number it represents the
duration for.  Duration letters with no fret number below them represent rests.  Multi-
bar rests are notated in the form Wxn, where n is the number of bars to rest for.  Low
melody durations appear below the staff

Tablature Legend
----------------
 h   - hammer-on
 p   - pull-off
 b   - bend
 pb  - pre-bend
 r   - bend release (if no number after the r, then release immediately)
 /\  - slide into or out of (from/to "nowhere")
 s   - legato slide
 S   - shift slide
<n> - natural harmonic
[n]  - artificial harmonic
n(n) - tapped harmonic
 ~   - vibrato
 tr  - trill
 T   - tap
 TP  - trem. picking
 PM  - palm muting
\n/  - tremolo bar dip; n = amount to dip
 \n  - tremolo bar down
 n/  - tremolo bar up
/n\  - tremolo bar inverted dip
 =   - hold bend; also acts as connecting device for hammers/pulls
 <> - volume swell (louder/softer)
 x   - on rhythm slash represents muted slash
 o   - on rhythm slash represents single note slash

Misc Legend
-----------
 |  - bar
||  - double bar
||o - repeat start
o|| - repeat end
*|  - double bar (ending)
 :  - bar (freetime)
 $  - Segno
 &  - Coda
Tempo markers - <E/E./Q/Q./H/H.> = BPM(8/16=s8/s16), where s8 = swing 8ths, s16 = swing 16ths

comments
We did not receive enough feedback on this tab! Please rate:
print report bad tab
1 2 3 4 5
I want to post or [tab]
guest
You may want to rate the tab now too:
select rating
Please do not post tabs as comments. Select "correction" instead!