Oops, an error
Loading. Please wait.

A Rite Of Passage Tab

ver1
ver1

Intro

Whole song

More versions @911Tabs.com
14,426 views 3 this week
8 commentsread comments
1 2 3 4 5
not so good
x 5
Autoscroll
+/-
esc
set tempo
stop
Contributor
WARNING: You are trying to view
                                    content from Ultimate-Guitar.com
                                    in an unauthorized application,
                                    which is prohibited.

                                    Please use an official Ultimate
                                    Guitar Tabs application for iPhone,
                                    iPad or Android to access legitimate
                                    chords, guitar, bass, and drum tabs
                                    from Ultimate-Guitar.com database.

                                    Type "ultimate guitar tabs" in Apple
                                    App Store's or Android Market's
                                    search to find the application.
Rite of Passage, Black Clouds and Silver Linings                                

Dream Theater
Petrucci
tabbed by: Bas and Davey

Played on a seven string guitar(, or a dropped c tuning.)
the rest of the song and a Guitar Pro tab, coming up soon.
Enjoy!

                                     E  S S E  E  S S E  E  E   
E||-------|-------|-------|-------|----------------------------|
B||-------|-------|-------|-------|----------------------------|
G||-------|-------|-------|-------|----------------------------|
D||-------|-------|-------|-------|-----4-5-4-----4-5-4--------|
A||-------|-------|-------|-------|--5---------5---------5--3--|
E||-------|-------|-------|-------|----------------------------|
B||-------|-------|-------|-------|----------------------------|


  E  S S E  E  E  E  Q       E  S S E  E  S S E  E  E   
--------------------------|----------------------------|
--------------------------|----------------------------|
---------------------5----|----------------------------|
-----4-5-4--------4-------|-----4-5-4-----4-5-4--------|
--5---------5--3----------|--5---------5---------5--3--|
--------------------------|----------------------------|
--------------------------|----------------------------|


                                          PM PM                 
  E  S  S E  E  E  E  Q       E  S  S  E  S  S  S  S  E  E  E   
---------------------------|-----------------------------------|
---------------------------|-----------------------------------|
---------------------------|-----------------------------------|
-----4h-5-4-----6--7-------|-----4h-5p-4--------4h-5p-4--------|
--5----------5--6--7--6----|--5-----------5--5-----------5--3--|
----------------4--5--6----|-----------------------------------|
----------------------4----|-----------------------------------|


              PM PM                           PM PM                 
  E  S  S  E  S  S  E  E  Q       E  S  S  E  S  S  S  S  E  E  E   
-------------------------------|-----------------------------------|
-------------------------------|-----------------------------------|
--------------------------5----|-----------------------------------|
-----4h-5p-4-----------4-------|-----4h-5p-4--------4h-5p-4--------|
--5-----------5--5--3----------|--5-----------5--5-----------5--3--|
-------------------------------|-----------------------------------|
-------------------------------|-----------------------------------|


              PM PM                           PM PM                 
  E  S  S  E  S  S  E  E  Q       E  S  S  E  S  S  S  S  E  E  E   
-------------------------------|-----------------------------------|
-------------------------------|-----------------------------------|
-------------------------------|-----------------------------------|
-----4h-5p-4--------6--7-------|-----4h-5p-4--------4h-5p-4--------|
--5-----------5--5--6--7--6----|--5-----------5--5-----------5--3--|
--------------------4--5--6----|-----------------------------------|
--------------------------4----|-----------------------------------|


              PM PM                             PM PM                 
  E  S  S  E  S  S  E  E    Q       E  S  S  E  S  S  S  S  E  E  E   
---------------------------------|-----------------------------------|
---------------------------------|-----------------------------------|
--------------------------<>5----|-----------------------------------|
-----4h-5p-4-----------4---------|-----4h-5p-4--------4h-5p-4--------|
--5-----------5--5--3------------|--5-----------5--5-----------5--3--|
---------------------------------|-----------------------------------|
---------------------------------|-----------------------------------|


  PM PM    PM PM    PM PM    PM PM                         
  S  S  E  S  S  E  S  S  E  S  S  E     W                 
--------------------------------------|-------------------|
--------------------------------------|-------------------|
--------5--------7--------8--------5--|-------------------|
--------5--------7--------8--------5--|-------------------|
--3--3--3--5--5--5--6--6--6--3--3--3--|--5----------------|
--------------------------------------|--5----------------|
--------------------------------------|--3----------------|


  H        E  E  Q       W                   H        E  E  Q     
----------------------|-------------------|----------------------|
----------------------|-------------------|----------------------|
-----------------5----|-------------------|----------------------|
--------------4-------|-------------------|-----------6--7-------|
--L--------3----------|--5----------------|--L--------6--7--6----|
--L-------------------|--5----------------|--L--------4--5--6----|
--L-------------------|--3----------------|--L--------------4----|


  W                   H        E  E    Q       W                 
-------------------|------------------------|-------------------|
-------------------|------------------------|-------------------|
-------------------|-----------------<>5----|-------------------|
-------------------|--------------4---------|-------------------|
--5----------------|--L--------3------------|--5----------------|
--5----------------|--L---------------------|--5----------------|
--3----------------|--L---------------------|--3----------------|


           PM PM            PM   PM PM PM      PM PM PM      PM    
           |--3--|                                                 
  H        E  E  E  Q       S  S S  S  S  E  S S  S  S  S E  S  S  
-------------------------|----------------------------------------|
-------------------------|----------------------------------------|
-------------------------|----------------------------------------|
-----------6--6--6-------|----------------------------------------|
--L--------6--6--6--6----|----------------------------------------|
--L--------4--4--4--6----|--5----5--5--5-------5--5--5-------5----|
--L-----------------4----|--3----3--3--3-------3--3--3-------3----|


     PM PM PM                   PM   PM PM PM       PM PM PM       PM    
  E  S  S  S  E.  E  E  Q       S  S S  S  S  S S S S  S  S  S S S S  S  
-----------------------------|------------------------------------------|
-----------------------------|------------------------------------------|
------------------------5----|------------------------------------------|
---------------------4-------|------------------------------------------|
------------------3----------|------------------------------------------|
-----5--5--5-----------------|--5----5--5--5--------5--5--5--------5----|
-----3--3--3-----------------|--3----3--3--3--------3--3--3--------3----|


     PM PM PM                   PM   PM PM PM      PM PM PM      PM    
  E  S  S  S  E.  E  E  Q       S  S S  S  S  E  S S  S  S  S E  S  S  
-----------------------------|----------------------------------------|
-----------------------------|----------------------------------------|
-----------------------------|----------------------------------------|
-----------------------------|----------------------------------------|
-----------------------------|----------------------------------------|
-----5--5--5------4--5-------|--5----5--5--5-------5--5--5-------5----|
-----3--3--3------------4----|--3----3--3--3-------3--3--3-------3----|


     PM PM PM                   PM   PM PM PM       PM PM PM         
  E  S  S  S  E.  E  E  Q       S  S S  S  S  S S S S  S  S  S Q     
-----------------------------|--------------------------------------|
-----------------------------|--------------------------------------|
------------------------5----|--------------------------------------|
---------------------4-------|--------------------------------------|
------------------3----------|--------------------------------------|
-----5--5--5-----------------|--5----5--5--5--------5--5--5---------|
-----3--3--3-----------------|--3----3--3--3--------3--3--3---------|


                                 PM   PM PM PM      PM PM PM      PM    
  S S E  S S E  S S E  S S E     S  S S  S  S  E  S S  S  S  S E  S  S  
------------------------------|----------------------------------------|
------------------------------|----------------------------------------|
------------------------------|----------------------------------------|
------5------7------8------5--|----------------------------------------|
--3-3-3--5-5-5--6-6-6--3-3-3--|----------------------------------------|
------------------------------|--5----5--5--5-------5--5--5-------5----|
------------------------------|--3----3--3--3-------3--3--3-------3----|


     PM PM PM                   PM   PM PM PM       PM PM PM       PM    
  E  S  S  S  E.  E  E  Q       S  S S  S  S  S S S S  S  S  S S S S  S  
-----------------------------|------------------------------------------|
-----------------------------|------------------------------------------|
------------------------5----|------------------------------------------|
---------------------4-------|------------------------------------------|
------------------3----------|------------------------------------------|
-----5--5--5-----------------|--5----5--5--5--------5--5--5--------5----|
-----3--3--3-----------------|--3----3--3--3--------3--3--3--------3----|


     PM PM PM                   PM   PM PM PM      PM PM PM      PM    
  E  S  S  S  E.  E  E  Q       S  S S  S  S  E  S S  S  S  S E  S  S  
-----------------------------|----------------------------------------|
-----------------------------|----------------------------------------|
-----------------------------|----------------------------------------|
-----------------------------|----------------------------------------|
-----------------------------|----------------------------------------|
-----5--5--5------4--5-------|--5----5--5--5-------5--5--5-------5----|
-----3--3--3------------4----|--3----3--3--3-------3--3--3-------3----|


     PM PM PM                   PM   PM PM PM       PM PM PM         
  E  S  S  S  E.  E  E  Q       S  S S  S  S  S S S S  S  S  S Q     
-----------------------------|--------------------------------------|
-----------------------------|--------------------------------------|
------------------------5----|--------------------------------------|
---------------------4-------|--------------------------------------|
------------------3----------|--------------------------------------|
-----5--5--5-----------------|--5----5--5--5--------5--5--5---------|
-----3--3--3-----------------|--3----3--3--3--------3--3--3---------|


  S S E  S S E  S S E  S S E     E  S S E  S S S S E  E  E   
------------------------------|-----------------------------|
------------------------------|-----------------------------|
------------------------------|-----------------------------|
------5------7------8------5--|-----------------------------|
--3-3-3--5-5-5--6-6-6--3-3-3--|-----7-8-7------7-8-7--------|
------------------------------|-----------------------------|
------------------------------|--5---------5-5--------5--3--|


  E  S S E  S S E  Q.        E  S S E  S S S S E  E  E   
--------------------------|-----------------------------|
--------------------------|-----------------------------|
--------------------------|-----------------------------|
--------------------------|-----------------------------|
-----7-8-7----------------|-----7-8-7------7-8-7--------|
-------------------5------|-----------------------------|
--5---------5-5-3---------|--5---------5-5--------5--3--|


                PM PM                                     
  E  S S E  S S E  E  Q       E  S S E  S S S S E  E  E   
---------------------------|-----------------------------|
---------------------------|-----------------------------|
---------------------------|-----------------------------|
---------------------------|-----------------------------|
-----7-8-7------8--9-------|-----7-8-7------7-8-7--------|
----------------6--7--8----|-----------------------------|
--5---------5-5-------6----|--5---------5-5--------5--3--|


  E  S S E  S S E  Q.        E  S S E  S S S S E  E  E   
--------------------------|-----------------------------|
--------------------------|-----------------------------|
--------------------------|-----------------------------|
--------------------------|-----------------------------|
-----7-8-7----------------|-----7-8-7------7-8-7--------|
-------------------5------|-----------------------------|
--5---------5-5-3---------|--5---------5-5--------5--3--|


                              Turn the key                    
                              A5                              
                PM PM                                         
  E  S S E  S S E  E  Q       E            E  E  Q    Q.      
---------------------------|---------------------------------|
---------------------------|------------------6--5----6------|
---------------------------|---------------------------------|
---------------------------|---------------7-----------------|
-----7-8-7------8--9-------|---------------------------------|
----------------6--7--8----|--5------------------------------|
--5---------5-5-------6----|---------------------------------|


  Walk through the gate                    
  D5                                       
  E                     E  E  Q    Q.      
------------------------------------------|
---------------------------6--5----6------|
------------------------------------------|
------------------------------------------|
------------------------5-----------------|
------------------------------------------|
--3---------------------------------------|


  The great ascent                    
  F5                                  
  E                E  E  Q    Q.      
-------------------------------------|
----------------------6--5----6------|
-------------------------------------|
-------------------3-----------------|
-------------------------------------|
--1----------------------------------|
-------------------------------------|


  To reach a higher state                                                
  C5                               G/B             A5                    
  E                       E  E  E  E   E  E  E     E  E  E  Q    Q.      
------------------------------------------------|-----------------------|
--8-----------------------6--5--6--5------------|--------6--5----6------|
---------------------------------------7--5--4--|-----------------------|
------------------------------------------------|-----7-----------------|
------------------------------------------------|-----------------------|
------------------------------------------------|--5--------------------|
------------------------------------------------|-----------------------|


  A right of pass-                    
  F5                                  
  E                E  E  Q    Q.      
-------------------------------------|
----------------------6--5----6------|
-------------------------------------|
-------------------3-----------------|
-------------------------------------|
--1----------------------------------|
-------------------------------------|


  agge!!!!!!                                                           
  D5                       D5                  E5                      
  S          S S S S S S S S  S S S S S S S    E  E  E  E  E  E  Q     
--------------------------------------------|-------------------------|
-----------------5-6-5------------5-6-5-----|--------------6--5-------|
---------------7-------7--------7-------7---|--------4--5-------------|
-------------7-----------7----7-----------7-|--6--7--------------6----|
--5------------------------5----------------|-------------------------|
--------------------------------------------|-------------------------|
--------------------------------------------|-------------------------|


  The final stage                      A sacred home                    
  A5                                   D5                               
  E               E  E  Q    Q.        E             E  E  Q    Q.      
------------------------------------|----------------------------------|
---------------------6--5----6------|-------------------6--5----6------|
------------------------------------|----------------------------------|
------------------7-----------------|----------------------------------|
------------------------------------|----------------5-----------------|
--5---------------------------------|----------------------------------|
------------------------------------|--3-------------------------------|


  Unlock the door                    
  F5                                 
  E               E  E  Q    Q.      
------------------------------------|
---------------------6--5----6------|
------------------------------------|
------------------3-----------------|
------------------------------------|
--1---------------------------------|
------------------------------------|


  And lay the corner stone                                                
  C5                                G/B             A5                    
  E                        E  E  E  E   E  E  E     E  E  E  Q    Q.      
-------------------------------------------------|-----------------------|
--8------------------------6--5--6--5------------|--------6--5----6------|
----------------------------------------7--5--4--|-----------------------|
-------------------------------------------------|-----7-----------------|
-------------------------------------------------|-----------------------|
-------------------------------------------------|--5--------------------|
-------------------------------------------------|-----------------------|


  A rite of pass-                    
  F5                                 
  E               E  E  Q    Q.      
------------------------------------|
---------------------6--5----6------|
------------------------------------|
------------------3-----------------|
------------------------------------|
--1---------------------------------|
------------------------------------|


  aaggeee!!!                                                          
  Bb 5 maj7                                   E5                      
  S          S S S S S S S S S S S S S S S    E  E  E  E  E  E  Q     
-------------------------------------------|-------------------------|
-----------------5-6-5-----------5-6-5-----|--------------5--6-------|
---------------7-------7-------7-------7---|--------4--5--------4----|
-------------7-----------7---7-----------7-|--6--7-------------------|
--5------------------------5---------------|-------------------------|
-------------------------------------------|-------------------------|
-------------------------------------------|-------------------------|


  Q.     E  E  E  E  E     Q.     E  E  E  E  E     E  E  H.            
------------------------|------------------------|---------------------|
------------------------|------------------------|---------------------|
------------------------|------------------------|---------------------|
------------1--0--------|------------1--0--------|--------4------------|
--0------3--------3-----|---------3--------3-----|-----3---------------|
---------------------3--|--L------------------2--|--L------------------|
------------------------|------------------------|---------------------|


              PM PM                               PM PM             
  E  S  S  E  S  S  S  S  E  E  E     E  S  S  E  S  S  E  E  Q     
-----------------------------------|-------------------------------|
-----------------------------------|-------------------------------|
-----------------------------------|--------------------------5----|
-----4h-5p-4--------4h-5p-4--------|-----4h-5p-4-----------4-------|
--5-----------5--5-----------5--3--|--5-----------5--5--3----------|
-----------------------------------|-------------------------------|
-----------------------------------|-------------------------------|


              PM PM                               PM PM                     
                                                        |-3-| |-3-|         
  E  S  S  E  S  S  S  S  E  E  E     E  S  S  E  S  S  S S S S S S   Q     
-----------------------------------|---------------------------------------|
-----------------------------------|---------------------------------------|
-----------------------------------|---------------------------------------|
-----4h-5p-4--------4h-5p-4--------|-----4h-5p-4--------------------<>5----|
--5-----------5--5-----------5--3--|--5-----------5--5---------------------|
-----------------------------------|---------------------------------------|
-----------------------------------|--------------------3-3-3-3-3-3--------|


              PM PM                               PM PM               
  E  S  S  E  S  S  S  S  E  E  E     E  S  S  E  S  S  E  E    Q     
-----------------------------------|---------------------------------|
-----------------------------------|---------------------------------|
-----------------------------------|--------------------------<>5----|
-----4h-5p-4--------4h-5p-4--------|-----4h-5p-4-----------4---------|
--5-----------5--5-----------5--3--|--5-----------5--5--3------------|
-----------------------------------|---------------------------------|
-----------------------------------|---------------------------------|


              PM PM                   PM PM    PM PM    PM PM    PM    
  E  S  S  E  S  S  S  S  E  E  E     S  S  E  S  S  E  S  S  E  Q     
-----------------------------------|----------------------------------|
-----------------------------------|----------------------------------|
-----------------------------------|--------5--------7--------8--5----|
-----4h-5p-4--------4h-5p-4--------|--------5--------7--------8--5----|
--5-----------5--5-----------5--3--|--3--3--3--5--5--5--6--6--6--3----|
-----------------------------------|----------------------------------|
-----------------------------------|----------------------------------|


  W                   H        E  E    Q       W                 
-------------------|------------------------|-------------------|
-------------------|------------------------|-------------------|
-------------------|-----------------<>5----|-------------------|
-------------------|--------------4---------|-------------------|
--5----------------|--L--------3------------|--5----------------|
--5----------------|--L---------------------|--5----------------|
--3----------------|--L---------------------|--3----------------|


           PM PM                   
           |--3--|                 
  H        E  E  E  Q              
-------------------------|-------||
-------------------------|-------||
-------------------------|-------||
-----------6--6--6-------|-------||
--L--------6--6--6--6----|-------||
--L--------4--4--4--6----|-------||
--L-----------------4----|-------||




Duration Legend
---------------
W - whole
H - half
Q - quarter
E - 8th
S - 16th
T - 32nd
X - 64th
. - note dotted
|-n-|  - n-tuplets


Tablature Legend
----------------
L - tied note
x - dead note
g - grace note
(n) - ghost note
> - accentuded note
NH - natural harmonic
AH - artificial harmonic
TH - tapped harmonic
SH - semi harmonic
PH - pitch harmonic
h - hammer on
p - pull off
b - bend
br - bendRelease
pb - preBend
pbr - preBendRelease
brb - bendReleaseBend
\n/ - tremolo bar dip
\n - tremolo bar dive
-/n - tremolo bar Release up
/n\ - tremolo bar inverted dip
/n - tremolo bar return
-\n - tremolo bar Release down
S - shift slide
s - legato slide
/ -  slide into from below or out of upwards
\ -  slide into from above or out of downwards
~ - vibrato
W - wide vibrato
tr - trill
TP - tremolo picking
T - tapping
S - slap
P - pop
< - fade in
^ - brush up
v - brush down
comments
print report bad tab
8 comments total. Showing first comments.
0 reply
tearsofmyguitar wrote on April 23 2009, 08:31 pm

How did you get this? :D

0 reply
randyaintdead82 wrote on May 6 2009, 06:03 pm

i thought this was in drop d it sounds like it is

0 reply
Toast1337 wrote on May 21 2009, 01:59 pm

it is dropped D

I want to post or [tab]
guest
You may want to rate the tab now too:
select rating
Please do not post tabs as comments. Select "correction" instead!