Oops, an error
Loading. Please wait.

A Rite Of Passage Tab

ver1
ver1

Intro

Whole song

More versions @911Tabs.com
26,609 views 87 this week
4 commentsread comments
1 2 3 4 5
accurate
x 10
Autoscroll
+/-
esc
set tempo
stop
Contributor
WARNING: You are trying to view
                                    content from Ultimate-Guitar.com
                                    in an unauthorized application,
                                    which is prohibited.

                                    Please use an official Ultimate
                                    Guitar Tabs application for iPhone,
                                    iPad or Android to access legitimate
                                    chords, guitar, bass, and drum tabs
                                    from Ultimate-Guitar.com database.

                                    Type "ultimate guitar tabs" in Apple
                                    App Store's or Android Market's
                                    search to find the application.
#----------------------------------PLEASE NOTE---------------------------------#
#This file is the author's own work and represents their interpretation of the #
#song. You may only use this file for private study, scholarship, or research. #
#------------------------------------------------------------------------------##

                                A_RITE_OF_PASSAGE


Gtr I (D A D G B E) - 'Guitar'
Gtr II (E A D G B E) - 'Guitar'
Gtr III (D A D G B E) - 'Guitar'
Gtr IV (E A D G B E) - 'Keyboard'
Gtr V (E A D G B E) - 'Keyboard'
Gtr VI (E A D G B E) - 'Percussions'

  Q=100
 4/4
  Gtr I
  E S S E E S S E E E   E S S E E E E Q    E S S E E S S E E E
|---------------------|------------------|---------------------|
|---------------------|------------------|---------------------|
|---------------------|---------------5--|---------------------|
|---4-5-4---4-5-4-----|---4-5-4-----4----|---4-5-4---4-5-4-----|
|-----------------5-3-|-----------3------|-----------------5-3-|
|-0-------0-----------|-0-------0--------|-0-------0-----------|


  E S S E E E E Q    E S S E E S S E E E   E S S E E E E Q
|------------------|---------------------|------------------|
|------------------|---------------------|------------------|
|------------------|---------------------|---------------5--|
|---4-5-4----------|---4-5-4---4-5-4-----|---4-5-4-----4----|
|------------------|-----------------5-3-|-----------3------|
|-0-------0-5-6-1--|-0-------0-----------|-0-------0--------|
|
| Gtr VI
| W                  E S S E E S S E E E   E S S E E E E Q
|------------------|---------------------|------------------|
|------------------|---------------------|------------------|
|------------------|---------------------|------------------|
|------------------|---------------------|------------------|
|------------------|---6-6-6-6-6-6-6-6-6-|-6-6-6-6-6-8-8-8--|
|------------------|-4-------------------|-4----------------|


                                           Q=104
  E S S E E S S E E E   E S S E E E E Q    E  S  S  E S S  S  S  E  E  E
|---------------------|------------------|-------------------------------|
|---------------------|------------------|-------------------------------|
|---------------------|------------------|-------------------------------|
|---4-5-4---4-5-4-----|---4-5-4----------|----4--5--4------4--5--4-------|
|-----------------5-3-|-----------5-6-1--|-0------------------------5--3-|
|-0-------0-----------|-0-------0-5-6-1--|-0----------0-0----------------|
|
| Gtr IV
| W                     W                  E  S  S  E E    S  S  E  E  E
|---------------------|------------------|---14-15-14-----14-15-14-------|
|---------------------|------------------|-------------------------15-13-|
|---------------------|------------------|---11-12-11-----11-12-11-------|
|---------------------|------------------|-------------------------12-10-|
|---------------------|------------------|-------------------------------|
|---------------------|------------------|-------------------------------|
|
| Gtr VI
| E S S E E S S E E E   E S S E E E E Q    Q        Q      Q        Q
|---------------------|-----------0-0-0--|-0---------------0-------------|
|---------------------|------------------|-------------------------------|
|---------------------|------------------|-------------------------------|
|---------------------|------------------|-------------------------------|
|-6-6-6-6-6-6-6-6-6-6-|-6-6-6-6-6--------|----------1---------------1----|
|-4-------------------|-4----------------|----------0---------------0----|


  E  S  S  E S S  E  E  Q
|--------------------------|
|--------------------------|
|-----------------------5--|
|----4--5--4---------4-----|
|-----------------3--------|
|-0----------0-0-----------|
|
| E  S  S  E E    E  E  Q
|---14-15-14--------14-20--|
|----------------13--------|
|---11-12-11--------11-17--|
|----------------10--------|
|--------------------------|
|--------------------------|
|
| Q        Q      E  E  Q
|-0---------------0--0--0--|
|--------------------------|
|--------------------------|
|--------------------------|
|----------1---------------|
|----------0---------------|


  E  S  S  E S S  S  S  E  E  E   E  S  S  E S S E E Q
|-------------------------------|-----------------------|
|-------------------------------|-----------------------|
|-------------------------------|-----------------------|
|----4--5--4------4--5--4-------|----4--5--4------------|
|-0------------------------5--3-|----------------5-6-1--|
|-0----------0-0----------------|-0----------0-0-5-6-1--|
|
| E  S  S  E E    S  S  E  E  E   E  S  S  E E   H
|-------------------------------|-----------------------|
|---19-20-19-----19-20-19-------|---19-20-19------------|
|-------------------------19-17-|-----------------------|
|---16-17-16-----16-17-16-------|---16-17-16------------|
|-------------------------17----|-----------------------|
|----------------------------20-|-----------------------|
|
| Q        Q      Q        Q      Q        Q     E E Q
|-0---------------0-------------|-0--------------0-0-0--|
|-------------------------------|-----------------------|
|-------------------------------|-----------------------|
|-------------------------------|-----------------------|
|----------1---------------1----|----------1------------|
|----------0---------------0----|----------0------------|


  E  S  S  E S S  S  S  E  E  E
|-------------------------------|
|-------------------------------|
|-------------------------------|
|----4--5--4------4--5--4-------|
|-0------------------------5--3-|
|-0----------0-0----------------|
|
| E  S  S  E E    S  S  E  E  E
|-------------------------------|
|---19-20-19-----19-20-19-------|
|-------------------------19-17-|
|---16-17-16-----16-17-16-------|
|-------------------------17----|
|----------------------------20-|
|
| Q        Q      Q        Q
|-0---------------0-------------|
|-------------------------------|
|-------------------------------|
|-------------------------------|
|----------1---------------1----|
|----------0---------------0----|


  E  S  S  E S S  E  E  Q    E  S  S  E S S  S  S  E  E  E
|--------------------------|--------------------------------|
|--------------------------|--------------------------------|
|-----------------------5--|--------------------------------|
|----4--5--4---------4-----|----4--5--4------4--5--4--------|
|-----------------3--------|-0------------------------5--3--|
|-0----------0-0-----------|-0----------0-0-----------------|
|
| E  S  S  E E    E  E  Q    E  S  S  E E    S  S  E  E  E
|----------------------20--|--------------------------------|
|---19-20-19--------19-----|---19-20-19-----19-20-19--------|
|----------------17----17--|-------------------------19-17--|
|---16-17-16--------16-----|---16-17-16-----16-17-16--------|
|--------------------------|-------------------------17-----|
|----------------20--------|----------------------------20--|
|
| Q        Q      E  E  Q    Q        Q      Q        Q
|-0---------------0--0--0--|-0---------------0--------------|
|--------------------------|--------------------------------|
|--------------------------|--------------------------------|
|--------------------------|--------------------------------|
|----------1---------------|----------1---------------1-----|
|----------0---------------|----------0---------------0-----|


  S S  E S S  E S S  S  S S S  E
|--------------------------------|
|--------------------------------|
|--------------------------------|
|--------------------------------|
|------3------5------5--6------1-|
|-0-0--3-0-0--5-0-0--5--6-0-0--1-|
|
| E    E E    E E    S  S E    E
|-----13-----15-----15-16-----11-|
|--------------------------------|
|-----10-----12-----12-13------8-|
|--------------------------------|
|--------------------------------|
|-----13-----15-----15-16-----11-|
|
| S S  E S S  E S S  E    S S  E
|-0-0----0-0----0-0-------0-0----|
|--------------------------------|
|--------------------2-----------|
|--------------------------------|
|------4------4----------------4-|
|------0------0------0---------0-|


   W              +H      E E Q     W
|--------------|-----------------|---------------|
|--------------|-----------------|---------------|
|--------------|--------------5--|---------------|
|--------------|------------4----|---------------|
|--0-----------|--(0)-----3------|--0------------|
|--0-----------|--(0)------------|--0------------|
|
|  W              +H      H         W
|--------------|-----------------|---------------|
|--------------|-----------------|---------------|
|--------------|-----------------|---------------|
|-12-----------|-(12)------------|-12------------|
|-11-----------|-(11)------------|-11------------|
|-10-----------|-(10)------------|-10------------|
|
|  Q  Q  Q  Q      Q   Q  E E Q     Q  Q  Q  Q
|--0-----0-----|---0------0-0-0--|--0-----0------|
|--------------|-----------------|---------------|
|--------------|-----------------|---------------|
|--------------|-----------------|---------------|
|-----1-----1--|-------1---------|-----1-----1---|
|-----0-----0--|-------0---------|-----0-----0---|


   +H      E E Q     W              +H      E E Q     W
|-----------------|--------------|-----------------|--------------|
|-----------------|--------------|-----------------|--------------|
|-----------------|--------------|--------------5--|--------------|
|-----------------|--------------|------------4----|--------------|
|--(0)-----5-6-1--|--0-----------|--(0)-----3------|--0-----------|
|--(0)-----5-6-1--|--0-----------|--(0)------------|--0-----------|
|
|  +H      H         W              +H      H         W
|-----------------|--------------|-----------------|--------------|
|-----------------|--------------|-----------------|--------------|
|-----------------|--------------|-----------------|--------------|
|-(12)------------|-12-----------|-(12)------------|-12-----------|
|-(11)------------|-11-----------|-(11)------------|-11-----------|
|-(10)------------|-10-----------|-(10)------------|-10-----------|
|
|   Q   Q  E E Q     Q  Q  Q  Q      Q   Q  E E Q     Q  Q  Q  Q
|---0------0-0-0--|--0-----0-----|---0------0-0-0--|--0-----0-----|
|-----------------|--------------|-----------------|--------------|
|-----------------|--------------|-----------------|--------------|
|-----------------|--------------|-----------------|--------------|
|-------1---------|-----1-----1--|-------1---------|-----1-----1--|
|-------0---------|-----0-----0--|-------0---------|-----0-----0--|


                        Q=108
   +H      S S S S Q    E S S S S E S S S S E S S   E S S S S E E E Q
|---------------------|---------------------------|--------------------|
|---------------------|---------------------------|--------------------|
|---------------------|---------------------------|--------------------|
|---------------------|---------------------------|--------------------|
|--(0)-----5-6---5-1--|---------------------------|-----------------3--|
|--(0)-----5-6---5-1--|---0-0-0-----0-0-0-----0---|---0-0-0-----0-4----|
|
|  +H      H            W                           W
|---------------------|---------------------------|--------------------|
|---------------------|---------------------------|--------------------|
|---------------------|---------------------------|--------------------|
|-(12)----------------|---------------------------|--------------------|
|-(11)----------------|---------------------------|--------------------|
|-(10)----------------|---------------------------|--------------------|
|
|   Q   Q  S S S S Q    Q     Q     Q       Q       Q     Q     E E Q
|---0------0-0---0-0--|-0-----------0-------------|-0-----------0-0-0--|
|---------------------|---------------------------|--------------------|
|---------------------|---------------------------|--------------------|
|---------------------|---------------------------|--------------------|
|-------1-------------|-------1-------------1-----|-------1------------|
|-------0-------------|-------0-------------0-----|-------0------------|


  E S S S S E S S S S E S S   E S S S S E E E Q    E S S S S E S S S S E S S
|---------------------------|--------------------|----------------------------|
|---------------------------|--------------------|----------------------------|
|---------------------------|--------------------|----------------------------|
|---------------------------|--------------------|----------------------------|
|---------------------------|-------------5-6-1--|----------------------------|
|---0-0-0-----0-0-0-----0---|---0-0-0-----5-6-1--|---0-0-0-----0-0-0-----0----|
|
| Gtr VI
| Q     Q     Q       Q       Q     Q     E E Q    Q     Q     Q       Q
|-0-----------0-------------|-0-----------0-0-0--|-0-----------0--------------|
|---------------------------|--------------------|----------------------------|
|---------------------------|--------------------|----------------------------|
|---------------------------|--------------------|----------------------------|
|-------1-------------1-----|-------1------------|-------1-------------1------|
|-------0-------------0-----|-------0------------|-------0-------------0------|


  E S S S S E E E Q    E S S S S E S S S S E S S   S S E S S E S S S S S S E
|--------------------|---------------------------|----------------------------|
|--------------------|---------------------------|----------------------------|
|--------------------|---------------------------|----------------------------|
|--------------------|---------------------------|----------------------------|
|-----------------3--|---------------------------|-----3-----5-----5-6-----1--|
|---0-0-0-----0-4----|---0-0-0-----0-0-0-----0---|-0-0-3-0-0-5-0-0-5-6-0-0-1--|
|
| Q     Q     E E Q    Q     Q     Q       Q       S S E S S E S S E   S S E
|-0-----------0-0-0--|-0-----------0-------------|-0-0---0-0---0-0-----0-0----|
|--------------------|---------------------------|----------------------------|
|--------------------|---------------------------|-----------------2----------|
|--------------------|---------------------------|----------------------------|
|-------1------------|-------1-------------1-----|-----4-----4-------------4--|
|-------0------------|-------0-------------0-----|-----0-----0-----0-------0--|


  E S S S S E S S S S E S S   E S S S S E E E Q    E S S S S E S S S S E S S
|---------------------------|--------------------|----------------------------|
|---------------------------|--------------------|----------------------------|
|---------------------------|--------------------|----------------------------|
|---------------------------|--------------------|----------------------------|
|---------------------------|-----------------3--|----------------------------|
|---0-0-0-----0-0-0-----0---|---0-0-0-----0-4----|---0-0-0-----0-0-0-----0----|
|
| Q     Q     Q       Q       Q     Q     E E Q    Q     Q     Q       Q
|-0-----------0-------------|-0-----------0-0-0--|-0-----------0--------------|
|---------------------------|--------------------|----------------------------|
|---------------------------|--------------------|----------------------------|
|---------------------------|--------------------|----------------------------|
|-------1-------------1-----|-------1------------|-------1-------------1------|
|-------0-------------0-----|-------0------------|-------0-------------0------|


  E S S S S E E E Q    E S S S S E S S S S E S S   E S S S S E E E Q
|--------------------|---------------------------|--------------------|
|--------------------|---------------------------|--------------------|
|--------------------|---------------------------|--------------------|
|--------------------|---------------------------|--------------------|
|-------------5-6-1--|---------------------------|-----------------3--|
|---0-0-0-----5-6-1--|---0-0-0-----0-0-0-----0---|---0-0-0-----0-4----|
|
| Q     Q     E E Q    Q     Q     Q       Q       Q     Q     E E Q
|-0-----------0-0-0--|-0-----------0-------------|-0-----------0-0-0--|
|--------------------|---------------------------|--------------------|
|--------------------|---------------------------|--------------------|
|--------------------|---------------------------|--------------------|
|-------1------------|-------1-------------1-----|-------1------------|
|-------0------------|-------0-------------0-----|-------0------------|


  E S S S S E S S S S E S S   S S E S S E S S S S S S E
|---------------------------|---------------------------|
|---------------------------|---------------------------|
|---------------------------|---------------------------|
|---------------------------|---------------------------|
|---------------------------|-----3-----5-----5-6-----1-|
|---0-0-0-----0-0-0-----0---|-0-0-3-0-0-5-0-0-5-6-0-0-1-|
|
| Gtr IV
| W                           W
|---------------------------|---------------------------|
|---------------------------|---------------------------|
|---------------------------|---------------------------|
|---------------------------|---------------------------|
|---------------------------|---------------------------|
|---------------------------|---------------------------|
|
| Gtr VI
| Q     Q     Q       Q       S S E S S E S S E   S S E
|-0-----------0-------------|-0-0---0-0---0-0-----0-0---|
|---------------------------|---------------------------|
|---------------------------|-----------------2---------|
|---------------------------|---------------------------|
|-------1-------------1-----|-----4-----4-------------4-|
|-------0-------------0-----|-----0-----0-----0-------0-|


   E   S S E   S S S S E   E   E
|----------------------------------|
|----------------------------------|
|----------------------------------|
|------2-3-2-------2-3-2-----------|
|--2-------------------------------|
|--2-----------2-2---------3---2---|
|
|  W
|-16-------------------------------|
|----------------------------------|
|-13-------------------------------|
|----------------------------------|
|----------------------------------|
|----------------------------------|
|
|  S S S S S S S S S S S S S S S S
|--0-0-0-0-0-0-0-0-0-0-0-0-0-0-0-0-|
|----------------------------------|
|----------------------------------|
|----------------------------------|
|----------------------------------|
|----------------------------------|


    E    S S E   S S  E   E   Q          E   S S E   S S S S E   E   E
|-------------------------------------|----------------------------------|
|-------------------------------------|----------------------------------|
|-------------------------------------|----------------------------------|
|--------2-3-2--------2---3-----------|------2-3-2-------2-3-2-----------|
|-----------------------------0-------|--2-------------------------------|
|---2------------2-2----------0-------|--2-----------2-2---------3---2---|
|
|  +H                 H                  W
|-(16)---------------17---------------|-19-------------------------------|
|-------------------------------------|----------------------------------|
|-(13)---------------14---------------|-16-------------------------------|
|-------------------------------------|----------------------------------|
|-------------------------------------|----------------------------------|
|-------------------------------------|----------------------------------|
|
|   S  S S S S S S S  S S S S S S S S    S S S S S S S S S S S S S S S S
|---0--0-0-0-0-0-0-0--0-0-0-0-0-0-0-0-|--0-0-0-0-0-0-0-0-0-0-0-0-0-0-0-0-|
|-------------------------------------|----------------------------------|
|-------------------------------------|----------------------------------|
|-------------------------------------|----------------------------------|
|-------------------------------------|----------------------------------|
|-------------------------------------|----------------------------------|


    E    S S E   S S  E   E   Q          E   S S E   S S S S E   E   E
|-------------------------------------|----------------------------------|
|-------------------------------------|----------------------------------|
|-------------------------------------|----------------------------------|
|--------2-3-2------------------------|------2-3-2-------2-3-2-----------|
|---------------------2---3---0-------|--2-------------------------------|
|---2------------2-2--2---3---0-------|--2-----------2-2---------3---2---|
|
|  +H                 H                  W
|-(19)---------------24---------------|-22-------------------------------|
|-------------------------------------|----------------------------------|
|-(16)---------------21---------------|-19-------------------------------|
|-------------------------------------|----------------------------------|
|-------------------------------------|----------------------------------|
|-------------------------------------|----------------------------------|
|
|   S  S S S S S S S  S S S S S S S S    S S S S S S S S S S S S S S S S
|---0--0-0-0-0-0-0-0--0-0-0-0-0-0-0-0-|--0-0-0-0-0-0-0-0-0-0-0-0-0-0-0-0-|
|-------------------------------------|----------------------------------|
|-------------------------------------|----------------------------------|
|-------------------------------------|----------------------------------|
|-------------------------------------|----------------------------------|
|-------------------------------------|----------------------------------|


    E    S S E   S S  E   E   Q          E   S S E   S S S S E   E   E
|-------------------------------------|----------------------------------|
|-------------------------------------|----------------------------------|
|-------------------------------------|----------------------------------|
|--------2-3-2--------2---3-----------|------2-3-2-------2-3-2-----------|
|-----------------------------0-------|--2-------------------------------|
|---2------------2-2----------0-------|--2-----------2-2---------3---2---|
|
|  +H                 H                  W
|-(22)---------------20---------------|-19-------------------------------|
|-------------------------------------|----------------------------------|
|-(19)---------------17---------------|-16-------------------------------|
|-------------------------------------|----------------------------------|
|-------------------------------------|----------------------------------|
|-------------------------------------|----------------------------------|
|
|   S  S S S S S S S  S S S S S S S S    S S S S S S S S S S S S S S S S
|---0--0-0-0-0-0-0-0--0-0-0-0-0-0-0-0-|--0-0-0-0-0-0-0-0-0-0-0-0-0-0-0-0-|
|-------------------------------------|----------------------------------|
|-------------------------------------|----------------------------------|
|-------------------------------------|----------------------------------|
|-------------------------------------|----------------------------------|
|-------------------------------------|----------------------------------|


  E S S E S S E E Q    Q  E E +E  E +Q     Q  E E +E  E +Q
|--------------------|-------------------|-------------------|
|--------------------|----1-0-(0)-1-(1)--|----1-0-(0)-1-(1)--|
|--------------------|-------------------|-------------------|
|---2-3-2------------|-------------------|-0-----------------|
|-------------2-3-0--|-0-----------------|-------------------|
|-2-------2-2-2-3-0--|-------------------|-------------------|
|
| Gtr II
| W                    Q  E E +E  E +Q     Q  E E +E  E +Q
|--------------------|-------------------|-------------------|
|--------------------|----5-3-(3)-5-(5)--|----5-3-(3)-5-(5)--|
|--------------------|-------------------|-------------------|
|--------------------|-------------------|-------------------|
|--------------------|-0-----------------|-5-----------------|
|--------------------|-------------------|-------------------|
|
| Gtr III
| W                    W                   W
|--------------------|-------------------|-------------------|
|--------------------|-------------------|-3-----------------|
|--------------------|-2-----------------|-2-----------------|
|--------------------|-2-----------------|-0-----------------|
|--------------------|-0-----------------|-------------------|
|--------------------|-------------------|-------------------|


  Q  E E +E  E +Q     E E E E E E E E   Q  E E +E  E +Q     Q  E E +E  E +Q
|-------------------|-0---------------|-------------------|-------------------|
|----1-0-(0)-1-(1)--|---0-3-1-------1-|----1-0-(0)-1-(1)--|----1-0-(0)-1-(1)--|
|-------------------|---------2-4-2---|-------------------|-------------------|
|-------------------|-----------------|-------------------|-------------------|
|-------------------|-----------------|-0-----------------|-------------------|
|-3-----------------|-----------------|-------------------|-3-----------------|
|
| Q  E E +E  E +Q     E E E E E E E E   Q  E E +E  E +Q     Q  E E +E  E +Q
|----0--------------|-3---1-0-------0-|----0--------------|----0--------------|
|------3-(3)-5-(5)--|---3-----1-3-1---|------3-(3)-5-(5)--|------3-(3)-5-(5)--|
|-------------------|-----------------|-------------------|-------------------|
|-------------------|-----------------|-------------------|-------------------|
|-------------------|-----------------|-0-----------------|-------------------|
|-1-----------------|-----------------|-------------------|-1-----------------|
|
| W                   H       H         W                   W
|-------------------|-----------------|-------------------|-------------------|
|-------------------|-----------------|-------------------|-------------------|
|-------------------|-5-------4-------|-2-----------------|-------------------|
|-3-----------------|-5-------5-------|-2-----------------|-3-----------------|
|-3-----------------|-3-------2-------|-0-----------------|-3-----------------|
|-3-----------------|-----------------|-------------------|-3-----------------|


  W                                 E E E E E E Q    Q  E E +E  E +Q
|---------------------------------|----------------|--------------------|
|---------------------------------|---------3-1----|----1-0-(0)-1-(1)---|
|---------------------------------|-----1-2--------|--------------------|
|---------------------------------|-2-3---------2--|--------------------|
|---------------------------------|----------------|-0------------------|
|---------------------------------|----------------|--------------------|
|
| S S S S S S S S S S S S S S S S   E E E E E E Q    Q  E E +E  E +Q
|---------------------------------|----------------|--------------------|
|---------------------------------|---------6-5----|----5-3-(3)-5-(5)---|
|---------------------------------|-1-2-4-5--------|--------------------|
|---3---3-5-7-5-3---3---3-5-7-5-3-|-------------6--|--------------------|
|-5---5-----------5---5-----------|----------------|--------------------|
|---------------------------------|----------------|-5------------------|
|
| W                                 W                W
|---------------------------------|----------------|--------------------|
|-3-------------------------------|----------------|--------------------|
|-2-------------------------------|----------------|-2------------------|
|-0-------------------------------|-2--------------|-2------------------|
|---------------------------------|-2--------------|-0------------------|
|---------------------------------|-2--------------|--------------------|


  Q  E E +E  E +Q     Q  E E +E  E +Q     E E E E E E E E   Q  E E +E  E +Q
|-------------------|-------------------|-0---------------|-------------------|
|----1-0-(0)-1-(1)--|----1-0-(0)-1-(1)--|---0-3-1-------1-|----1-0-(0)-1-(1)--|
|-------------------|-------------------|---------2-4-2---|-------------------|
|-0-----------------|-------------------|-----------------|-------------------|
|-------------------|-3-----------------|-----------------|-0-----------------|
|-------------------|-------------------|-----------------|-------------------|
|
| Q  E E +E  E +Q     Q  E E +E  E +Q     E E E E E E E E   Q  E E +E  E +Q
|-------------------|-------------------|-3---1-0-------0-|----0--------------|
|----5-3-(3)-5-(5)--|----5-3-(3)-5-(5)--|---3-----1-3-1---|------3-(3)-5-(5)--|
|-------------------|-------------------|-----------------|-------------------|
|-------------------|-------------------|-----------------|-------------------|
|-5-----------------|-3-----------------|-----------------|-0-----------------|
|-------------------|-------------------|-----------------|-------------------|
|
| W                   W                   H       H         W
|-------------------|-------------------|-----------------|-------------------|
|-3-----------------|-------------------|-----------------|-------------------|
|-2-----------------|-------------------|-5-------4-------|-2-----------------|
|-0-----------------|-3-----------------|-5-------5-------|-2-----------------|
|-------------------|-3-----------------|-3-------2-------|-0-----------------|
|-------------------|-3-----------------|-----------------|-------------------|


  Q  E E +E  E +Q     W                                 E E E E E E Q
|-------------------|---------------------------------|-----------------|
|----1-0-(0)-1-(1)--|---------------------------------|---------5-6-5---|
|-------------------|---------------------------------|-----1-2---------|
|-------------------|---------------------------------|-2-3-------------|
|-------------------|---------------------------------|-----------------|
|-3-----------------|---------------------------------|-----------------|
|
| Q  E E +E  E +Q     S S S S S S S S S S S S S S S S   E E E E E E Q
|----0--------------|---------------------------------|---------4-5-4---|
|------3-(3)-5-(5)--|---------------------------------|-----------------|
|-------------------|---------------------------------|-1-2-4-5---------|
|-------------------|---3---3-5-7-5-3---3---3-5-7-5-3-|-----------------|
|-------------------|-5---5-----------5---5-----------|-----------------|
|-1-----------------|---------------------------------|-----------------|
|
| W                   W                                 W
|-------------------|---------------------------------|-----------------|
|-------------------|-3-------------------------------|-----------------|
|-------------------|-2-------------------------------|-----------------|
|-3-----------------|-0-------------------------------|-2---------------|
|-3-----------------|---------------------------------|-2---------------|
|-3-----------------|---------------------------------|-2---------------|


 7/8                       4/4
   Q.       S  S  E  E  E    H       S  S E E E
|-------------------------|---------------------|
|-------------------------|---------------------|
|-------------------------|---------------------|
|-------------------------|---------------------|
|-------------------------|----------3--5-6-5-3-|
|--7-------10-12-13-12-10-|--5------------------|
|
| Gtr IV
|  H..                       W
|-17----------------------|-15------------------|
|-17----------------------|-17------------------|
|-------------------------|---------------------|
|-------------------------|---------------------|
|-------------------------|---------------------|
|-------------------------|---------------------|
|
| Gtr VI
|  Q    E.     S  E  E  E    Q  E E +S  S E E E
|--0-----------0--0--0----|--0--0-------0-0-0---|
|-------------------------|---------------------|
|-------------------------|---------------------|
|-------------------------|---------------------|
|-------1---------------1-|-------1-(1)-------1-|
|-------0---------------0-|-------0-(0)-------0-|


                                 Q=104
 9/8                            4/4
   Q  E H.                       E  S  S  E S S  S  S  E  E  E
|------------------------------|--------------------------------|
|------------------------------|--------------------------------|
|------------------------------|--------------------------------|
|-------4----------------------|----4--5--4------4--5--4--------|
|-----3------------------------|-0------------------------5--3--|
|--4---------------------------|-0----------0-0-----------------|
|
|  W                     +E      E  S  S  E E    S  S  E  E  E
|-14--------------------(14)---|--------------------------------|
|-14--------------------(14)---|---19-20-19-----19-20-19--------|
|------------------------------|-------------------------19-17--|
|------------------------------|---16-17-16-----16-17-16--------|
|------------------------------|-------------------------17-----|
|------------------------------|----------------------------20--|
|
|  Q  E Q   S S S S S S   S  S   Q        Q      Q        Q
|--0--0------------------------|-0---------------0--------------|
|------------------------------|--------------------------------|
|------------------------------|--------------------------------|
|------------------------------|--------------------------------|
|-------4----------------------|----------1---------------1-----|
|-------0---0-0-0-0-0-0---0--0-|----------0---------------0-----|


  E  S  S  E  S S  E  E  Q
|---------------------------|
|---------------------------|
|------------------------5--|
|----4--5--4----------4-----|
|------------------3--------|
|-0-----------0-0-----------|
|
| E  S  S  E  E    E  E  Q
|-----------------------20--|
|---19-20-19---------19-----|
|-----------------17----17--|
|---16-17-16---------16-----|
|---------------------------|
|-----------------20--------|
|
| Q        E.   S  E  E  Q
|-0----------------0--0--0--|
|---------------------------|
|---------------------------|
|---------------------------|
|----------1----------------|
|----------0----0-----------|


  E  S  S  E S S  S  S  E  E  E   E  S  S  E E S S S S Q
|-------------------------------|--------------------------|
|-------------------------------|--------------------------|
|-------------------------------|--------------------------|
|----4--5--4------4--5--4-------|----4--5--4---------------|
|-0------------------------5--3-|----------------------3---|
|-0----------0-0----------------|-0----------0-0-0-0-0-----|
|
| E  S  S  E E    S  S  E  E  E   E  S  S  E E H
|-------------------------------|--------------------------|
|---19-20-19-----19-20-19-------|---19-20-19---------------|
|-------------------------19-17-|--------------------------|
|---16-17-16-----16-17-16-------|---16-17-16---------------|
|-------------------------17----|--------------------------|
|----------------------------20-|--------------------------|
|
| Q        Q      Q        Q      Q        Q   S S S S Q
|-0---------------0-------------|-0------------0-----0-0---|
|-------------------------------|--------------------------|
|-------------------------------|--------------------------|
|-------------------------------|--------------------------|
|----------1---------------1----|----------1-----2-0-------|
|----------0---------------0----|----------0-----5---------|


  Q=105
  E  S  S  E S S  S  S  E  E  E   E  S  S  E  S S  E  E  Q
|-------------------------------|---------------------------|
|-------------------------------|---------------------------|
|-------------------------------|------------------------5--|
|----4--5--4------4--5--4-------|----4--5--4----------4-----|
|-0------------------------5--3-|------------------3--------|
|-0----------0-0----------------|-0-----------0-0-----------|
|
| E  S  S  E E    S  S  E  E  E   E  S  S  E  E    E  E  Q
|-------------------------------|-----------------------20--|
|---19-20-19-----19-20-19-------|---19-20-19---------19-----|
|-------------------------19-17-|-----------------17----17--|
|---16-17-16-----16-17-16-------|---16-17-16---------16-----|
|-------------------------17----|---------------------------|
|----------------------------20-|-----------------20--------|
|
| Q        Q      Q        Q      Q        E.   S  E  E  Q
|-0---------------0-------------|-0----------------0--0--0--|
|-------------------------------|---------------------------|
|-------------------------------|---------------------------|
|-------------------------------|---------------------------|
|----------1---------------1----|----------1----------------|
|----------0---------------0----|----------0----0-----------|


  E  S  S  E S S  S  S  E  E  E
|--------------------------------|
|--------------------------------|
|--------------------------------|
|----4--5--4------4--5--4--------|
|-0------------------------5--3--|
|-0----------0-0-----------------|
|
| E  S  S  E E    S  S  E  E  E
|--------------------------------|
|---19-20-19-----19-20-19--------|
|-------------------------19-17--|
|---16-17-16-----16-17-16--------|
|-------------------------17-----|
|----------------------------20--|
|
| Q        Q      Q        Q
|-0---------------0--------------|
|--------------------------------|
|--------------------------------|
|--------------------------------|
|----------1---------------1-----|
|----------0---------------0-----|


                              Q=109
  S S  E S S  E S S  E  E E    W              +H      E E Q     W
|---------------------------|--------------|-----------------|---------------|
|---------------------------|--------------|-----------------|---------------|
|---------------------------|--------------|--------------5--|---------------|
|---------------------------|--------------|------------4----|---------------|
|------3------5------6--1---|--0-----------|--(0)-----3------|--0------------|
|-0-0--3-0-0--5-0-0--6--1---|--0-----------|--(0)------------|--0------------|
|
| E    E E    E E    E  E E    W              +H      H         W
|-----13-----15-----16-11---|--------------|-----------------|---------------|
|---------------------------|--------------|-----------------|---------------|
|-----10-----12-----13--8---|--------------|-----------------|---------------|
|---------------------------|-12-----------|-(12)------------|-12------------|
|---------------------------|-11-----------|-(11)------------|-11------------|
|-----13-----15-----16-11---|-10-----------|-(10)------------|-10------------|
|
| S S  E S S  E S S  E  E E    Q  Q  Q  Q      Q   Q  E E Q     Q  Q  Q  Q
|-0-0----0-0----0-0---------|--0-----0-----|---0------0-0-0--|--0-----0------|
|---------------------------|--------------|-----------------|---------------|
|--------------------2------|--------------|-----------------|---------------|
|---------------------------|--------------|-----------------|---------------|
|------4------4---------4---|-----1-----1--|-------1---------|-----1-----1---|
|------0------0------0--0---|-----0-----0--|-------0---------|-----0-----0---|


                         Q=108
   +H      S S S S E E    S S S S S S S S S S S S S S S S
|----------------------|-----------------------------------|
|----------------------|-----------------------------------|
|----------------------|-----------------------------------|
|----------------------|------4-5-4-------4-5-4-------4-5--|
|--(0)-----5-6---5-1---|--3-5-------5-3-5-------5-3-5------|
|--(0)-----5-6---5-1---|-----------------------------------|
|
|  +H      H              W
|----------------------|-14--------------------------------|
|----------------------|-----------------------------------|
|----------------------|-----------------------------------|
|-(12)-----------------|-----------------------------------|
|-(11)-----------------|-----------------------------------|
|-(10)-----------------|-----------------------------------|
|
|   Q   Q  S S S S Q      Q       Q       Q       Q
|---0------0-0---0-0---|--0---------------0----------------|
|----------------------|-----------------------------------|
|----------------------|-----------------------------------|
|----------------------|-----------------------------------|
|-------1--------------|----------1---------------1--------|
|-------0--------------|----------0---------------0--------|


    S  S S S S S S S S S S S S S S S    S S S S S S S S S S S S S S S S
|------------------------------------|----------------------------------|
|------------------------------------|----------------------------------|
|------------------------------------|----------------------------------|
|--------4-5-4-------4-5-4-------4-5-|----------------------------------|
|---3--5-------5-3-5-------5-3-5-----|------6-8-6-------6-8-6-------6-8-|
|------------------------------------|--7-8-------8-7-8-------8-7-8-----|
|
|  +W                                   W
|-(14)-------------------------------|----------------------------------|
|------------------------------------|-16-------------------------------|
|------------------------------------|----------------------------------|
|------------------------------------|----------------------------------|
|------------------------------------|----------------------------------|
|------------------------------------|----------------------------------|
|
|   Q        Q       E   S S E   E      Q       Q       Q       Q
|---0----------------0---0-0-0---0---|--0---------------0---------------|
|------------------------------------|----------------------------------|
|------------------------------------|----------------------------------|
|------------------------------------|----------------------------------|
|------------1-----------------------|----------1---------------1-------|
|------------0-----------------------|----------0---------------0-------|


    S  S S S S  S S S S S S S S S S S    S S S S S S S S S S S S S S S S
|-------------------------------------|----------------------------------|
|-------------------------------------|----------------------------------|
|-------------------------------------|----------------------------------|
|-------------------------------------|----------------------------------|
|--------6-8-6--------6-8-6-------6-8-|------5-6-5-------5-6-5-------5-6-|
|---7--8--------8-7-8-------8-7-8-----|--5-7-------7-5-7-------7-5-7-----|
|
|  +W                                    W
|-------------------------------------|----------------------------------|
|-(16)--------------------------------|-15-------------------------------|
|-------------------------------------|----------------------------------|
|-------------------------------------|----------------------------------|
|-------------------------------------|----------------------------------|
|-------------------------------------|----------------------------------|
|
|   Q        E.     S E   E   E   E      Q       Q       Q       Q
|---0-----------------0---0---0-------|--0---------------0---------------|
|-------------------------------------|----------------------------------|
|-------------------------------------|----------------------------------|
|-------------------------------------|----------------------------------|
|------------1--------------------4---|----------1---------------1-------|
|------------0------0-------------0---|----------0---------------0-------|


    S  S S S S S S S S S S S S S S S    S S S S S S S S S S S S S S S S
|------------------------------------|----------------------------------|
|------------------------------------|----------------------------------|
|------------------------------------|----------------------------------|
|------------------------------------|------7-8-7-------7-8-7-------7-8-|
|--------5-6-5-------5-6-5-------5-6-|--5-6-------6-5-6-------6-5-6-----|
|---5--7-------7-5-7-------7-5-7-----|----------------------------------|
|
|  +W                                   W
|------------------------------------|-14-------------------------------|
|-(15)-------------------------------|----------------------------------|
|------------------------------------|----------------------------------|
|------------------------------------|----------------------------------|
|------------------------------------|----------------------------------|
|------------------------------------|----------------------------------|
|
|   Q        Q       E   S S E   E      Q       Q       Q       Q
|---0----------------0---0-0-0---0---|--0---------------0---------------|
|------------------------------------|----------------------------------|
|------------------------------------|----------------------------------|
|------------------------------------|----------------------------------|
|------------1-----------------------|----------1---------------1-------|
|------------0-----------------------|----------0---------------0-------|


   S S  S  S  S  S S S  S  S  S S S S  S  S
|-------------------------------------------|
|------10-11-10--------10-11-10-------10-11-|
|--7-8-----------8-7-8----------8-7-8-------|
|-------------------------------------------|
|-------------------------------------------|
|-------------------------------------------|
|
|  W
|-18----------------------------------------|
|-------------------------------------------|
|-------------------------------------------|
|-------------------------------------------|
|-------------------------------------------|
|-------------------------------------------|
|
|  Q          E.     S  E     E   E    E
|--0--------------------0-----0---0---------|
|-------------------------------------------|
|-------------------------------------------|
|-------------------------------------------|
|-------------1------------------------4----|
|-------------0------0-----------------0----|


   S S S S S S  S S S S S S  S S S S
|------------------------------------|
|------------------------------------|
|------7-8-7--------7-8-7--------7-8-|
|------------------------------------|
|----9-------9----9-------9----9-----|
|-12-----------12-----------12-------|
|
| Gtrs IV, V
|  W
|------------------------------------|
|-19---------------------------------|
|-19---------------------------------|
|------------------------------------|
|------------------------------------|
|------------------------------------|
|
|  Q       Q        Q        Q
|--0----------------0----------------|
|------------------------------------|
|------------------------------------|
|------------------------------------|
|----------1-----------------1-------|
|----------0-----------------0-------|


    S  S S S S S S S S S S S S S S S    S S S S S S S S S S S S S S S S
|------------------------------------|----------------------------------|
|--------3-4-3-------3-4-3-------3-4-|--------3-1-------1-3-1-------1-3-|
|------------------------------------|------5---------------------------|
|------4-------4---4-------4---4-----|------------1-0-1-------1-0-1-----|
|---5------------5-----------5-------|--5-6-----------------------------|
|------------------------------------|----------------------------------|
|
|  +W                                   W
|------------------------------------|----------------------------------|
|-(19)-------------------------------|----------------------------------|
|-(19)-------------------------------|-20-------------------------------|
|------------------------------------|-24-------------------------------|
|------------------------------------|----------------------------------|
|------------------------------------|----------------------------------|
|
|   Q        Q       E   S S E   E      Q       Q       Q       Q
|---0----------------0---0-0-0---0---|--0---------------0---------------|
|------------------------------------|----------------------------------|
|------------------------------------|----------------------------------|
|------------------------------------|----------------------------------|
|------------1-----------------------|----------1---------------1-------|
|------------0-----------------------|----------0---------------0-------|


    S  S S S S  S S S S S S S S S S S    S S S S S S S S S S S S S S S S
|-------------------------------------|----------------------------------|
|----------3-1--------1-3-1-------1-3-|--------1-----------1-----------1-|
|--------5----------------------------|------3---3-------3---3-------3---|
|---------------1-0-1-------1-0-1-----|----------------------------------|
|---5--6------------------------------|--3-5-------5-3-5-------5-3-5-----|
|-------------------------------------|----------------------------------|
|
|  +W                                    W
|-------------------------------------|----------------------------------|
|-------------------------------------|----------------------------------|
|-(20)--------------------------------|-19-------------------------------|
|-(24)--------------------------------|-22-------------------------------|
|-------------------------------------|----------------------------------|
|-------------------------------------|----------------------------------|
|
|   Q        E.     S E   E   E   E      Q       Q       Q       Q
|---0-----------------0---0---0-------|--0---------------0---------------|
|-------------------------------------|----------------------------------|
|-------------------------------------|----------------------------------|
|-------------------------------------|----------------------------------|
|------------1--------------------4---|----------1---------------1-------|
|------------0------0-------------0---|----------0---------------0-------|


    S  S S S S S S S S S S S S S S S    S S S S S S S S S S S S S S S S
|------------------------------------|----------------------------------|
|----------1-----------1-----------1-|----------------------------------|
|--------3---3-------3---3-------3---|------2-3-2-------2-3-2-------2-3-|
|------------------------------------|--0-4-------4---4-------4---4-----|
|---3--5-------5-3-5-------5-3-5-----|--------------5-----------5-------|
|------------------------------------|----------------------------------|
|
|  +W                                   W
|------------------------------------|----------------------------------|
|------------------------------------|-19-------------------------------|
|-(19)-------------------------------|-19-------------------------------|
|-(22)-------------------------------|----------------------------------|
|------------------------------------|----------------------------------|
|------------------------------------|----------------------------------|
|
|   Q        Q       E   S S E   E      Q       Q       Q       Q
|---0----------------0---0-0-0---0---|--0---------------0---------------|
|------------------------------------|----------------------------------|
|------------------------------------|----------------------------------|
|------------------------------------|----------------------------------|
|------------1-----------------------|----------1---------------1-------|
|------------0-----------------------|----------0---------------0-------|


    S  S S S S S S S S S S S S S S S    E   S S E   S S S S E   E   E
|------------------------------------|----------------------------------|
|------------------------------------|----------------------------------|
|--------2-3-2-------2-3-2-------2-3-|----------------------------------|
|------4-------4---4-------4---4-----|------2-3-2-------2-3-2-----------|
|---5------------5-----------5-------|--2-------------------------------|
|------------------------------------|--2-----------2-2---------3---2---|
|
|                                      Gtr IV
|  +H.                       Q          W
|------------------------------------|----------------------------------|
|-(19)-------------------------------|-21-------------------------------|
|-(19)-------------------------------|----------------------------------|
|------------------------------------|-18-------------------------------|
|------------------------------------|----------------------------------|
|------------------------------------|----------------------------------|
|
|   S  S S S S S S S S S S S S S S S    S S S S S S S S S S S S S S S S
|---0------------0---0-----------0---|--0-0-0-0-0-0-0-0-0-0-0-0-0-0-0-0-|
|------------------------------------|----------------------------------|
|------------------------------------|----------------------------------|
|------------------------------------|----------------------------------|
|--------3-3-3-2---------------0-----|----------------------------------|
|----------------------0-0-0-0-----3-|----------------------------------|


    E    S S E   S S  E   E   Q          E   S S E   S S S S E   E   E
|-------------------------------------|----------------------------------|
|-------------------------------------|----------------------------------|
|-------------------------------------|----------------------------------|
|--------2-3-2--------2---3-----------|------2-3-2-------2-3-2-----------|
|-----------------------------0-------|--2-------------------------------|
|---2------------2-2----------0-------|--2-----------2-2---------3---2---|
|
|  +H                 H                  W
|-------------------------------------|----------------------------------|
|-(21)---------------22---------------|-24-------------------------------|
|-------------------------------------|----------------------------------|
|-(18)---------------19---------------|-21-------------------------------|
|-------------------------------------|----------------------------------|
|-------------------------------------|----------------------------------|
|
|   S  S S S S S S S  S S S S S S S S    S S S S S S S S S S S S S S S S
|---0--0-0-0-0-0-0-0--0-0-0-0-0-0-0-0-|--0-0-0-0-0-0-0-0-0-0-0-0-0-0-0-0-|
|-------------------------------------|----------------------------------|
|-------------------------------------|----------------------------------|
|-------------------------------------|----------------------------------|
|-------------------------------------|----------------------------------|
|-------------------------------------|----------------------------------|


    E    S S E   S S  E   E   Q          E   S S E   S S S S E   E   E
|-------------------------------------|----------------------------------|
|-------------------------------------|----------------------------------|
|-------------------------------------|----------------------------------|
|--------2-3-2------------------------|------2-3-2-------2-3-2-----------|
|---------------------2---3---0-------|--2-------------------------------|
|---2------------2-2--2---3---0-------|--2-----------2-2---------3---2---|
|
|  +H                 H                  W
|--------------------24---------------|-22-------------------------------|
|-(24)--------------------------------|----------------------------------|
|--------------------21---------------|-19-------------------------------|
|-(21)--------------------------------|----------------------------------|
|-------------------------------------|----------------------------------|
|-------------------------------------|----------------------------------|
|
|   S  S S S S S S S  S S S S S S S S    S S S S S S S S S S S S S S S S
|---0--0-0-0-0-0-0-0--0-0-0-0-0-0-0-0-|--0-0-0-0-0-0-0-0-0-0-0-0-0-0-0-0-|
|-------------------------------------|----------------------------------|
|-------------------------------------|----------------------------------|
|-------------------------------------|----------------------------------|
|-------------------------------------|----------------------------------|
|-------------------------------------|----------------------------------|


    E    S S E   S S  E   E   Q          E   S S E   S S S S E   E   E
|-------------------------------------|----------------------------------|
|-------------------------------------|----------------------------------|
|-------------------------------------|----------------------------------|
|--------2-3-2--------2---3-----------|------2-3-2-------2-3-2-----------|
|-----------------------------0-------|--2-------------------------------|
|---2------------2-2----------0-------|--2-----------2-2---------3---2---|
|
|  +H                 H                  W
|-(22)---------------20---------------|-19-------------------------------|
|-------------------------------------|----------------------------------|
|-(19)---------------17---------------|-16-------------------------------|
|-------------------------------------|----------------------------------|
|-------------------------------------|----------------------------------|
|-------------------------------------|----------------------------------|
|
|   S  S S S S S S S  S S S S S S S S    S S S S S S S S S S S S S S S S
|---0--0-0-0-0-0-0-0--0-0-0-0-0-0-0-0-|--0-0-0-0-0-0-0-0-0-0-0-0-0-0-0-0-|
|-------------------------------------|----------------------------------|
|-------------------------------------|----------------------------------|
|-------------------------------------|----------------------------------|
|-------------------------------------|----------------------------------|
|-------------------------------------|----------------------------------|


  E S S E S S E E Q    Q  E E +E  E +Q     Q  E E +E  E +Q
|--------------------|-------------------|-------------------|
|--------------------|----1-0-(0)-1-(1)--|----1-0-(0)-1-(1)--|
|--------------------|-------------------|-------------------|
|---2-3-2------------|-------------------|-0-----------------|
|-------------2-3-0--|-0-----------------|-------------------|
|-2-------2-2-2-3-0--|-------------------|-------------------|
|
| Gtr II
| W                    Q  E E +E  E +Q     Q  E E +E  E +Q
|--------------------|-------------------|-------------------|
|--------------------|----5-3-(3)-5-(5)--|----5-3-(3)-5-(5)--|
|--------------------|-------------------|-------------------|
|--------------------|-------------------|-------------------|
|--------------------|-------------------|-5-----------------|
|--------------------|-5-----------------|-------------------|
|
| Gtr III
| W                    W                   W
|--------------------|-------------------|-------------------|
|--------------------|-------------------|-3-----------------|
|--------------------|-2-----------------|-2-----------------|
|--------------------|-2-----------------|-0-----------------|
|--------------------|-0-----------------|-------------------|
|--------------------|-------------------|-------------------|


  Q  E E +E  E +Q     E E E E E E E E   Q  E E +E  E +Q     Q  E E +E  E +Q
|-------------------|-0---------------|-------------------|-------------------|
|----1-0-(0)-1-(1)--|---0-3-1-------1-|----1-0-(0)-1-(1)--|----1-0-(0)-1-(1)--|
|-------------------|---------2-4-2---|-------------------|-------------------|
|-------------------|-----------------|-------------------|-------------------|
|-------------------|-----------------|-0-----------------|-------------------|
|-3-----------------|-----------------|-------------------|-3-----------------|
|
| Q  E E +E  E +Q     E E E E E E E E   Q  E E +E  E +Q     Q  E E +E  E +Q
|----0--------------|-3---1-0-------0-|----0--------------|----0--------------|
|------3-(3)-5-(5)--|---3-----1-3-1---|------3-(3)-5-(5)--|------3-(3)-5-(5)--|
|-------------------|-----------------|-------------------|-------------------|
|-------------------|-----------------|-------------------|-------------------|
|-------------------|-----------------|-0-----------------|-------------------|
|-1-----------------|-----------------|-------------------|-1-----------------|
|
| W                   H       H         W                   W
|-------------------|-----------------|-------------------|-------------------|
|-------------------|-----------------|-------------------|-------------------|
|-------------------|-5-------4-------|-2-----------------|-------------------|
|-3-----------------|-5-------5-------|-2-----------------|-3-----------------|
|-3-----------------|-3-------2-------|-0-----------------|-3-----------------|
|-3-----------------|-----------------|-------------------|-3-----------------|


  W                                 E E E E E E Q    Q  E E +E  E +Q
|---------------------------------|----------------|--------------------|
|---------------------------------|---------3-1----|----1-0-(0)-1-(1)---|
|---------------------------------|-----1-2--------|--------------------|
|---------------------------------|-2-3---------2--|--------------------|
|---------------------------------|----------------|-0------------------|
|---------------------------------|----------------|--------------------|
|
| S S S S S S S S S S S S S S S S   E E E E E E Q    Q  E E +E  E +Q
|---------------------------------|----------------|--------------------|
|---------------------------------|---------6-5----|----5-3-(3)-5-(5)---|
|---------------------------------|-1-2-4-5--------|--------------------|
|---3---3-5-7-5-3---3---3-5-7-5-3-|-------------6--|--------------------|
|-5---5-----------5---5-----------|----------------|--------------------|
|---------------------------------|----------------|-5------------------|
|
| W                                 W                W
|---------------------------------|----------------|--------------------|
|-3-------------------------------|----------------|--------------------|
|-2-------------------------------|----------------|-2------------------|
|-0-------------------------------|-2--------------|-2------------------|
|---------------------------------|-2--------------|-0------------------|
|---------------------------------|-2--------------|--------------------|


  Q  E E +E  E +Q     Q  E E +E  E +Q     E E E E E E E E   Q  E E +E  E +Q
|-------------------|-------------------|-0---------------|-------------------|
|----1-0-(0)-1-(1)--|----1-0-(0)-1-(1)--|---0-3-1-------1-|----1-0-(0)-1-(1)--|
|-------------------|-------------------|---------2-4-2---|-------------------|
|-0-----------------|-------------------|-----------------|-------------------|
|-------------------|-3-----------------|-----------------|-0-----------------|
|-------------------|-------------------|-----------------|-------------------|
|
| Q  E E +E  E +Q     Q  E E +E  E +Q     E E E E E E E E   Q  E E +E  E +Q
|-------------------|-------------------|-3---1-0-------0-|----0--------------|
|----5-3-(3)-5-(5)--|----5-3-(3)-5-(5)--|---3-----1-3-1---|------3-(3)-5-(5)--|
|-------------------|-------------------|-----------------|-------------------|
|-------------------|-------------------|-----------------|-------------------|
|-5-----------------|-3-----------------|-----------------|-0-----------------|
|-------------------|-------------------|-----------------|-------------------|
|
| W                   W                   H       H         W
|-------------------|-------------------|-----------------|-------------------|
|-3-----------------|-------------------|-----------------|-------------------|
|-2-----------------|-------------------|-5-------4-------|-2-----------------|
|-0-----------------|-3-----------------|-5-------5-------|-2-----------------|
|-------------------|-3-----------------|-3-------2-------|-0-----------------|
|-------------------|-3-----------------|-----------------|-------------------|


  Q  E E +E  E +Q     W                                 E E E E E E Q
|-------------------|---------------------------------|-----------------|
|----1-0-(0)-1-(1)--|---------------------------------|---------5-6-5---|
|-------------------|---------------------------------|-----1-2---------|
|-------------------|---------------------------------|-2-3-------------|
|-------------------|---------------------------------|-----------------|
|-3-----------------|---------------------------------|-----------------|
|
| Q  E E +E  E +Q     S S S S S S S S S S S S S S S S   E E E E E E Q
|----0--------------|---------------------------------|---------4-5-4---|
|------3-(3)-5-(5)--|---------------------------------|-----------------|
|-------------------|---------------------------------|-1-2-4-5---------|
|-------------------|---3---3-5-7-5-3---3---3-5-7-5-3-|-----------------|
4 comments total. Showing first comments.
+2 reply
Toast1337 wrote on June 11 2009, 12:47 pm

take out the keyboard and the percussion

+3 reply
travislausch wrote on June 11 2009, 01:07 pm

Uhhhhh. How did THIS get up here? Yeah. Nice MIDI import dude. Next time, try ACTUALLY TABBING SOMETHING OUT.

0 reply
eNdofthELinE9 wrote on August 30 2009, 06:13 pm

what's wrong with the actual guitar section?

I want to post or [tab]
guest
You may want to rate the tab now too:
select rating
Please do not post tabs as comments. Select "correction" instead!