Oops, an error
Loading. Please wait.

A Rite Of Passage Bass Tab

ver2
ver2
More versions @911Tabs.com
2,230 views 1 this week
no commentswrite comment
1 2 3 4 5
please rate
Autoscroll
+/-
esc
set tempo
stop
Contributor
Hey! There's an official Ultimate Guitar app which is ideal
for learning songs when you're away from computer. Get the app
WARNING: You are trying to view
                                    content from Ultimate-Guitar.com
                                    in an unauthorized application,
                                    which is prohibited.

                                    Please use an official Ultimate
                                    Guitar Tabs application for iPhone,
                                    iPad or Android to access legitimate
                                    chords, guitar, bass, and drum tabs
                                    from Ultimate-Guitar.com database.

                                    Type "ultimate guitar tabs" in Apple
                                    App Store's or Android Market's
                                    search to find the application.
Artist: Dream Theater
Song: A Rite of Passage
Album: Black Clouds & Silver Linings
Tempo: 108
Tuning DEADGC

   E   S   S   E  E   S   S   E  E  E     E   S   S   E  E   E   E   Q     
|--------------------------------------|----------------------------12----|
|-----11h-12p-11-----11h-12p-11--7--5--|-----11h-12p-11---------11--------|
|--0--------------0--------------------|--0--------------0--10------------|
|--------------------------------------|----------------------------------|
|--------------------------------------|----------------------------------|
|--------------------------------------|----------------------------------|


  E   S   S   E  E   S   S   E  E  E     E   S   S   E  E  E  E  Q     
--------------------------------------|-------------------------------|
-----11h-12p-11-----11h-12p-11--7--5--|-----11h-12p-11-----0--1-------|
--0--------------0--------------------|--0--------------0--------1----|
--------------------------------------|-------------------------------|
--------------------------------------|-------------------------------|
--------------------------------------|-------------------------------|


  E   S   S   E  E   S   S   E  E  E     E   S   S   E  E   E   E   Q     
--------------------------------------|----------------------------12----|
-----11h-12p-11-----11h-12p-11--------|-----11h-12p-11---------11--------|
--0--------------0--------------7--5--|--0--------------0--10------------|
--------------------------------------|----------------------------------|
--------------------------------------|----------------------------------|
--------------------------------------|----------------------------------|


  E   S   S   E  E   S   S   E  E  E     E   S   S   E  E  E  E  Q       E  S S Q    S S E  E  E   
--------------------------------------|-------------------------------|---------------------------|
-----11h-12p-11-----11h-12p-11--------|-----11h-12p-11----------------|---------------------------|
--0--------------0--------------7--5--|--0--------------0--5--6--1----|---------------------------|
--------------------------------------|-------------------------------|---------------------------|
--------------------------------------|-------------------------------|---------------------------|
--------------------------------------|-------------------------------|-----0-0-0----0-0-0-----0--|


  E  S S Q    E  E  Q       E  S S Q    S S E  E  E     E  S S Q    E  E  Q     
-------------------------|---------------------------|-------------------------|
-------------------------|---------------------------|-------------------------|
-------------------------|---------------------------|-------------------------|
--------------------3----|---------------------------|-------------------------|
-----------------2-------|---------------------------|--------------3--4-------|
-----0-0-0----0----------|-----0-0-0----0-0-0-----0--|-----0-0-0----------1----|


  E  S S Q    S S E  E  E     E  S S Q    E  E  Q       E  S S Q    S S E  E  E   
---------------------------|-------------------------|---------------------------|
---------------------------|-------------------------|---------------------------|
---------------------------|-------------------------|---------------------------|
---------------------------|--------------------3----|---------------------------|
---------------------------|-----------------2-------|---------------------------|
-----0-0-0----0-0-0-----0--|-----0-0-0----0----------|-----0-0-0----0-0-0-----0--|


  S S E  S S E  S S S  S S S E       E  S  S E  E  S  S E  E  E     E  S  S E  E  E  E   Q     
--------------------------------||-------------------------------|----------------------------|
--------------------------------||-------------------------------|----------------------------|
--------------------------------||*------------------------------|----------------------10----|
--------------------------------||*-----9-10-9-----9-10-9--5--3--|-----9-10-9--------9--------|
--------------------------------||-------------------------------|----------------8-----------|
--0-0-3--0-0-5--0-0-5s-6-0-0-1--||---0----------0----------------|--0----------0--------------|


                               1.                            2.              |--3--|        
  E  S  S E  E  S  S E  E  E     E  S  S E  E  E  E  Q         E  S  S E  E  E  E  E  Q     
------------------------------|----------------------------||------------------------------|
------------------------------|----------------------------||------------------------------|
------------------------------|---------------------------*||------------------------------|
-----9-10-9-----9-10-9--5--3--|-----9-10-9----------------*||-----9-10-9-------------------|
------------------------------|----------------3--4--------||----------------3--4--3-------|
--0----------0----------------|--0----------0--------1-----||--0----------0-----------1----|


    E  S S Q    S S E  E  E     E  S S Q    E  E  Q       E  S S Q    S S E  E  E   
|----------------------------|-------------------------|---------------------------|
|----------------------------|-------------------------|---------------------------|
|*---------------------------|-------------------------|---------------------------|
|*---------------------------|--------------------3----|---------------------------|
|----------------------------|-----------------2-------|---------------------------|
|------0-0-0----0-0-0-----0--|-----0-0-0----0----------|-----0-0-0----0-0-0-----0--|


  S S E  S S E  S S S  S S S E        E  S S E  S S S S E  E  E     E  S S E  S S E  E  Q     
---------------------------------||------------------------------|---------------------------|
---------------------------------||------------------------------|---------------------------|
--------------------------------*||*-----2-3-2------2-3-2--------|-----2-3-2-----------------|
--------------------------------*||*-----------------------------|---------------------------|
---------------------------------||------------------------------|---------------------------|
--0-0-3--0-0-5--0-0-5s-6-0-0-1---||---2---------2-2--------3--2--|--2---------2-2-2--3--0----|


  E  S S E  S S S S E  E  E     E  S S E  S S E  E  Q          E  E  E  E  E  E  E  E    
-----------------------------|----------------------------||----------------------------|
-----------------------------|----------------------------||----------------------------|
-----2-3-2------2-3-2--------|-----2-3-2-----------------*||*---------------------------|
-----------------------------|---------------------------*||*---------------------------|
-----------------------------|----------------------------||---5--5--5--5--5--5--5--5\--|
--2---------2-2--------3--2--|--2---------2-2-2--3--0-----||----------------------------|


  Q    E  E  E  E  E  E     E  E  E  E  E  E  E  E      E  E  E  E  E  E  E  E   
-------------------------|---------------------------|--------------------------|
-------------------------|---------------------------|--------------------------|
-------------------------|---------------------------|--------------------------|
-------------------------|---------------------------|--------------------------|
-------------------------|---------------------------|--8--8--8--8--7--7--7--7--|
--0----0--0--0--0--0--0--|--3--3--3--3--3--3--3--3/--|--------------------------|

                                                       1.
  E  E  E  E  E  E  E  E      E  E  E  E  E  E  E  E     E  E  E  E  E  E  E  E   
---------------------------|--------------------------|--------------------------|
---------------------------|--------------------------|--------------------------|
---------------------------|--------------------------|--------------------------|
---------------------------|--------------------------|--------------------------|
--5--5--5--5--5--5--5--5\--|--------------------------|--------------------------|
---------------------------|--3--3--3--3--3--3--3--3--|--0--0--0--0--0--0--0--0--|

                              2.
  E  E  E  E  E  E  E  S S      E  E  E  E  E  E  E  E      E  E  E  E  E  E  S S E   
----------------------------||---------------------------|---------------------------|
----------------------------||---------------------------|---------------------------|
---------------------------*||---------------------------|---------------------------|
---------------------------*||---------------------------|---------------------------|
----------------------------||--7--7--7--7--7--7--7--7\--|---------------------------|
--2--2--2--2--2--2--2--2-3--||---------------------------|--2--2--2--2--2--2--2-2-2--|


  Q.      E   E   E  E  E     Q.      E   E   E  E   E     E  E  E  E  E  E  E  E   
---------------------------|----------------------------|--------------------------|
---------------------------|----------------------------|--------------------------|
---------------------------|----------------------------|--------------------------|
---------------------------|----------------------------|--------------------------|
--5------/8--11--10--8--3--|--L------/8--11--10--8S--2--|--L--2--2--2--2--2--2--2--|
---------------------------|----------------------------|--------------------------|


  E  S S Q    S S E  E  E     E  S S Q    E  E  Q       E  S S Q    S S E  E  E   
---------------------------|-------------------------|---------------------------|
---------------------------|-------------------------|---------------------------|
---------------------------|-------------------------|---------------------------|
---------------------------|--------------------3----|---------------------------|
---------------------------|-----------------2-------|---------------------------|
-----0-0-0----0-0-0-----0--|-----0-0-0----0----------|-----0-0-0----0-0-0-----0--|


              |-6-| |-6-|                                                              
  E  S S Q    S S S S S S  Q       E  S S Q    S S E  E  E     E  S S Q    E  E  Q     
--------------------------------|---------------------------|-------------------------|
--------------------------------|---------------------------|-------------------------|
--------------------------------|---------------------------|-------------------------|
--------------------------------|---------------------------|--------------------3----|
--------------------------10----|---------------------------|-----------------2-------|
-----0-0-0----0-0-0-0-0-0-------|-----0-0-0----0-0-0-----0--|-----0-0-0----0----------|


  E  S S Q    S S E  E  E     S S E  S S E  S S E  Q       E  S  S E  E  S  S E  E  E   
---------------------------|----------------------------|------------------------------|
---------------------------|----------------------------|------------------------------|
---------------------------|----------------------------|------------------------------|
---------------------------|----------------------------|-----9-10-9-----9-10-9--5--3--|
---------------------------|----------------------------|------------------------------|
-----0-0-0----0-0-0-----0--|--0-0-3--0-0-5--0-0-6--1----|--0----------0----------------|


                                                                            |--3--|        
  E  S  S E  E  E  E   Q       E  S  S E  E  S  S E  E  E     E  S  S E  E  E  E  E  Q     
----------------------------|------------------------------|------------------------------|
----------------------------|------------------------------|------------------------------|
----------------------10----|------------------------------|------------------------------|
-----9-10-9--------9--------|-----9-10-9-----9-10-9--5--3--|-----9-10-9-------------------|
----------------8-----------|------------------------------|----------------3--4--3-------|
--0----------0--------------|--0----------0----------------|--0----------0-----------1----|


  E  S S Q    S S E  E  E     E  S S Q    E  E  Q       E  S S Q    S S E  E  E   
---------------------------|-------------------------|---------------------------|
---------------------------|-------------------------|---------------------------|
---------------------------|-------------------------|---------------------------|
---------------------------|--------------------3----|---------------------------|
---------------------------|-----------------2-------|---------------------------|
-----0-0-0----0-0-0-----0--|-----0-0-0----0----------|-----0-0-0----0-0-0-----0--|


  S S E  S S E  S S S  S S S E     E  S S Q    S S E  E  E     E  S S Q    E  E  Q     
--------------------------------|---------------------------|-------------------------|
--------------------------------|---------------------------|-------------------------|
--------------------------------|---------------------------|-------------------------|
--------------------------------|---------------------------|--------------------3----|
--------------------------------|---------------------------|-----------------2-------|
--0-0-3--0-0-5--0-0-5s-6-0-0-1--|-----0-0-0----0-0-0-----0--|-----0-0-0----0----------|


  E  S S Q    S S E  E  E     S S E  S S E  S S S  S S S E     E  S S Q    S S E  E  E   
---------------------------|--------------------------------|---------------------------|
---------------------------|--------------------------------|---------------------------|
---------------------------|--------------------------------|---------------------------|
---------------------------|--------------------------------|---------------------------|
---------------------------|--------------------------------|---------------------------|
-----0-0-0----0-0-0-----0--|--0-0-3--0-0-5--0-0-5s-6-0-0-1--|-----0-0-0----0-0-0-----0--|


  E  S S Q    E  E  Q       E  S S Q    S S E  E  E     S S E  S S E  S S S  S S S E   
-------------------------|---------------------------|--------------------------------|
-------------------------|---------------------------|--------------------------------|
-------------------------|---------------------------|--------------------------------|
--------------------3----|---------------------------|--------------------------------|
-----------------2-------|---------------------------|--------------------------------|
-----0-0-0----0----------|-----0-0-0----0-0-0-----0--|--0-0-3--0-0-5--0-0-5s-6-0-0-1--|


  E  S S Q    S S E  E  E     E  S S Q    E  E  Q       E  S S Q    S S E  E  E   
---------------------------|-------------------------|---------------------------|
---------------------------|-------------------------|---------------------------|
---------------------------|-------------------------|---------------------------|
---------------------------|--------------------3----|---------------------------|
---------------------------|-----------------2-------|---------------------------|
-----0-0-0----0-0-0-----0--|-----0-0-0----0----------|-----0-0-0----0-0-0-----0--|


  S S E  S S E  S S S  S S S E       E  S S E  S S S S E  E  E     E  S S E  S S E  E  Q     
--------------------------------||------------------------------|---------------------------|
--------------------------------||------------------------------|---------------------------|
--------------------------------||*-----2-3-2------2-3-2--------|-----2-3-2-----------------|
--------------------------------||*-----------------------------|---------------------------|
--------------------------------||------------------------------|---------------------------|
--0-0-3--0-0-5--0-0-5s-6-0-0-1--||---2---------2-2--------3--2--|--2---------2-2-2--3--0----|

                              1.                            2.
  E  S S E  S S S S E  E  E     E  S S E  S S E  E  Q         E  S S E  S S S S E  E  E   
-----------------------------|----------------------------||-----------------------------|
-----------------------------|----------------------------||-----------------------------|
-----2-3-2------2-3-2--------|-----2-3-2-----------------*||-----2-3-2------2-3-2--------|
-----------------------------|---------------------------*||-----------------------------|
-----------------------------|----------------------------||-----------------------------|
--2---------2-2--------3--2--|--2---------2-2-2--3--0-----||--2---------2-2--------0--2--|


    E  E  E  E  E  E  E  E      Q    E  E  E  E  E  E     E  E  E  E  E  E  E  E    
|----------------------------|-------------------------|---------------------------|
|----------------------------|-------------------------|---------------------------|
|*---------------------------|-------------------------|---------------------------|
|*---------------------------|-------------------------|---------------------------|
|---5--5--5--5--5--5--5--5\--|-------------------------|---------------------------|
|----------------------------|--0----0--0--0--0--0--0--|--3--3--3--3--3--3--3--3/--|


  E  E  E  E  E  E  E  E     E  E  E  E  E  E  E  E      E  E  E  E  E  E  E  E   
--------------------------|---------------------------|--------------------------|
--------------------------|---------------------------|--------------------------|
--------------------------|---------------------------|--------------------------|
--------------------------|---------------------------|--------------------------|
--8--8--8--8--7--7--7--7--|--5--5--5--5--5--5--5--5\--|--------------------------|
--------------------------|---------------------------|--3--3--3--3--3--3--3--3--|

1.                                                       2.
  E  E  E  E  E  E  E  E     E  E  E  E  E  E  E  S S      E  E  E  E  E  E  E  E    
--------------------------|----------------------------||---------------------------|
--------------------------|----------------------------||---------------------------|
--------------------------|---------------------------*||---------------------------|
--------------------------|---------------------------*||---------------------------|
--------------------------|----------------------------||--7--7--7--7--7--7--7--7\--|
--0--0--0--0--0--0--0--0--|--2--2--2--2--2--2--2--2-3--||---------------------------|


  E  E  E  E  E  E  S S E     Q.      E   E   E  E  E     Q.      E   E   E  E   E   
---------------------------|---------------------------|----------------------------|
---------------------------|---------------------------|----------------------------|
---------------------------|---------------------------|----------------------------|
---------------------------|---------------------------|----------------------------|
---------------------------|--5------/8--11--10--8--3--|--L------/8--11--10--8S--2--|
--2--2--2--2--2--2--2-2-2--|---------------------------|----------------------------|


  E  E  E  E  E  E  E  E     E  S S Q    S S E  E  E     E  S S Q    E  E  Q     
--------------------------|---------------------------|-------------------------|
--------------------------|---------------------------|-------------------------|
--------------------------|---------------------------|-------------------------|
--------------------------|---------------------------|--------------------3----|
--L--2--2--2--2--2--2--2--|---------------------------|-----------------2-------|
--------------------------|-----0-0-0----0-0-0-----0--|-----0-0-0----0----------|


                                          |-6-| |-6-|                                    
  E  S S Q    S S E  E  E     E  S S Q    S S S S S S  Q       E  S S Q    S S E  E  E   
---------------------------|--------------------------------|---------------------------|
---------------------------|--------------------------------|---------------------------|
---------------------------|--------------------------------|---------------------------|
---------------------------|--------------------------------|---------------------------|
---------------------------|--------------------------10----|---------------------------|
-----0-0-0----0-0-0-----0--|-----0-0-0----0-0-0-0-0-0-------|-----0-0-0----0-0-0-----0--|


  E  S S Q    E  E  Q       E  S S Q    S S E  E  E     Q    Q    H           H        E  E  E  E   
-------------------------|---------------------------|---------------------|-----------------------|
-------------------------|---------------------------|---------------------|-----------------------|
-------------------------|---------------------------|---------------------|-----------------------|
--------------------3----|---------------------------|---------------------|-----------------6--5--|
-----------------2-------|---------------------------|---------------------|-----------7--8--------|
-----0-0-0----0----------|-----0-0-0----0-0-0-----0--|--0------------------|-----------------------|


  W                   H        E  E  Q       E  E  E  E  E  E  E  E     S S E  E  E  E  E  Q     
-------------------|----------------------|--------------------------|--------------------------|
-------------------|----------------------|--------------------------|--------------------------|
-------------------|----------------------|--------------------------|--------------------------|
-------------------|----------------------|--------6--5--------------|---------------8--7--6----|
-------------------|-----------8--7--6----|--7--8--------------------|--------------------------|
-------------------|----------------------|--------------0--0--0--0--|--0-0-0--0--0-------------|

                                                         1.
    E  E  E  E  E  E  E  E     E  E  E  E  S S E  E  E     E  E  E  E  E  E  E  E   
|---------------------------|---------------------------|--------------------------|
|---------------------------|---------------------------|--------------------------|
|*--------------------------|---------------------------|--------------------------|
|*--------6--5--------------|---------------------------|--------6--5--------------|
|---7--8--------------------|--5--4---------------------|--7--8--------------------|
|---------------0--0--3--4--|--------0--0--0-0-0--0--0--|--------------0--0--0--2--|

                            2.
  E  E  E  E  E  E  Q         E  E  E  E  E  E  E  E     E  E  E  E  E  E  Q     
--------------------------||--------------------------|-------------------------|
--------------------------||--------------------------|-------------------------|
-------------------------*||--------------------------|-----8--7----------------|
-------------------------*||--------6--5-----------5--|--6-----------8--7--6----|
--------------8--7--6-----||--7--8--------------------|-------------------------|
--3--6--5--0--------------||--------------0--0--0-----|-----------0-------------|


  E  E  E  E  E  Q    E     E  E  H.               E  E  E  E  E  E  E  E   
-------------------------|----------------------|--------------------------|
-------------------------|----------------------|--------------------------|
-------------------------|----------------------|--------------------------|
-------------------------|----------------------|--------------------------|
-------------------------|----------------------|--------------------------|
--3--5--6--5--L--3----5--|--L--3--5~------------|--3--5--6--5--L--3--5--6--|


  E  E  E   E  E  Q.         E  E  E  E  E  Q    E     E  E  H.             
--------------------------|-------------------------|----------------------|
--------------------------|-------------------------|----------------------|
---------------4--5~------|-------------------------|----------------------|
--3--2--5s--6-------------|-------------------------|----------------------|
--------------------------|-------------------------|----------------------|
--------------------------|--3--5--6--5--L--3----5--|--L--3--5~------------|


  E  E  E  E  E  E  E  E     E  E  E   E  E  Q.        E  E  E  E  E  E  E  E   
--------------------------|-------------------------|--------------------------|
--------------------------|------------------5------|--------------------------|
--------------------------|---------------4---------|--------------------------|
--------------------------|--3--2--5s--6------------|--------6--5--------------|
--------------------------|-------------------------|--7--8--------------------|
--3--5--6--5--L--3--5--6--|-------------------------|--------------0--0--0--0--|


  S S E  E  E  S S E  E  E     E  E  E  E  E  E  E  E     E  E  E  E  S S E  E  E   
----------------------------|--------------------------|---------------------------|
----------------------------|--------------------------|---------------------------|
----------------------------|--------------------------|---------------------------|
----------------------------|--------------------6--5--|---------------------------|
----------------------------|--------------7--8--------|---------------------------|
--0-0-0--0--0--0-0-0--0--0--|--0--0--0--0--------------|--0--0--0--0--0-0-0--0--0--|


  S S E  E  E  E  E  Q       E  E  E  E  E  E  E  E     S S E  E  E  S S E  E  E   
--------------------------|--------------------------|----------------------------|
--------------------------|--------------------------|----------------------------|
--------------------------|--------------------------|----------------------------|
--------------------------|--------6--5--------------|----------------------------|
---------------8--7--6----|--7--8--------------------|----------------------------|
--0-0-0--0--0-------------|--------------0--0--0--0--|--0-0-0--0--0--0-0-0--0--0--|


  E  E  E  E  E  E  E  E     E  E  E  E  S S E  E  E     S S E  E  E  E  E  Q     
--------------------------|---------------------------|--------------------------|
--------------------------|---------------------------|--------------------------|
--------------------------|---------------------------|--------------------------|
--------------------6--5--|---------------------------|---------------8--7--6----|
--------------7--8--------|---------------------------|--------------------------|
--0--0--0--0--------------|--0--0--0--0--0-0-0--0--0--|--0-0-0--0--0-------------|


  E  E  E  E  E  E  E  E     E  E  Q    E  E  Q       E  E  E  E  E  E  E  E   
--------------------------|------------------------|--------------------------|
--------------------------|------------------------|--------------------------|
--------------------------|------------------------|--------------------------|
--------------------------|------------------------|--------------------------|
--6--5--------------------|------------------------|--6--5--------------------|
--------4--3-----1-----3--|-----1--3-------1--3----|--------4--3-----1--2--3--|


  E  E  E  E  E  E  Q       E  E  E  E  E  E  E  E     E  E  Q    E  E  Q     
-------------------------|--------------------------|------------------------|
-------------------------|--------------------------|------------------------|
-------------------------|--------------------------|------------------------|
-------------------------|--------------------------|------------------------|
-------------------------|--6--5--------------------|------------------------|
-----1--2--3-----1--4----|--------4--3-----1-----3--|-----1--3-------1--3----|


  E  E  E  E  E  E  E  E     E  E  E  E  E  E  Q       E  E  E  E  E  E  E  E   
--------------------------|-------------------------|--------------------------|
--------------------------|-------------------------|--------------------------|
--------------------------|-------------------------|--------------------------|
--------------------------|-------------------------|--------6--5--------------|
--6--5--------------------|-------------------------|--7--8--------------------|
--------4--3-----1--2--3--|-----1--2--3-----1--4----|--------------0--0--3--4--|


  E  E  E  E  S S E  E  E     E  E  E  E  E  E  E  E     E  E  E  E  E  E  Q     
---------------------------|--------------------------|-------------------------|
---------------------------|--------------------------|-------------------------|
---------------------------|--------------------------|-------------------------|
---------------------------|--------6--5--------------|-------------------------|
--5--4---------------------|--7--8--------------------|--------------8--7--6----|
--------0--0--0-0-0--0--0--|--------------0--0--0--2--|--3--6--5--0-------------|


  E  E  E  E  E  E  E  E     E  E  E  E  S S E  E  E     E  E  E  E  E  E  E  E   
--------------------------|---------------------------|--------------------------|
--------------------------|---------------------------|--------------------------|
--------------------------|---------------------------|--------------------------|
--------6--5--------------|---------------------------|--------6--5-----------5--|
--7--8--------------------|--5--4---------------------|--7--8--------------------|
--------------0--0--3--4--|--------0--0--0-0-0--0--0--|--------------0--0--0-----|


  E  E  E  E  E  E  Q       E  S  S E  E  S  S E  E  E     E  S  S E  E  E  E   Q     
-------------------------|------------------------------|----------------------------|
-------------------------|------------------------------|----------------------------|
-----8--7----------------|------------------------------|----------------------10----|
--6-----------8--7--6----|-----9-10-9-----9-10-9--5--3--|-----9-10-9--------9--------|
-------------------------|------------------------------|----------------8-----------|
-----------0-------------|--0----------0----------------|--0----------0--------------|


  E  S  S E  E  S  S E  E  E     E  S  S E  E  E  E  Q       E  S  S E  E  S  S E  E  E   
------------------------------|---------------------------|------------------------------|
------------------------------|---------------------------|------------------------------|
------------------------------|---------------------------|------------------------------|
-----9-10-9-----9-10-9--5--3--|-----9-10-9----------------|-----9-10-9-----9-10-9--5--3--|
------------------------------|----------------3--4-------|------------------------------|
--0----------0----------------|--0----------0--------1----|--0----------0----------------|


                                                                            |--3--|        
  E  S  S E  E  E  E   Q       E  S  S E  E  S  S E  E  E     E  S  S E  E  E  E  E  Q     
----------------------------|------------------------------|------------------------------|
----------------------------|------------------------------|------------------------------|
----------------------10----|------------------------------|------------------------------|
-----9-10-9--------9--------|-----9-10-9-----9-10-9--5--3--|-----9-10-9-------------------|
----------------8-----------|------------------------------|----------------3--4--3-------|
--0----------0--------------|--0----------0----------------|--0----------0-----------1----|


  E  E  E  E  E  Q    E     E  E  H.               E  E  E  E  E  E  E  E   
-------------------------|----------------------|--------------------------|
-------------------------|----------------------|--------------------------|
-------------------------|----------------------|--------------------------|
-------------------------|----------------------|--------------------------|
-------------------------|----------------------|--------------------------|
--3--5--6--5--L--3----5--|--L--3--5~------------|--3--5--6--5--L--3--5--6--|


  E  E  E   E  E  Q.        E  E  E  E  E  E  E  E     S S E  E  E  S S E  E  E   
-------------------------|--------------------------|----------------------------|
------------------5------|--------------------------|----------------------------|
---------------4---------|--------------------------|----------------------------|
--3--2--5s--6------------|--------6--5--------------|----------------------------|
-------------------------|--7--8--------------------|----------------------------|
-------------------------|--------------0--0--0--0--|--0-0-0--0--0--0-0-0--0--0--|


  E  E  E  E  E  E  E  E     E  E  E  E  S S E  E  E     S S E  E  E  E  E  Q     
--------------------------|---------------------------|--------------------------|
--------------------------|---------------------------|--------------------------|
--------------------------|---------------------------|--------------------------|
--------------------6--5--|---------------------------|--------------------------|
--------------7--8--------|---------------------------|---------------8--7--6----|
--0--0--0--0--------------|--0--0--0--0--0-0-0--0--0--|--0-0-0--0--0-------------|


  E  E  E  E  E  E  E  E     S S E  E  E  S S E  E  E     E  E  E  E  E  E  E  E   
--------------------------|----------------------------|--------------------------|
--------------------------|----------------------------|--------------------------|
--------------------------|----------------------------|--------------------------|
--------6--5--------------|----------------------------|--------------------6--5--|
--7--8--------------------|----------------------------|--------------7--8--------|
--------------0--0--0--0--|--0-0-0--0--0--0-0-0--0--0--|--0--0--0--0--------------|


  E  E  E  E  S S E  E  E     S S E  E  E  E  E  Q       E  E  E  E  E  E  E  E   
---------------------------|--------------------------|--------------------------|
---------------------------|--------------------------|--------------------------|
---------------------------|--------------------------|--------------------------|
---------------------------|---------------8--7--6----|--------------------------|
---------------------------|--------------------------|--6--5--------------------|
--0--0--0--0--0-0-0--0--0--|--0-0-0--0--0-------------|--------4--3-----1-----3--|


  E  E  Q    E  E  Q       E  E  E  E  E  E  E  E     E  E  E  E  E  E  Q     
------------------------|--------------------------|-------------------------|
------------------------|--------------------------|-------------------------|
------------------------|--------------------------|-------------------------|
------------------------|--------------------------|-------------------------|
------------------------|--6--5--------------------|-------------------------|
-----1--3-------1--3----|--------4--3-----1--2--3--|-----1--2--3-----1--4----|


  E  E  E  E  E  E  E  E     E  E  Q    E  E  Q       E  E  E  E  E  E  E  E   
--------------------------|------------------------|--------------------------|
--------------------------|------------------------|--------------------------|
--------------------------|------------------------|--------------------------|
--------------------------|------------------------|--------------------------|
--6--5--------------------|------------------------|--6--5--------------------|
--------4--3-----1-----3--|-----1--3-------1--3----|--------4--3-----1--2--3--|


  E  E  E  E  E  E  Q       E  E  E  E  E  E  E  E     E  E  E  E  S S E  E  E   
-------------------------|--------------------------|---------------------------|
-------------------------|--------------------------|---------------------------|
-------------------------|--------------------------|---------------------------|
-------------------------|--------6--5--------------|---------------------------|
-------------------------|--7--8--------------------|--5--4---------------------|
-----1--2--3-----1--4----|--------------0--0--3--4--|--------0--0--0-0-0--0--0--|


  E  E  E  E  E  E  E  E     E  E  E  E  E  E  Q       E  E  E  E  E  E  E  E   
--------------------------|-------------------------|--------------------------|
--------------------------|-------------------------|--------------------------|
--------------------------|-------------------------|--------------------------|
--------6--5--------------|-------------------------|--------6--5--------------|
--7--8--------------------|--------------8--7--6----|--7--8--------------------|
--------------0--0--0--2--|--3--6--5--0-------------|--------------0--0--3--4--|


  E  E  E  E  S S E  E  E     E  E  E  E  E  E  E  E     E  E  E  E  E  E  Q     
---------------------------|--------------------------|-------------------------|
---------------------------|--------------------------|-------------------------|
---------------------------|--------------------------|-----8--7----------------|
---------------------------|--------6--5-----------5--|--6-----------8--7--6----|
--5--4---------------------|--7--8--------------------|-------------------------|
--------0--0--0-0-0--0--0--|--------------0--0--0-----|-----------0-------------|


  Q    E  E  H           Q    E  E  H           Q    E  E  H           Q    E  E  H         
----------------------|----------------------|----------------------|----------------------|
----------------------|----------------------|----------------------|----------------------|
----------------------|----------------------|----------------------|----------------------|
----------------------|----------------------|----------------------|----------------------|
----------------------|----------------------|----------------------|----------------------|
--2-------2-----------|--2-------2-----------|--2-------2-----------|--2-------2-----------|


    E  E  E  E  E  E  E  E      Q    E  E  E  E  E  E     E  E  E  E  E  E  E  E    
|----------------------------|-------------------------|---------------------------|
|----------------------------|-------------------------|---------------------------|
|*---------------------------|-------------------------|---------------------------|
|*---------------------------|-------------------------|---------------------------|
|---5--5--5--5--5--5--5--5\--|-------------------------|---------------------------|
|----------------------------|--0----0--0--0--0--0--0--|--3--3--3--3--3--3--3--3/--|


  E  E  E  E  E  E  E  E     E  E  E  E  E  E  E  E      E  E  E  E  E  E  E  E   
--------------------------|---------------------------|--------------------------|
--------------------------|---------------------------|--------------------------|
--------------------------|---------------------------|--------------------------|
--------------------------|---------------------------|--------------------------|
--8--8--8--8--7--7--7--7--|--5--5--5--5--5--5--5--5\--|--------------------------|
--------------------------|---------------------------|--3--3--3--3--3--3--3--3--|

1.                                                       2.
  E  E  E  E  E  E  E  E     E  E  E  E  E  E  E  S S      E  E  E  E  E  E  E  E    
--------------------------|----------------------------||---------------------------|
--------------------------|----------------------------||---------------------------|
--------------------------|---------------------------*||---------------------------|
--------------------------|---------------------------*||---------------------------|
--------------------------|----------------------------||--7--7--7--7--7--7--7--7\--|
--0--0--0--0--0--0--0--0--|--2--2--2--2--2--2--2--2-3--||---------------------------|


  E  E  E  E  E  E  S S E     Q.      E   E   E  E  E     Q.      E   E   E  E   E   
---------------------------|---------------------------|----------------------------|
---------------------------|---------------------------|----------------------------|
---------------------------|---------------------------|----------------------------|
---------------------------|---------------------------|----------------------------|
---------------------------|--5------/8--11--10--8--3--|--L------/8--11--10--8S--2--|
--2--2--2--2--2--2--2-2-2--|---------------------------|----------------------------|


  E  E  E  E  E  E  E  E     E  S S Q    S S E  E  E     E  S S Q    E  E  Q     
--------------------------|---------------------------|-------------------------|
--------------------------|---------------------------|-------------------------|
--------------------------|---------------------------|-------------------------|
--------------------------|---------------------------|--------------------3----|
--L--2--2--2--2--2--2--2--|---------------------------|-----------------2-------|
--------------------------|-----0-0-0----0-0-0-----0--|-----0-0-0----0----------|


  E  S S Q    S S E  E  E     E  S S Q    E  E  Q       E  S S Q    S S E  E  E   
---------------------------|-------------------------|---------------------------|
---------------------------|-------------------------|---------------------------|
---------------------------|-------------------------|---------------------------|
---------------------------|-------------------------|---------------------------|
---------------------------|--------------3--4-------|---------------------------|
-----0-0-0----0-0-0-----0--|-----0-0-0----------1----|-----0-0-0----0-0-0-----0--|


  E  S S Q    E  E  Q       E  S S Q    S S E  E  E     S S E  S S E  S S S  S S S E    
-------------------------|---------------------------|--------------------------------||
-------------------------|---------------------------|--------------------------------||
-------------------------|---------------------------|--------------------------------||
--------------------3----|---------------------------|--------------------------------||
-----------------2-------|---------------------------|--------------------------------||
-----0-0-0----0----------|-----0-0-0----0-0-0-----0--|--0-0-3--0-0-5--0-0-5s-6-0-0-1--||




Duration Legend
---------------
W - whole
H - half
Q - quarter
E - 8th
S - 16th
T - 32nd
X - 64th
. - note dotted
|-n-|  - n-tuplets


Tablature Legend
----------------
L - tied note
x - dead note
g - grace note
(n) - ghost note
> - accentuded note
NH - natural harmonic
AH - artificial harmonic
TH - tapped harmonic
SH - semi harmonic
PH - pitch harmonic
h - hammer on
p - pull off
b - bend
br - bendRelease
pb - preBend
pbr - preBendRelease
brb - bendReleaseBend
\n/ - tremolo bar dip
\n - tremolo bar dive
-/n - tremolo bar Release up
/n\ - tremolo bar inverted dip
/n - tremolo bar return
-\n - tremolo bar Release down
S - shift slide
s - legato slide
/ -  slide into from below or out of upwards
\ -  slide into from above or out of downwards
~ - vibrato
W - wide vibrato
tr - trill
TP - tremolo picking
T - tapping
S - slap
P - pop
< - fade in
^ - brush up
v - brush down
comments
We did not receive enough feedback on this tab! Please rate:
print report bad tab
1 2 3 4 5
I want to post or [tab]
guest
You may want to rate the tab now too:
select rating
Please do not post tabs as comments. Select "correction" instead!