Oops, an error
Loading. Please wait.

About To Crash Tab

ver2
ver2

Whole song

Interactive

More versions @911Tabs.com
6,227 views 1 this week
no commentswrite comment
1 2 3 4 5
excellent!
x 1
add to favorites launch autoscroll
font size
0
reset
Autoscroll
+/-
esc
set tempo
stop
Contributor
Difficulty
intermediate
WARNING: You are trying to view
                                    content from Ultimate-Guitar.com
                                    in an unauthorized application,
                                    which is prohibited.

                                    Please use an official Ultimate
                                    Guitar Tabs application for iPhone,
                                    iPad or Android to access legitimate
                                    chords, guitar, bass, and drum tabs
                                    from Ultimate-Guitar.com database.

                                    Type "ultimate guitar tabs" in Apple
                                    App Store's or Android Market's
                                    search to find the application.
                         II. About To Crash                           


                                                         Dream Theater
John Petrucci
João Sousa (metallikat@aeiou.pt)



     piano intro                                               
     W                   H        Q    E     H        Q    E   
E||-------------------|-------------------|-------------------|
B||-------------------|-------------------|-------------------|
G||-------------------|-------------------|--4--------L----L--|
D||-------------------|-------------------|--2--------L----L--|
A||-------------------|-------------------|--2--------L----L--|
E||-------------------|-------------------|--0--------L----L--|


  Q    E.   E  E  E  S    H        Q    E   
------------0--0--0--0-|-------------------|
-----------10--9--7--5-|-------------------|
--L----L---------------|--4--------L----L--|
--L----L---------------|--2--------L----L--|
--L----L---------------|--2--------L----L--|
--L----L---------------|--0--------L----L--|


  H        S S S S S S S S    E  E  E  S E  S S  E  S  
---------------------------|--------------------------|
---------------------------|--------------------10--9-|
--L--------L---------------|--------9----7--6-4--x--x-|
--L--------L---------------|--------9----x--x-x--7--6-|
--L--------L-5-4-2---------|--------7----5--4-2-------|
--L--------L-------5-4-2-4-|--0--0-----0--------------|


  E  E  E  S  S  S  S  S S S  S    E  E  E  S E  S  S E  S  
-------------10p-0--------------|--------------------------|
-------------------10p-0--------|--------------------------|
--------9----------------7-9-11-|--------9----7--6-11-9--9-|
--------9----------------x-x--x-|--------9----x--x--x-x----|
--------7----------------5-7--9-|--------7----5--4--9-7----|
--0--0-----0--------------------|--0--0-----0--------------|


  E  E  E  S  S  S S  S S  S S    E  E  E  S S E.  E.   
-------------------------------|-----------------------|
-------------10p-0-9p-0-7p-0-5-|-----------------------|
--------9----(x)---------------|--------9----7-L-------|
--------9----(x)---------------|--------9----7-L---7---|
--------7----(x)---------------|--------7----5-L---7---|
--0--0-----0-------------------|--0--0-----0-------5---|


  E  E  E  S E  S S S  S  S    E  E  E  S S E.  E.   
----------------------------|-----------------------|
-------------------------10-|-----------------------|
--------9----7------7-11----|--------9----7-L-------|
--------9----7----7---------|--------9----7-L---7---|
--------7----5--9-----------|--------7----5-L---7---|
--0--0-----0----------------|--0--0-----0-------5---|


  E  E  E  S E   S  S  S  S  S    E  E  E  S    E   S S S S S  
-------------------------------|------------------------0---0-|
----------------------------15-|---------------10---9---x-----|
--------9----7--------11-14----|--------9----9g11---9---7-9---|
--------9----7-----12----------|--9-----9------(x)------------|
--------7----5--12-------------|--x-----7------(x)------------|
--0--0-----0-------------------|--0--0-----0------------------|


  E  E  E  S  E   S S S S S    E  E  E  S  E   S S S S S  
--------------------------0-|--------------------------0-|
----------------------------|----------------------------|
--------9-----7---6---------|--------9-----9---9---7-9---|
--9-----9-----7---7---7-9---|--9-----9-----7---6---x-----|
--x-----7----(x)------------|--x-----7----(x)------5-----|
--0--0-----0----------------|--0--0-----0--------0-------|


  E  E  E  S  E   S S S S S    E  E  E  S    E    S S S  S  S  
--------------------------0-|---------------------------------|
----------------------------|---------------10---10---9-10-12-|
--------9-----7---6---------|--------9----9g11----9---9--9--9-|
--9-----9-----7---7---7-9---|--9-----9------(x)---------------|
--x-----7----(x)------------|--x-----7------(x)---------------|
--0--0-----0--------0-------|--0--0-----0---------------------|


  E  E  E  S  E   S S S S S    E  E  E  S    E   S S S S S  
--------------------------0-|------------------------0-----|
--9-------------------------|---------------10-------5-9-9-|
--9-----9-----7---6---------|--------9----9g11---9---------|
--9-----9-----7---7---7-9---|--9--9--9------(x)--9---------|
--x-----7----(x)------------|--x--x--7------(x)------------|
--0--0-----0--------0-------|--0--0-----0----------0-------|


  E  E  E  S  S  E  S S S S S S    Q    E  S S E.  E  E.   
--------------------------------|------------------0------|
--9-----------------------------|---------------------0---|
--9-----9-----2--L----2-1-------|--2----L----2-L----------|
--9-----9-----2--L--------2-----|--x---------2-L----------|
--x-----7----(x)----0-------4-2-|--0----L-----------------|
--0--0-----0--------------------|-------------------------|


  Q    E  S S E.  E  E.     H        Q       E.  S Q    H         
------------------0------|----------------|--------2-------------|
---------------------0---|----------------|------3------3--------|
--4----L----4-L----------|--4--------2----|-------------0--------|
--2----L----2-L----------|--4--------2----|-------------0--------|
--x----------------------|--2--------0----|----------------------|
--4----L-----------------|----------------|--2----------3--------|


  S S E  S S E  S S E  S S E     Q    Q     S  S  S  S  S  S  S  S  
------------------------------|------------------------------------|
--------------------3---------|------------------------------------|
------0------2-------------4--|--4----4-------11----14-16----13----|
----2------0------0------2----|--4----4----------------------------|
-----------------------0------|--2----2----------12-------14-------|
--0------2------3-------------|------------10-------------------12-|


  Q    E  S S E.  E  E.     Q    E  S S E.  E  E.     H        Q     
------------------0------|------------------0------|----------------|
---------------------0---|---------------------0---|----------------|
--9----L----2-L----------|--4----L----4-L----------|--4--------2----|
--7----L--2-2-L----------|--2----L----2-L----------|--4--------2----|
--0----L-----------------|--x----------------------|--2--------0----|
-------------------------|--4----L-----------------|----------------|


  E.  S Q    H           E.  E.  E.  E.   
--------2-------------|------------------|
------3------3--------|------------------|
-------------0--------|------------------|
-------------0--------|------------------|
----------------------|------------------|
--2----------3--------|--0---2---3---5---|


  E.  S S S S  S S S S S S  E  S    E.  S S S Q    S E  E  S  
---------------------------------|------------0--------------|
-------------------------------x-|--5---5-----5--------------|
-------------------------8h-9--x-|--6---6-----6---------8----|
-------------------------9--L--x-|--7---------7------9-------|
--9---9-x-x-7h-9-L-9-x-x---------|--x----------------7-----7-|
--7---7-x-x-7--L-L-7-x-x---------|--7-----7-7------7-------5-|


  E.  S S S S  S S S S S S  E  S  
---------------------------------|
-------------------------------x-|
-------------------------8h-9--x-|
-------------------------9--L--x-|
--9---9-x-x-7h-9-L-9-x-x---------|
--7---7-x-x-7--L-L-7-x-x---------|


  S S S E  S    S  E   S  S E   T  T  S S  
------------------------------------------|
------------------10--10----9--10p-9------|
--8-6---6--6-------------------------11-9-|
--9-7---7----7g11--------11---------------|
------------------------------------------|
------7-----------------------------------|


  2nd verse                                                        
  E.        S S S S  S S S S S S  E  S    E.  S S S E  E.  S Q     
---------------------------------------|------------0--L----------|
---------------------------------------|--5---5-----5--L-----5----|
-------------------------------8h-9----|--6---6-----6--L-----6----|
-------------------------------9--L----|--7---------7--L-----7----|
--9---------9-x-x-7h-9-L-9-x-x---------|--x-----------------------|
--7---------7-x-x-7--L-L-7-x-x-------7-|--7-----7-7--------7------|


  E.  S S S S  S S S S S S  E.     E.  S S S Q       S  E   S  E   
--------------------------------|---------------------------------|
--------------------------------|----------------------10---------|
-------------------------8h-9---|------------6--------------------|
-------------------------9--L---|------------7----7g11-----11-11--|
--9---9-x-x-7h-9-L-9-x-x--------|---------------------------------|
--7---7-x-x-7--L-L-7-x-x--------|--7---7-7-7----------------------|


  E.  S S S S  S S S S S S  E.     E.  S S S E  E.  S Q     
--------------------------------|------------0--L----------|
--------------------------------|--5---5-----5--L----------|
-------------------------8h-9---|--6---6-----6--L----------|
-------------------------9--L---|--7---------7--L----------|
--9---9-x-x-7h-9-L-9-x-x--------|--x-----------------------|
--7---7-x-x-7--L-L-7-x-x--------|--7-----7-7--------7-7----|


  E.  S S S S  S S S S S S  E.      E.   S S S  E  E.   S  Q     
--------------------------------|-------------------------------|
--------------------------------|-------------------------------|
-------------------------8h-9---|--11---11-----11--L---11-11----|
-------------------------9--L---|--11---11-----11--L---11-11----|
--9---9-x-x-7h-9-L-9-x-x--------|---9----9-9-9--9--L----9--9----|
--7---7-x-x-7--L-L-7-x-x--------|-------------------------------|


  E.  S E  S  E  E.  S   E.      S  E   E  S  E  E.  S Q     
-----------------------------|----------------0--L----------|
---------------------9h-10---|--10-10--10-----0--L----------|
---------------------9---9---|--11-11--11----11--L----------|
--9---9-L--7h-9--9-----------|--12-12--12----12--L----------|
--7---7-L--7--L--7-----------|--12--------------------------|
--0---0-L--0--L--0-----------|---0---------0---------0-0----|


  E.  S E  S  E  E.  S   E.     S S S E  S Q     S  E   S  E   
-----------------------------|--------7------------10-----10--|
---------------------9h-10---|-----------7-7------------------|
---------------------9---9---|------------------11-----11-----|
--9---9-L--7h-9--9-----------|--------------------------------|
--7---7-L--7--L--7-----------|--7-7-7-------------------------|
--0---0-L--0--L--0-----------|--------------------------------|


  E.  S E  S  E  E.  S   E.      S  E   E  S  E  E.  S Q     
-----------------------------|----------------0--L----------|
---------------------9h-10---|--10-10--10-----0--L----------|
---------------------9---9---|--11-11--11----11--L----------|
--9---9-L--7h-9--9-----------|--12-12--12----12--L----------|
--7---7-L--7--L--7-----------|--12--------------------------|
--0---0-L--0--L--0-----------|---0---------0---------0-0----|


  E.  S E  S  E  E.  S   E.     Q    Q    Q    Q     
-----------------------------|------------7---------|
---------------------9h-10---|------------7---------|
---------------------9---9---|----------------------|
--9---9-L--7h-9--9-----------|--9----9--------------|
--7---7-L--7--L--7-----------|--9----9--------------|
--0---0-L--0--L--0-----------|--7----7---------7----|


   H.            Q        H.            Q       H.            Q     
--12------------16----|--11------------16----|--7------------16----|
--14------------17----|--13------------17----|--7------------17----|
--13------------18----|--12------------18----|--7------------18----|
----------------------|----------------------|---------------------|
----------------------|----------------------|---------------------|
----------------------|----------------------|---------------------|


  H.           Q        W                   S S S S E  Q    Q    E   
--9------------9----|--16----------------|-------------0------------|
--9------------9----|--17----------------|--------0-L-------0----L--|
--9------------9----|--18----------------|------4-------------------|
--------------------|--------------------|----2---------------------|
--------------------|--------------------|--------------------------|
--------------------|--------------------|--4-----------------------|


  H        Q       E.  S Q    H         
----------------|--------2-------------|
----------------|------3------3--------|
--4--------2----|-------------0--------|
--4--------2----|-------------0--------|
--2--------0----|----------------------|
----------------|--2----------3--------|


  S S E  S S E  S S E  S S E     H         S  S  S  S  S  S  S  S  
------------------------------|--------------------10-12----------|
--------------------3---------|-----------------------------------|
------0------2-------------4--|--4-----------14-------------16----|
----2------0------0------2----|--4--------------12-------14-------|
-----------------------0------|--2--------12-------------------14-|
--0------2------3-------------|-----------------------------------|


  S S S S E  Q    Q    E     S S S S E  Q    Q    E   
-------------0------------|-------------0------------|
--------0-L-------0----L--|--------0-L-------0----L--|
------2-------------------|------4-------------------|
----2---------------------|----2---------------------|
--0-----------------------|--------------------------|
--------------------------|--4-----------------------|


  H        Q       E.  S Q    H           S S S S Q    S S E   
----------------|--------2-------------|----------------------|
----------------|------3------3--------|----------------------|
--4--------2----|-------------0--------|----0-----0--------2--|
--4--------2----|-------------0--------|--------2--------0----|
--2--------0----|----------------------|------2---------------|
----------------|--2----------3--------|--0------------2------|


  S S S S S S S S S S    S S S S E  S S S S    E.  E.    Q     
----------------------|---------------------|-----------------|
----------------------|--------0-L--------2-|-----------------|
----------2---------4-|------2----------4---|--6---4---<>6----|
------4-----4-----6---|----2----------4-----|--6---4----------|
----4---4-------6-----|--0----------2-------|--4--------------|
--2-----------4-------|---------------------|-----------------|


  S S S S S S S S E     E.  E  S E  E     E.  E  S E  E   
---------------------|-----------------|-----------------|
---------------------|-----------1--1--|-----------1-----|
------2-----------4--|--2---2----2--2--|--2---2----2-----|
--------4---4---2----|--3---3--2-2--2--|--3---3--2-2--2--|
----4-----4----------|--0---0--0-0--0--|--0---0----0-----|
--2-----------4------|-----------------|-----------------|


  S T T S S S S S S S S    S T T S S S S S S E     S S S E  S E  E   
------------------------|-----------------------|-------------------|
------------------------|-----------------------|-------------------|
------------------------|-----------------------|-------------------|
--4-------2-----5---2---|--4-------2-----5---2--|-------------------|
--2-2-2-2-2-2-2-2-2-2-2-|--2-2-2-2-2-2-2-2-2-2--|--3-3-3-3--3-3--3--|
------------------------|-----------------------|-------------------|


  S S S E  S E  E     S S S E  S E  E     S S S E  S E  E   
-------------------|-------------------|-------------------|
-------------------|-------------------|-------------------|
-------------------|-------------------|-------------------|
-------------------|--3-3-3-3--3-1--1--|--4-4-4-4--4-3--3--|
--3-3-3-3--3-3--3--|-------------------|-------------------|
-------------------|-------------------|-------------------|


  T T S S E  S E  E     T T S S E  S E  E     T T S S E  S E  E   
---------------------|---------------------|---------------------|
---------------------|---------------------|---------------------|
---------------------|---------------------|---------------------|
---------------------|---------------------|--6-6-6-6-6--6-5--5--|
--3-3-3-3-3--3-3--3--|--3-3-3-3-3--3-3--3--|---------------------|
---------------------|---------------------|---------------------|


  T T S S E  S E  E     E.  E  S Q       E.  E.  Q     
---------------------|----------------|---------------|
---------------------|----------------|---------------|
---------------------|----------------|---------------|
--7-7-7-7-7--7-6--5--|--6---6----7----|--5---5---4----|
---------------------|--3---3--3-3----|--3---3---3----|
---------------------|----------------|---------------|


  E.  E.  Q       E.  E  S E  E     E.  E  S Q       E.  E.  Q     
---------------|-----------------|----------------|---------------|
---------------|-----------------|----------------|---------------|
----------5----|--5---5----4--4--|----------------|---------------|
----------5----|--4---4--3-3--3--|--6---6----7----|--5---5---4----|
--3---3--------|-----------------|--3---3--3-3----|--3---3---3----|
--1---1--------|-----------------|----------------|---------------|


  E.  E.  E  E     E.  E.  E  E     E.  E  S E  E     E.  E.  E  E   
----------------|----------------|-----------------|----------------|
----------------|----------------|-----------------|----------------|
----------------|--2---2---4--2--|--4---4----5--4--|--2---2---4--2--|
----------------|--2---2---2--2--|--3---3----3--3--|--2---2---2--2--|
--3---3---2--2--|--0---0---0--0--|--0---0--0-0--0--|--0---0---0--0--|
--1---1---0--0--|----------------|-----------------|----------------|


  E.  E  S E  E     E.  E.  E  E     E.  E  S E  E     E.  E.  E  E   
-----------------|----------------|-----------------|----------------|
-----------------|----------------|-----------------|----------------|
--------------4--|--2---2---4--2--|--4---4----5--4--|--2---2---4--2--|
--1---1--1-1--1--|--2---2---2--2--|--3---3----3--3--|--2---2---2--2--|
--0---0--0-0--0--|--0---0---0--0--|--0---0--0-0--0--|--0---0---0--0--|
-----------------|----------------|-----------------|----------------|


                     Solo                          don't pick   
  E  S E  S E  E     E.   E.  Q       Q.       E   S         S  
------------------|----------------|---------------------------|
------------------|-------6---L----|--6br------L--(6)--------4-|
--4--4-4--4-4--4--|--3-------------|---------------------------|
--4--4-4--4-4--4--|----------------|---------------------------|
--2--2-2--2-2--2--|----------------|---------------------------|
------------------|----------------|---------------------------|


  E.  E.  E  E     Q.     E  E     E.   E.   Q     
----------------|---------------|-----------------|
--6----------6--|--5------4--5--|--6---13---13----|
------3---L-----|---------------|-----------------|
----------------|---------------|-----------------|
----------------|---------------|-----------------|
----------------|---------------|-----------------|


                |--3--|           |--3--|  |--6--|  |--6--|  
  E.   E.   E   S  S  S     Q     S  S  S  S  S  S  S  S  S  
------------------------|--13-------------------------------|
--7---14---14--14-13-16-|--------------------------14-16-18-|
------------------------|-----------------13-15-17----------|
------------------------|--------13-15-16-------------------|
------------------------|-----------------------------------|
------------------------|-----------------------------------|


   E.   E.   Q        E.   E.   E   E      E.   E.   E   E   
--15---15---20----|--19--------22--21--|--22----------------|
------------------|-------19-----------|-------20---20--20--|
------------------|--------------------|--------------------|
------------------|--------------------|--------------------|
------------------|--------------------|--------------------|
------------------|--------------------|--------------------|


   S  S  S  S  S  S  S  S  S  S     S  S  S  S  S  S  Q     
--19-14-14----------------------|--19-13-13-------22-22----|
-----------15-15----------------|-----------15-15----------|
-----------------16-16-11-11----|--------------------------|
-----------------------------12-|--------------------------|
--------------------------------|--------------------------|
--------------------------------|--------------------------|


   |--3--|  |--3--|  |--3--|        
   S  S  S  S  S  S  S  S  S  Q     
-----------------------------14----|
--12-14-15-14-12----12-14-15-------|
-----------------------------------|
-----------------16----------------|
-----------------------------------|
-----------------------------------|


         |--3--|                                                 
   S. T  T  T  T  S  T  T  T  T  Q        E     S   E.   E   E   
--15-14-12----------------------------|-------------------------|
-----------15-14----------------------|-------------------------|
-----------------14-12-11-------12----|-------------------------|
--------------------------14-11-------|--14br--14br-L~---9------|
--------------------------------------|---------------------12--|
--------------------------------------|-------------------------|


                     don't pick                    
   E   E  E   E      S         S     H.            
-------------15br--(15)-------13-|--15------------|
---------------------------------|----------------|
--10--10-------------------------|----------------|
---------------------------------|----------------|
----------9----------------------|----------------|
---------------------------------|----------------|


   Q.     E   E   E      H.               Q.     E   E   E   
---------------------|----------------|---------------------|
-------------15--16--|--18------------|-----------------15--|
--17------L----------|----------------|--15------L--17------|
---------------------|----------------|---------------------|
---------------------|----------------|---------------------|
---------------------|----------------|---------------------|


   Q.     E   E   E      Q     Q     Q         Q.     E   E.      S   
-----------------15--|--18----16------------|------------------------|
--16------L--18------|--------------18br----|--L------L--14br---(15)-|
---------------------|----------------------|------------------------|
---------------------|----------------------|------------------------|
---------------------|----------------------|------------------------|
---------------------|----------------------|------------------------|


   Q.      E   E   E      H.               Q.     E   E   E   
----------------------|--15------------|---------------------|
--15------15--16--18--|----------------|-------------15--16--|
----------------------|----------------|--17------L----------|
----------------------|----------------|---------------------|
----------------------|----------------|---------------------|
----------------------|----------------|---------------------|


   Q.     E   Q        Q.     E   E   E      Q.     E   E   E   
-------------15----|---------------------|-----------------15--|
--18------L--------|---------------------|--16------L--18------|
-------------------|--15------L--17--18--|---------------------|
-------------------|---------------------|---------------------|
-------------------|---------------------|---------------------|
-------------------|---------------------|---------------------|


         \1/                                                    
             |---3---|                                          
   Q     E   E   E   E      Q.     E   Q          H.            
--17----17--17--19--20--|--20------L--22br----|--19------------|
------------------------|---------------------|----------------|
------------------------|---------------------|----------------|
------------------------|---------------------|----------------|
------------------------|---------------------|----------------|
------------------------|---------------------|----------------|


  H.              H.              Q.     Q.        H.            
---------------|---------------|----------------|---------------|
---------------|---------------|----------------|---------------|
---------------|---------------|---------3------|--5------------|
--6------------|---------------|--3------3------|--5------------|
--6------------|---------------|--3------1------|--3------------|
--4------------|--3------------|--1-------------|---------------|


  H.              Q    Q    E  E   
---------------|------------------|
---------------|------------------|
---------------|------------------|
--6------------|-------3----1--0--|
--6------------|-------x----------|
--4------------|--3----1----------|


  segue to War Inside My Head                                         
  T                           T T T T T T T T T T T T T T T T T T T T 
----------------------------------------------------------------------
----------------------------------------------------------------------
----------------------------------------------------------------------
--4---------------------------4-4-4-4-4-4-4-4-4-4-4-4-4-4-4-4-4-4-4-4-
----------------------------------------------------------------------
----------------------------------------------------------------------


  T T T T T T T T T T T T T T T T T T T T T T T T        
--------------------------------------------------|----||
--------------------------------------------------|----||
--------------------------------------------------|----||
--4-4-4-4-4-4-4-4-4-4-4-4-4-4-4-4-4-4-4-4-4-4-4-4-|----||
--------------------------------------------------|----||
--------------------------------------------------|----||




Duration Legend
---------------
W - whole
H - half
Q - quarter
E - 8th
S - 16th
T - 32nd
X - 64th
. - note dotted
|-n-|  - n-tuplets


Tablature Legend
----------------
L - tied note
x - dead note
g - grace note
(n) - ghost note
> - accentuded note
NH - natural harmonic
AH - artificial harmonic
TH - tapped harmonic
SH - semi harmonic
PH - pitch harmonic
h - hammer on
p - pull off
b - bend
br - bendRelease
pb - preBend
pbr - preBendRelease
brb - bendReleaseBend
\n/ - tremolo bar dip
\n - tremolo bar dive
-/n - tremolo bar Release up
/n\ - tremolo bar inverted dip
/n - tremolo bar return
-\n - tremolo bar Release down
S - shift slide
s - legato slide
/ -  slide into from below or out of upwards
\ -  slide into from above or out of downwards
~ - vibrato
W - wide vibrato
tr - trill
TP - tremolo picking
T - tapping
S - slap
P - pop
< - fade in
^ - brush up
v - brush down
comments
We did not receive enough feedback on this tab! Please rate:
print report bad tab
1 2 3 4 5
I want to post or [tab]
guest
You may want to rate the tab now too:
select rating
Please do not post tabs as comments. Select "correction" instead!