Oops, an error
Loading. Please wait.

About To Crash Tab

ver3
ver3

Whole song

Interactive

More versions @911Tabs.com
562 views 1 this week
no commentswrite comment
1 2 3 4 5
please rate
add to favorites launch autoscroll
font size
0
reset
Autoscroll
+/-
esc
set tempo
stop
Contributor
Difficulty
advanced
WARNING: You are trying to view
                                    content from Ultimate-Guitar.com
                                    in an unauthorized application,
                                    which is prohibited.

                                    Please use an official Ultimate
                                    Guitar Tabs application for iPhone,
                                    iPad or Android to access legitimate
                                    chords, guitar, bass, and drum tabs
                                    from Ultimate-Guitar.com database.

                                    Type "ultimate guitar tabs" in Apple
                                    App Store's or Android Market's
                                    search to find the application.
                                ABOUT TO CRASH
                          As recorded by Dream Theater
            (From the 2002 Album SIX DEGREES OF INNER TURBULENCE CD2)

Words by John Petrucci

Music by John Myung, John Petrucci, Mike Portnoy, and Jordon Rudess
Transcribed by Ben Max

Gtr I (E A D G B E) - 'Untitled'
Gtr II (E A D G B E) - 'Untitled'
Gtr III (E A D G B E) - 'Untitled'

 Intro
  Moderately Fast Q=152
 4/4          3/4      4/4        3/4      4/4
  Gtr I
  Wx9          W        W          W        W
|------------|--------|----------|--------|------|
|------------|--------|----------|--------|------|
|------------|--------|----------|--------|------|
|------------|--------|----------|--------|------|
|------------|--------|----------|--------|------|
|------------|--------|----------|--------|------|


 3/4      4/4        3/4
  W        W          W
|--------|----------|------|
|--------|----------|------|
|--------|----------|------|
|--------|----------|------|
|--------|----------|------|
|--------|----------|------|


  E
 4/4        3/4        4/4              3/4
  W          +H.        +H.      E   E    +E  Q  E +E  E
|-0--------|-(0)------|-(0)----------0-|--(0)-0--0-(0)-0-|
|-0--------|-(0)------|-(0)--------/10-|-(10)-9--7-(7)---|
|-1--------|-(1)------|-(1)------------|-----------------|
|-2--------|-(2)------|-(2)------------|-----------------|
|-2--------|-(2)------|-(2)------------|-----------------|
|-0--------|-(0)------|-(0)------------|-----------------|


  E
 4/4        3/4        4/4
  W          +H.        +W           E  E E E E E E E
|-0--------|-(0)------|-(0)--------|-------------------|
|-0--------|-(0)------|-(0)--------|-------------------|
|-1--------|-(1)------|-(1)--------|-------------------|
|-2--------|-(2)------|-(2)--------|-------------------|
|-2--------|-(2)------|-(2)--------|---/5-4-2----------|
|-0--------|-(0)------|-(0)--------|----------5-4-2-4--|


  E           D            A          E           D
                  3/4                4/4              3/4
  Q  Q  Q   E  E   +E  E E  E +E  E   Q  Q  Q   E  E   E  E E  E  E   a   E
|----------------|------------------|--------------0-|-0--------------------|
|-------9\-------|------------------|-------9\----15-|---10-0-10s12-(12)s14-|
|-------9\-------|------------------|-------9\-------|---------7s=9--(9)s11-|
|-------9\-------|---------/7-(7)-6-|-------9\-------|----------------------|
|-------7\----/5-|-(5)-4-2----------|-------7\-------|----------------------|
|-0--0-----------|------------------|-0--0-----------|----------------------|


  E           D                      A         E           D
 4/4              3/4                         4/4              3/4
  Q  Q  Q   E  E   +E  E  a   E   a  E +E  E   Q  Q  Q   E  E   E E E E E E
|----------------|---------------------------|--------------0-|-------------|
|-------9\-------|---------------------------|-------9\----10-|-0-9-0-7-0-5-|
|-------9\----/7-|-(7)s6-(6)s11-(11)s9-(9)-9-|-------9\-------|-------------|
|-------9\-------|---------------------------|-------9\-------|-------------|
|-------7\----/5-|-(5)s4-(4)s=9--(9)s7-(7)-7-|-------7\-------|-------------|
|-0--0-----------|---------------------------|-0--0-----------|-------------|


  E           D           D         E           D
 4/4             3/4               4/4             3/4
  Q  Q  Q   E E   +E  E E E +E  E   Q  Q  Q   E E   +E   E E E   E  E
|---------------|-----------------|---------------|-------------------|
|-------9\----3-|-(3)-3-3---------|-------9\----3-|-(3)------------10-|
|-------9\----2-|-(2)-2-2-2-(2)-2-|-------9\----2-|-(2)------7-/11----|
|-------9\----0-|-(0)-0-0-2-(2)-2-|-------9\----0-|-(0)----7----------|
|-------7\------|---------0-(0)-0-|-------7\------|-----/9------------|
|-0--0----------|-----------------|-0--0----------|-------------------|


  E           D           A         E           D
 4/4             3/4               4/4             3/4
  Q  Q  Q   E E   +E  E E E +E  E   Q  Q  Q   E E   +E   E E E   E  E
|---------------|-----------------|---------------|----------------10-||
|-------9\----3-|-(3)-3-3---------|-------9\----3-|-(3)------7-/10----||
|-------9\----2-|-(2)-2-2-2-(2)-2-|-------9\----2-|-(2)----7----------||
|-------9\----0-|-(0)-0-0-2-(2)-2-|-------9\----0-|-(0)-/7------------||
|-------7\------|---------0-(0)-0-|-------7\------|-------------------||
|-0--0----------|-----------------|-0--0----------|-------------------||


 First Verse
  E             D                   E             D           A
 4/4               3/4             4/4               3/4
  Q  Q  Q   E a E   +E  E E E E E   Q  Q  Q   E a E   +E  E E E E E
|---------------5-|-(5)-5-------0-|-----------------|-------------0-|
|-------9\----5h7-|-(7)-5---3s5---|-------9\----2h3-|-(3)-2---------|
|-------9\--------|---------------|-------9\------2-|-(2)-2---2s4---|
|-------9\--------|---------------|-------9\--------|---------------|
|-------7\--------|---------------|-------7\--------|---------------|
|-0--0------------|---------------|-0--0------------|---------------|


  E             D                   E             D           A
 4/4               3/4             4/4               3/4
  Q  Q  Q   E a E   +E  E E E E E   Q  Q  Q   E a E   +E  E E E E E
|---------------5-|-(5)-5-------0-|-----------------|-------------0-|
|-------9\----5h7-|-(7)-5---3s5---|-------9\----2h3-|-(3)-2---------|
|-------9\--------|---------------|-------9\------2-|-(2)-2---2s4---|
|-------9\--------|---------------|-------9\--------|---------------|
|-------7\--------|---------------|-------7\--------|---------------|
|-0--0------------|---------------|-0--0------------|---------------|


  E             D                     E             D           A
 4/4               3/4               4/4               3/4
  Q  Q  Q   E a E   +E  E E E  E  E   Q  Q  Q   E a E   +E  E E E E E
|---------------5-|-(5)-5---0-------|-----------------|-------------0-|
|-------9\----5h7-|-(7)-5---9h10-12-|-------9\----2h3-|-(3)-2---------|
|-------9\--------|-----------------|-------9\------2-|-(2)-2---2s4---|
|-------9\--------|-----------------|-------9\--------|---------------|
|-------7\--------|-----------------|-------7\--------|---------------|
|-0--0------------|-----------------|-0--0------------|---------------|


  E             D                    E             D           A
 4/4               3/4              4/4
  Q  Q  Q   E a E   +E  E E E  E E   Q  Q  Q   E a E   +E  E E E E E E E
|---------------5-|-(5)-5---0----0-|-----------------|--------------------||
|-------9\----5h7-|-(7)-5---5s10-9-|-------9\----2h3-|-(3)-2--------------||
|-------9\--------|----------------|-------9\------2-|-(2)-2---2p1--------||
|-------9\--------|----------------|-------9\--------|-------------2------||
|-------7\--------|----------------|-------7\--------|---------------4-2--||
|-0--0------------|----------------|-0--0------------|--------------------||


 First Chorus
  Amaj7                              E/G#
  H.      +E  E   +Q.   E +E  Q.     H.      +E  E   +Q.   E +E  Q.
|---------------|-------0-(0)------|---------------|-------0-(0)-------|
|---------------|-------------0----|-5-------(5)---|-------------0-----|
|-------------2-|-(2)--------------|-4-------(4)-4-|-(4)---------------|
|-7-------(7)-2-|-(2)--------------|-6-------(6)-2-|-(2)---------------|
|-0-------(0)-0-|-(0)--------------|---------------|-------------------|
|---------------|------------------|---------------|-------------------|


  Bm              A      F#m               G
                 2/4    4/4
  H.      +E  E   H      Q.   E +E  Q  E   W
|---------------|------|------2-(2)------|-3----|
|---------------|------|------------2----|-3----|
|-4-------(4)---|-2----|---------------x-|-0----|
|-4-------(4)---|-2----|-4-------------x-|-0----|
|-2-------(2)-0-|-0----|-4---------------|------|
|---------------|------|-2---------------|-3----|


  Em     D/F#     G      A        B          D        E
  E E Q  E E Q    E E Q  E E Q    W           E E E E E E E E
|---------------|---------------|----------|--------5-7---4-0--|
|---------------|-----3---------|----------|----7-------0------|
|-----0------0--|---2--------4--|-4--------|-------------------|
|---2------2----|----------2----|-4--------|------7------------|
|---------------|--------0------|-2--------|-/5----------------|
|-0------2------|-3-------------|----------|-------------------|


  Amaj7                              E/G#
  H.      +E  E   +Q.   E +E  Q.     H.      +E  E   Q.   E +E  Q.
|-5-------(5)---|-------0-(0)------|---------------|------0-(0)-------|
|-5-------(5)---|-------------0----|-5-------(5)---|------------0-----|
|-2-------(2)-2-|-(2)--------------|-4-------(4)-4-|-4----------------|
|-------------2-|-(2)--------------|-6-------(6)-2-|-2----------------|
|-------------0-|-(0)--------------|---------------|------------------|
|---------------|------------------|---------------|------------------|


  Bm              A      F#m               G
                 2/4    4/4
  H.      +E  E   H      Q.   E +E  Q  E   W
|---------------|------|------2-(2)------|-3----|
|---------------|------|------------2----|-3----|
|-4-------(4)---|-2----|---------------x-|-0----|
|-4-------(4)---|-2----|-4-------------x-|-0----|
|-2-------(2)-0-|-0----|-4---------------|------|
|---------------|------|-2---------------|-3----|


  Em   D/F#     G    A         B
 3/4                          4/4
                                      PM|
  Q.   E +Q     Q.    E +Q     Q.   E e e a Q    +E  E E E E Q  E
|-------------|--------------|-----------------|------------------|
|-------------|--------------|-----------------|-----------0------|
|-------------|--------------|-----------------|-----------8h9----|
|-------------|--------------|-9----9-------9--|-(9)-9----------x-|
|-------------|--------------|-9----9-----7h9--|-(9)-9-x-x------x-|
|-0----2-(2)--|-3----/5-(5)--|-7----7-7-7---7--|-(7)-7-x-x--------|


  A/B                                B
        PM|                                 PM|
  Q  Q  E E Q    +Q   E E +E  Q.     Q.   E e e a Q    +E  E E E E Q  E
|--------------|-------------------|-----------------|------------------|
|-5--5------5--|-(5)----5-(5)-4----|-----------------|-----------0------|
|-6---------6--|-(6)---------------|-----------------|-----------8h9----|
|-7---------7--|-(7)---------------|-9----9-------9--|-(9)-9----------x-|
|-------x-x----|-------------------|-9----9-----7h9--|-(9)-9-x-x------x-|
|-7-----x-x-7--|-(7)--7------------|-7----7-7-7---7--|-(7)-7-x-x--------|


  A/B
  E Q  E +E  E  E E   +E  E E E +E  S S E E
|-----------------5-|-(5)-5---4-(4)h5p4-----||
|-------------------|-------------------7-5-||
|-8s6--6-(6)-6-/6---|-------6---------------||
|-9s7--7-(7)-7------|-----------------------||
|-------------------|-----------------------||
|-------------------|-----------------------||


 Second Verse
  B
         PM|
  Q.   E e e a Q    +E  E E E E Q  E
|-----------------|-------------------|
|-----------------|-----------0-------|
|-----------------|-----------8h9-----|
|-9----9-------9--|-(9)-9----------x--|
|-9----9-----7h9--|-(9)-9-x-x------x--|
|-7----7-7-7---7--|-(7)-7-x-x---------|


  A/B                                B
                                            PM|
  Q  Q  E E Q    +Q   E E +E  Q.     Q.   E e e a Q    +E  E E E E Q  E
|--------------|-------------------|-----------------|------------------|
|-5--5------5--|-(5)----5-(5)-4----|-----------------|-----------0------|
|-6---------6--|-(6)---------------|-----------------|-----------8h9----|
|-7---------7--|-(7)---------------|-9----9-------9--|-(9)-9----------x-|
|-------x-x----|-------------------|-9----9-----7h9--|-(9)-9-x-x------x-|
|-7-----x-x-7--|-(7)--7------------|-7----7-7-7---7--|-(7)-7-x-x--------|


  A/B                                  B
  ~~                                          PM|
  Q.   E E E Q    +Q    E E +E  Q  E   Q.   E e e a Q    +E  E E E E Q  E
|---------------|---------5-(5)------|-----------------|------------------|
|------------7--|-(7)----------------|-----------------|-----------0------|
|------------6--|-(6)--/6-------6----|-----------------|-----------8h9----|
|--------x-x-4--|-(4)--------------x-|-9----9-------9--|-(9)-9----------x-|
|--------x-x----|------------------x-|-9----9-----7h9--|-(9)-9-x-x------x-|
|-7----7--------|--------------------|-7----7-7-7---7--|-(7)-7-x-x--------|


  A/B                                B
                                            PM|
  Q  Q  E E Q    +Q   E E +E  Q.     Q.   E e e a Q    +E  E E E E Q  E
|--------------|-------------------|-----------------|------------------|
|-5--5------5--|-(5)----5-(5)-4----|-----------------|-----------0------|
|-6---------6--|-(6)---------------|-----------------|-----------8h9----|
|-7---------7--|-(7)---------------|-9----9-------9--|-(9)-9----------x-|
|-------x-x----|-------------------|-9----9-----7h9--|-(9)-9-x-x------x-|
|-7-----x-x-7--|-(7)--7------------|-7----7-7-7---7--|-(7)-7-x-x--------|


  F#m                                    E
                                                PM|
   Q.    E E E  Q     Q   E  E  Q   Q    Q.   E e e a Q    +E  E E E E  Q  E
|------------------|-------------------|-----------------|-----------0-------|
|------------------|-------------------|-----------------|-----------9h10----|
|-11----11-----11--|-11--11-11-11\-----|-9----9-------9--|-(9)-9-------------|
|-11----11-x-x-11--|-11--11-11-11\-----|-9----9-----7h9--|-(9)-9-x-x-------x-|
|--9-----9-x-x--9--|--9---9--9--9\-----|-7----7-7-7---7--|-(7)-7-x-x-------x-|
|------------------|-------------------|-----------------|-------------------|


  D/E
   Q.    E E E  Q     +Q    E  E  +E  Q  E
|---------------0--|--(0)------------------|
|-10----10------0--|--(0)-----10-(10)-9----|
|-11-----------11--|-(11)------------------|
|-12-------x-x-12--|-(12)----------------x-|
|----------x-x-----|---------------------x-|
|-12-----------12--|-(12)--12--------------|


  E
         PM|
  Q.   E e e a Q    +E  E E E E  Q  E
|-----------------|-----------0-------|
|-----------------|-----------9h10----|
|-9----9-------9--|-(9)-9-------------|
|-9----9-----7h9--|-(9)-9-x-x-------x-|
|-7----7-7-7---7--|-(7)-7-x-x-------x-|
|-----------------|-------------------|


  D/E                                      E
                                                  PM|
  Q  E E +E  Q.     Q    E  E  +E   Q  E   Q.   E e e a Q    +E  E E E E  Q  E
|------7-(7)------|--------10-(10)-------|-----------------|-----------0-------|
|----7-------7----|----------------------|-----------------|-----------9h10----|
|-----------------|----/11---------11----|-9----9-------9--|-(9)-9-------------|
|-----------------|--------------------x-|-9----9-----7h9--|-(9)-9-x-x-------x-|
|-7---------------|--------------------x-|-7----7-7-7---7--|-(7)-7-x-x-------x-|
|-----------------|----------------------|-----------------|-------------------|


  D/E                                        E
                                                    PM|
   Q.    E E E  Q     +Q    E  E  +E  Q  E   Q.   E e e a Q
|---------------0--|--(0)------------------|-----------------|
|-10----10------0--|--(0)-----10-(10)-9----|-----------------|
|-11-----------11--|-(11)------------------|-9----9-------9--|
|-12-------x-x-12--|-(12)----------------x-|-9----9-----7h9--|
|----------x-x-----|---------------------x-|-7----7-7-7---7--|
|-12-----------12--|-(12)--12--------------|-----------------|


                      Bm
  +E  E E E E  Q  E   H    Q  E E   +Q   H.
|-----------0-------|-----------7-|-(7)--------|
|-----------9h10----|---------7---|------7-----|
|-(9)-9-------------|-------------|------------|
|-(9)-9-x-x-------x-|-9----9------|------------|
|-(7)-7-x-x-------x-|-9----9------|------------|
|-------------------|-7----7------|------------|


  C#m
  Gtr III
   W                 +H      a      +Q    +Q
|------------|---------------------------------|
|-17---------|------(17)----19b21==(19)r=(19)--|
|------------|---------------------------------|
|------------|---------------------------------|
|--4---------|-------(4)-----------------------|
|------------|---------------------------------|
|                    +W
|
| Gtr II
|  W                 +H      a      +Q    +Q
|------------|---------------------------------|
|-14---------|------(14)----16b18==(16)r=(16)--|
|------------|---------------------------------|
|------------|---------------------------------|
|------------|---------------------------------|
|------------|---------------------------------|
|
| Gtr I
|  H    H      a     +H             +H
|------------|---------------------------------|
|------------|---------------------------------|
|------------|-8b9===(8)------------(8)r=======|
|-------6----|---------------------------------|
|--4---------|---------------------------------|
|------------|---------------------------------|


  G#/B#
   W            +H      a      +Q    +Q
|------------|----------------------------|
|-16---------|-(16)----19b21==(19)r=(19)--|
|------------|----------------------------|
|------------|----------------------------|
|--3---------|--(3)-----------------------|
|------------|----------------------------|
|  W            +W
|
|  W            +H      a      +Q    +Q
|------------|----------------------------|
|-13---------|-(13)----16b17==(16)r=(16)--|
|------------|----------------------------|
|------------|----------------------------|
|------------|----------------------------|
|------------|----------------------------|
|
| +W            +H.                   Q
|------------|----------------------------|
|------------|----------------------------|
|-(8)--------|--(8)-----------------------|
|------------|----------------------------|
|------------|----------------------------|
|------------|----------------------------|


  Bm
   W                 +H      a      +Q    +Q
|------------|---------------------------------|
|-15---------|------(15)----19b21==(19)r=(19)--|
|------------|---------------------------------|
|------------|---------------------------------|
|--2---------|-------(2)-----------------------|
|------------|---------------------------------|
|                    +W
|
|  W                 +H      a      +Q    +Q
|------------|---------------------------------|
|-12---------|------(12)----16b17==(16)r=(16)--|
|------------|---------------------------------|
|------------|---------------------------------|
|------------|---------------------------------|
|------------|---------------------------------|
|
|  H    H      a     +H             +H
|------------|---------------------------------|
|------------|---------------------------------|
|------------|-6b7===(6)------------(6)r=======|
|-------4----|---------------------------------|
|--2---------|---------------------------------|
|------------|---------------------------------|


  A#m7b5
   W            +H      a      +Q    +Q
|------------|----------------------------||
|-14---------|-(14)----16b17==(16)r=(16)--||
|------------|----------------------------||
|------------|----------------------------||
|--1---------|--(1)-----------------------||
|------------|----------------------------||
|               +W
|
|  W            +H      a      +Q    +Q
|------------|----------------------------||
|------------|----------------------------||
|-13---------|-(13)----16b18==(16)r=(16)--||
|------------|----------------------------||
|------------|----------------------------||
|------------|----------------------------||
|
| +W            +H.                   Q
|------------|----------------------------||
|------------|----------------------------||
|-(6)--------|--(6)-----------------------||
|------------|----------------------------||
|------------|----------------------------||
|------------|----------------------------||


 Second Chorus
  Amaj7                             E/G#
   W                 +W              +W                 W
|-16--------------|-(16)----------|-(16)-------------|----------------|
|-----------------|---------------|------------------|----------------|
|-----------------|---------------|------------------|----------------|
|-----------------|---------------|------------------|----------------|
|-----------------|---------------|------------------|----------------|
|-----------------|---------------|------------------|----------------|
|
|  W                 +W              +W                 W
|-----------------|---------------|------------------|----------------|
|-17--------------|-(17)----------|-(17)-------------|----------------|
|-----------------|---------------|------------------|----------------|
|-----------------|---------------|------------------|----------------|
|-----------------|---------------|------------------|----------------|
|-----------------|---------------|------------------|----------------|
|
|  Q.   E +Q   Q     +Q   H.          Q.   E +Q   Q    +Q   H    E E
|--------------0--|--(0)----------|---------------0--|-(0)------------|
|-------0-(0)-----|-------0-------|------------------|------0----0----|
|--2--------------|---------------|--------4-(4)-----|----------------|
|--2--------------|---------------|------------------|-------------x--|
|--0--------------|---------------|------------------|-------------x--|
|-----------------|---------------|---4--------------|----------------|


  Bm              A      F#m               G
                 2/4    4/4
  H.      +E  E   H      Q.   E +E  Q  E   W
|---------------|------|------2-(2)------|-3----|
|---------------|------|------------2----|-3----|
|-4-------(4)---|-2----|-----------------|-0----|
|-4-------(4)-x-|-2----|-4-------------x-|-0----|
|-2-------(2)-x-|-0----|-4-------------x-|------|
|---------------|------|-2---------------|-3----|


  Em     D/F#     G      A        B
  E E Q  E E Q    E E Q  E E Q    W
|---------------|---------------|------|
|---------------|-----3---------|------|
|-----0------2--|---2--------4--|-4----|
|---2------0----|----------2----|-4----|
|---------------|--------0------|-2----|
|-0------2------|-3-------------|------|


  D           E           Amaj7
   E  E  E  E  E E  E E   Q  E E +Q   Q    +Q   Q  +E  Q.
|----------10-12-0------|-------------0--|-(0)--------------|
|----10------------12-0-|------0-(0)-----|------0--(0)------|
|-----------------------|----2-----------|-------------2----|
|-------12--------------|----------------|------------------|
|-12--------------------|-0--------------|------------------|
|-----------------------|----------------|------------------|


  E/G#                             Bm              A
                                                  2/4
  Q  E E +Q   Q    Q  H    +E  E   H.      +E  E   H
|-------------0--|-0-------------|---------------|------|
|----------------|----0----(0)---|---------------|------|
|------4-(4)-----|---------------|-4-------(4)---|-2----|
|----2-----------|-------------x-|-4-------(4)-x-|-2----|
|----------------|-------------x-|-2-------(2)-x-|-0----|
|-4--------------|---------------|---------------|------|


  F#m               G          Em               D/F#
 4/4                                           2/4
  Q.   E +E  Q  E   W          Q  E E +Q   Q    E E Q
|------2-(2)------|-3--------|----------------|---------|
|------------2----|-3--------|----------------|---------|
|-----------------|-0--------|------0-(0)-----|-----2---|
|-4-------------x-|-0--------|----2--------2--|---0-----|
|-4-------------x-|----------|----------------|---------|
|-2---------------|-3--------|-0--------------|-2-------|


  F#m         G#m      A           B
 5/4
  Q  E E +Q   E E Q    Q  E E +Q   E E Q
|--------------------|--------------------|
|--------------------|--------------------|
|------2-(2)---------|------4-(4)------6--|
|-----------------6--|----2----------4----|
|----4----------6----|-0-----------2------|
|-2-----------4------|--------------------|


  C#m                  F#m         E/G#
               ~~~
  Q  E E +Q    H       Q  E E +Q   E E Q
|--------------------|---------------------|
|--------------------|---------------------|
|-6----4-(4)--[6]----|------2-(2)------4---|
|-6----4-(4)---------|----4----------2-----|
|-4--4---------------|---------------------|
|--------------------|-2-----------4-------|


                                          PM------------------|
  Q.   E +Q   Q  Q    Q.   E +Q   Q  Q    e s s e e e e e e e e
|-5-----------------|-------------------|------------------------|
|-5-----------5-----|-5-----------5-----|-7-7-7---5-----8---5----|
|-2----4-(4)--5--4--|-2----4-(4)--5--4--|-4-4-4-4---4-4---4---4--|
|-------------------|-------------------|-4-4-4---2-----5---2----|
|-------------------|-------------------|-2-2-2-2---2-2---2---2--|
|-------------------|-------------------|------------------------|


                          Interlude I
                           Ab/C        D/C     Cm          D/C
  PM----------------------------------------------------------|
  e s s e e e e e e e e    e e e e e e q  q    e e e e e e q  q
|-----------------------||-------------------|-------------------|
|-7-7-7---5-----8---5---||-------------------|-------------------|
|-4-4-4-4---4-4---4---4-||-5-5-5-5---5-5--5--|-5-5-5-5---5-5--5--|
|-4-4-4---2-----5---2---||-------------------|-------------------|
|-2-2-2-2---2-2---2---2-||-3-3-3-3---3-3--3--|-3-3-3-3---3-3--3--|
|-----------------------||-------------------|-------------------|


  Fm          Eb6     F#+7        G/F     Ab/C          D/C
  PM-------------------------------------------------------|
  e e e e e e q  q    e e e e e e q  q    s s e e e e e q  q
|-------------------|-------------------|----------------------|
|-6-6-6-6---6-4--4--|-------------------|----------------------|
|-------------------|-------------------|-5-5-5-5-5---5-5--5---|
|-3-3-3-3---3-1--1--|-4-4-4-4---4-3--3--|----------------------|
|-------------------|-------------------|-3-3-3-3-3---3-3--3---|
|-------------------|-2-2-2-2---2-1--1--|----------------------|


  Cm            D/C     Fm            Eb6     F#+7          Ab7G7
  PM-----------------------------------------------------------|
  s s e e e e e q  q    s s e e e e e q  q    s s e e e e e q  q
|---------------------|---------------------|----------------------||
|---------------------|---------------------|----------------------||
|-5-5-5-5-5---5-5--5--|---------------------|----------------------||
|---------------------|-6-6-6-6-6---6-5--5--|-7-7-7-7-7---7-6--5---||
|-3-3-3-3-3---3-3--3--|---------------------|----------------------||
|---------------------|-4-4-4-4-4---4-3--3--|-5-5-5-5-5---5-4--3---||


 Bridge I
  Ab/C         D/C     Cm           D/C
  Q.   E +E  E Q  Q    Q.   E +E  E Q  Q
|--------------------|--------------------|
|--------------------|--------------------|
|--------------------|--------------------|
|-6----6-(6)---7--7--|-5----5-(5)---4--4--|
|-3----3-(3)-3-3--3--|-3----3-(3)-3-3--3--|
|--------------------|--------------------|


  Fm           Eb6     F#+7         G/F
  Q.   E +E  E Q  Q    Q.   E +E  E Q  Q
|--------------------|--------------------|
|--------------------|--------------------|
|--------------------|-5----5-(5)---4--4--|
|--------------5--5--|-4----4-(4)-4-3--3--|
|-3----3-(3)---3--3--|--------------------|
|-1----1-(1)-1-------|--------------------|


  Ab/C         D/C     Cm           D/C
  Q.   E +E  E Q  Q    Q.   E +E  E Q  Q
|--------------------|--------------------|
|--------------------|--------------------|
|--------------------|--------------------|
|-6----6-(6)---7--7--|-5----5-(5)---4--4--|
|-3----3-(3)-3-3--3--|-3----3-(3)-3-3--3--|
|--------------------|--------------------|


  Fm           E        Am
  Q.   E +E  E Q  Q     Q.   E +E  E Q  Q
|--------------------||---------------------|
|--------------------||---------------------|
|--------------------||-2----2-(2)---4--2---|
|--------------------||-2----2-(2)---2--2---|
|-3----3-(3)---2--2--||-0----0-(0)-0-0--0---|
|-1----1-(1)-1-0--0--||---------------------|


  F/A                  Am
  Q.   E +E  E Q  Q    Q.   E +E  E Q  Q
|--------------------|--------------------|
|--------------------|--------------------|
|-4----4-(4)---5--4--|-2----2-(2)---4--2--|
|-3----3-(3)---3--3--|-2----2-(2)---2--2--|
|-0----0-(0)-0-0--0--|-0----0-(0)-0-0--0--|
|--------------------|--------------------|


  A+7                  Am
  Q.   E +E  E Q  Q    Q.   E +E  E Q  Q
|--------------------|---------------------|
|--------------------|---------------------|
|-2----2-(2)---2--4--|-2----2-(2)---4--2---|
|-1----1-(1)---1--1--|-2----2-(2)---2--2---|
|-0----0-(0)-0-0--0--|-0----0-(0)-0-0--0---|
|--------------------|---------------------|


  F/A                  Am                   B/A
  Q.   E +E  E Q  Q    Q.   E +E  E Q  Q    Q.   E +E  E Q  Q
|--------------------|--------------------|--------------------||
|--------------------|--------------------|-4----4-(4)-4----4--||
|-4----4-(4)---5--4--|-2----2-(2)---4--2--|-4----4-(4)-4----4--||
|-3----3-(3)---3--3--|-2----2-(2)---2--2--|-4----4-(4)-4----4--||
|-0----0-(0)-0-0--0--|-0----0-(0)-0-0--0--|--------------------||
|--------------------|--------------------|--------------5-----||


 Guitar Solo
  Bbm                    Gb/Bb
  Gtr III
         ~~~~~~
   Q.    E +H.           a    +H     +H        +E  E
|----------------------|-----------------------------|
|-------/6-(6)---------|-6b7==(6)----(6)r======(6)p4-|
|-\3-------------------|-----------------------------|
|----------------------|-----------------------------|
|----------------------|-----------------------------|
|----------------------|-----------------------------|
|
| Gtr I
|  H.           +H             H.         +H
|----------------------|-----------------------------|
|----------------------|-----------------------------|
|----------------------|-----------------------------|
|--3------------(3)----|-------4----------(4)--------|
|--1------------(1)----|-------1----------(1)--------|
|----------------------|-----------------------------|


  Bbm                   Bbm7            Bbm
       ~~~~~~                                         ~~~
  Q.   E +H        Q    H.      Q  Q    Q.   E  +Q    H
|---------------------|---------------|---------------------|
|-6----------------6--|-5-------4--5--|-6S==13-(13)--13-----|
|------3-(3)----------|---------------|---------------------|
|---------------------|---------------|---------------------|
|---------------------|---------------|---------------------|
|---------------------|---------------|---------------------|
|
| H.          +H        H.      Q  Q    H.           +H
|---------------------|---------------|---------------------|
|---------------------|---------------|---------------------|
|---------------------|---------------|---------------------|
|-3-----------(3)-----|-2-------1--2--|-3------------(3)----|
|-1-----------(1)-----|-1-------1--1--|-1------------(1)----|
|---------------------|---------------|---------------------|


  Gb/Bb
        ~~~~~~
                    |-3--|
   Q.   E +H        E E  E
|-------9-(9)-------8h9h11-|
|-\7-----------------------|
|--------------------------|
|--------------------------|
|--------------------------|
|--------------------------|
|
|  H.          +H
|--------------------------|
|--------------------------|
|--------------------------|
|--4-----------(4)---------|
|--1-----------(1)---------|
|--------------------------|


  Bbm                                  C/Bb
   ~~~                                                 ~~~
          |--3--|  |--3---|  |--3--|
   H      E  E  E  E   E  E  E  E  E    Q.    E  +Q    H
|-13------------------------------13-|-15----15-(15)--20-----||
|------------------------13-14-16----|-----------------------||
|-----------------13--15-------------|-----------------------||
|--------13-15-16--------------------|-----------------------||
|------------------------------------|-----------------------||
|------------------------------------|-----------------------||
|
|  H.             +H                    H.            +H
|------------------------------------|-----------------------||
|------------------------------------|-----------------------||
|------------------------------------|-----------------------||
|--3--------------(3)----------------|--5-------------(5)----||
|--1--------------(1)----------------|--3-------------(3)----||
|------------------------------------|-----------------------||


  Bm                        G/B
         ~~~~~~~                   ~~~~~~~~~~~~
   Q.    E  +Q    Q    Q     Q.    E  +Q    H
|-19-------------22---21--|-22--------------------|
|-------19-(19)-----------|-------20-(20)--20-----|
|-------------------------|-----------------------|
|-------------------------|-----------------------|
|-------------------------|-----------------------|
|-------------------------|-----------------------|
|
|  H.            +H          H.            +H
|-------------------------|-----------------------|
|-------------------------|-----------------------|
|-------------------------|-----------------------|
|--4-------------(4)------|--5-------------(5)----|
|--2-------------(2)------|--2-------------(2)----|
|-------------------------|-----------------------|


  Bm                                B+7
                                                        ~~
   E   E  E  E  E  E  E   E  E  E    E   E  E  E  E  E  H
|-19--14-14-----------------------|-19--13-13-------22-22-----|
|-----------15-15-----------------|-----------15-15-----------|
|-----------------16-16-----------|---------------------------|
|------------------------16-16p12-|---------------------------|
|---------------------------------|---------------------------|
|---------------------------------|---------------------------|
|
|  H.                +H              H.                 Q  Q
|---------------------------------|---------------------------|
|---------------------------------|---------------------------|
|---------------------------------|---------------------------|
|--4-----------------(4)----------|--3------------------2--3--|
|--2-----------------(2)----------|--2------------------2--2--|
|---------------------------------|---------------------------|


  Bm
                               ~~~
   |--3---|  |--3--|  |--3--|
   E   E  E  E  E  E  E  E  E  H
|-----------------------------14-----|
|-----14-15-14----------14-15--------|
|-16-----------16----16--------------|
|-----------------16-----------------|
|------------------------------------|
|------------------------------------|
|
|  H.                         +H
|------------------------------------|
|------------------------------------|
|------------------------------------|
|--4--------------------------(4)----|
|--2--------------------------(2)----|
|------------------------------------|


  G/B                                             Bm
                                          ~~~
        |--3---|
   E   +S   S  S  S  S  S  S  S  S  S  S  H       a     +Q    a      +H       Q   Q
|-15--(15)-14-----------------------------------|------------------------------------|
|-------------15-14-----------------------------|------------------------------------|
|-------------------16-14-----------------------|-9b11==(9)r=(9)b11==(9)r-----9---7--|
|-------------------------17-16-14-------17-----|------------------------------------|
|----------------------------------17-16--------|------------------------------------|
|-----------------------------------------------|------------------------------------|
|
|  H.                                    +H              H.                  +H
|-----------------------------------------------|------------------------------------|
|-----------------------------------------------|------------------------------------|
|-----------------------------------------------|------------------------------------|
|--5-------------------------------------(5)----|--------4-------------------(4)-----|
|--2-------------------------------------(2)----|--------2-------------------(2)-----|
|-----------------------------------------------|------------------------------------|


                                         Interlude II
  H.=H                                 Slower Q=120
                                                 Cm/Eb
 4/4           3/4
                                                   ~~~~~~~~~~~~~~~~
   H.      Q      a      +Q     Q   Q      a      +H.         +H.
|-------------|-/15b16==(15)r--15--13--||-13b15==(13)------|-(13)r----|
|-------------|------------------------||------------------|----------|
|-10----------|------------------------||------------------|----------|
|----------9--|------------------------||------------------|----------|
|-------------|------------------------||------------------|----------|
|-------------|------------------------||------------------|----------|
|
|  W                      Q     Q   Q              H.         +H.
|-------------|------------------------||------------------|----------|
|-------------|------------------------||------------------|----------|
|-------------|------------------------||----------5-------|--(5)-----|
|--3----------|------------------------||----------5-------|--(5)-----|
|--2----------|------------------------||----------3-------|--(3)-----|
|-------------|-----------4-----3---1--||------------------|----------|


  Abmaj7                               Bb/D
           ~~~~~~~~~~~~~~~~                     ~~~~~~~~~~~~~~~~
   a      +H.         +Q      Q   Q     a      +H.         +H.
|------------------|-----------------|------------------|----------|
|-11b13==(11)------|-(11)r--/15--16--|-16b18==(16)------|-(16)r----|
|------------------|-----------------|------------------|----------|
|------------------|-----------------|------------------|----------|
|------------------|-----------------|------------------|----------|
|------------------|-----------------|------------------|----------|


  Gm                                  Cm
           ~~~~~~~~~~~~~~~~                    ~~~~~~~~~~~~~~~~
   a      +H.         +Q     Q   Q     a      +H.         +Q     Q   Q
|------------------|----------------|------------------|--------13--15--|
|------------------|--------13--15--|-15b16==(15)------|-(15)r----------|
|-14b15==(14)------|-(14)r----------|------------------|----------------|
|------------------|----------------|------------------|----------------|
|------------------|----------------|------------------|----------------|
|------------------|----------------|------------------|----------------|


  Ab
   ~~~~~~~~~~~~~~~~~~~~~~~~~~          ~~~~~~~~~~
   a      +H       Q     +Q    a      +Q    +E   +E
|-16b18==(16)r----16--|-(16)--13b15==(13)--(13)r(13)-|
|---------------------|------------------------------|
|---------------------|------------------------------|
|---------------------|------------------------------|
|---------------------|------------------------------|
|---------------------|------------------------------|


  Bbsus4
   ~~~~~~~~~~~~~~~
   H.         +Q    a      +H
|-13-------|-(13)--10b11==(10)r====|
|----------|-----------------------|
|----------|-----------------------|
|----------|-----------------------|
|----------|-----------------------|
|----------|-----------------------|


  Bb                       Cm/Eb
   ~~~                              ~~~~~~~~~~~~~~~~
   H.         Q   Q   Q     a      +H.         +H.
|-10-------|-10--11--13--|-13b15==(13)------|-(13)r----|
|----------|-------------|------------------|----------|
|----------|-------------|------------------|----------|
|----------|-------------|------------------|----------|
|----------|-------------|------------------|----------|
|----------|-------------|------------------|----------|


  F/A                        Bb/D
   ~~~~~~~~~~~~~~~            ~~~~~~~~~~~~
   H.         +Q    Q   Q     a      +H.         Q   a      +Q    +Q
|----------|---------------|-------------------|-----------------------|
|-13-------|-(13)--15--16--|-16b18==(16)r------|----18b20==(18)r=(18)--|
|----------|---------------|-------------------|-----------------------|
|----------|---------------|-------------------|-----------------------|
|----------|---------------|-------------------|-----------------------|
|----------|---------------|-------------------|-----------------------|


  Bbm/Db                     Ab/C                       C+7
   ~~~~~~~~~~~~~~~            ~~~~~~~~~~~~~~~                   ~~~~
   H.         +Q    Q   Q     H.         +Q    Q   Q     a     +H.
|----------|---------------|----------|---------------|---------------|
|----------|---------------|-16-------|-(16)--18--20--|-20b22-(20)----|
|-15-------|-(15)--17--18--|----------|---------------|---------------|
|----------|---------------|----------|---------------|---------------|
|----------|---------------|----------|---------------|---------------|
|----------|---------------|----------|---------------|---------------|


  Faster Q=158
                Cm/G
                         ~~~~~~~~~
   Q   Q   Q     a      +H.
|-17--19--20--|-19b20==(19)------|
|-------------|------------------|
|-------------|------------------|
|-------------|------------------|
|-------------|------------------|
|-------------|------------------|


                              G7
 ~~~~~~~                       ~~~~~~~~~~~~~~~
   +Q     a      +Q    +Q      H.         +H.
|-(19)r--20b22==(20)r=(20)--|-19-------|-(19)----||
|---------------------------|----------|---------||
|---------------------------|----------|---------||
|---------------------------|----------|---------||
|---------------------------|----------|---------||
|---------------------------|----------|---------||


 Outro
  Ab                   Eb/G
  H.        +H.        H.        +H.
|---------|----------|---------|--------|
|---------|----------|---------|--------|
|---------|----------|---------|--------|
|---------|----------|---------|--------|
|-6-------|-(6)------|---------|--------|
|-4-------|-(4)------|-3-------|-(3)----|


  Fm        Bb        Cm
  H.        H.        H.        +H.
|---------|---------|---------|--------|
|---------|---------|---------|--------|
|---------|---------|---------|--------|
|---------|-3-------|-5-------|-(5)----|
|-3-------|-1-------|-3-------|-(3)----|
|-1-------|---------|---------|--------|


  Ab                   Eb/G Fm        Eb       Dbm/maj7
                                               TP
  H.        +H.        H    Q    +Q    Q  Q    H.
|---------|----------|---------|-------------|-------*|
|---------|----------|---------|-------------|-------*|
|---------|----------|---------|-------------|-------*|
|---------|----------|---------|-------------|-------*|
|-6-------|-(6)------|---------|------/6--5--|-4-----*|
|-4-------|-(4)------|-3----1--|-(1)---------|-------*|


Duration Legend
---------------
W - whole; H - half; Q - quarter; E - 8th; S - 16th; T - 32nd; X - 64th; a - acciaccatura
+ - note tied to previous; . - note dotted; .. - note double dotted
Uncapitalized letters represent notes that are staccato (1/2 duration)
Irregular groupings are notated above the duration line
Duration letters will always appear directly above the note/fret number it represents the
duration for.  Duration letters with no fret number below them represent rests.  Multi-
bar rests are notated in the form Wxn, where n is the number of bars to rest for.  Low
melody durations appear below the staff

Tablature Legend
----------------
 h   - hammer-on
 p   - pull-off
 b   - bend
 pb  - pre-bend
 r   - bend release (if no number after the r, then release immediately)
 /\  - slide into or out of (from/to "nowhere")
 s   - legato slide
 S   - shift slide
  - natural harmonic
[n]  - artificial harmonic
n(n) - tapped harmonic
 ~   - vibrato
 tr  - trill
 T   - tap
 TP  - trem. picking
 PM  - palm muting
\n/  - tremolo bar dip; n = amount to dip
 \n  - tremolo bar down
 n/  - tremolo bar up
/n\  - tremolo bar inverted dip
 =   - hold bend; also acts as connecting device for hammers/pulls
 <>  - volume swell (louder/softer)
 x   - on rhythm slash represents muted slash
 o   - on rhythm slash represents single note slash

Misc Legend
-----------
 |  - bar
||  - double bar
||o - repeat start
o|| - repeat end
*|  - double bar (ending)
 :  - bar (freetime)
 $  - Segno
 &  - Coda
Tempo markers -  = BPM(8/16=s8/s16), where s8 = swing 8ths, s16 = swing 16ths
comments
We did not receive enough feedback on this tab! Please rate:
print report bad tab
1 2 3 4 5
I want to post or [tab]
guest
You may want to rate the tab now too:
select rating
Please do not post tabs as comments. Select "correction" instead!