Oops, an error
Loading. Please wait.

Awake Tab

14,135 views 6 this week
1 commentread comment
1 2 3 4 5
accurate
x 1
Autoscroll
+/-
esc
set tempo
stop
Contributor
Difficulty
advanced
Hey! There's an official Ultimate Guitar app which is ideal
for learning songs when you're away from computer. Get the app
WARNING: You are trying to view
                                    content from Ultimate-Guitar.com
                                    in an unauthorized application,
                                    which is prohibited.

                                    Please use an official Ultimate
                                    Guitar Tabs application for iPhone,
                                    iPad or Android to access legitimate
                                    chords, guitar, bass, and drum tabs
                                    from Ultimate-Guitar.com database.

                                    Type "ultimate guitar tabs" in Apple
                                    App Store's or Android Market's
                                    search to find the application.
Band - Dream Theater
Album - Awake

Track Listings:
1. 6:00....................................unregistered
2. Caught In A Web.........................unregistered
3. Innocence Faded.........................unregistered
4. Erotomania..............................unregistered
5. Voices..................................unregistered
6. The Silent Man..........................unregistered
7. The Mirror..............................Petrucciman
8. Lie.....................................unregistered
9. Lifting Shadows Off A Dream.............unregistered
10. Scarred................................N/A
11. Space-Dye Vest.........................unregistered

---------------------------------------------------------------

1. 6:00
Tuning - E,A,D,G,B,E

Intro:Drums


Rhy Fig.1
         t            t           t             t                  t
|----------------------------------------------------------|---------------|
|------------5--------15--------------8-------------6------|-----------5---|
|--------16-----------14----------19------------17-----15--|-------16------|
|-----9--14--------7----------12--17--------10--15---------|----9--14------|
|--7------------5---------10-------------8-----------------|-7-------------|
|----------------------------------------------------------|---------------|

        t       t  t       t  t      t              t            t
--------------------------------------------|-------------------------------|
------------6----------4--------------------|-----------5--------15---------|
---------------17--17-----15--15--6--13--6--|-------16-----------14---------|
-----7--12-----15--15-----13--13-----11-----|----9--14--------7----------12-|
--5-----12----------------------------------|-7------------5---------10-----|
--------------------------------------------|-------------------------------|

  t               t      t           t         t       t  t      t   t
---------------------11------|---------------------------------------------|
------8---------------9------|-----------5------------13--13-----13--13----|
--19---------------------18--|-------16---------------12--12--7--12--12----|
--17---------13--18----------|----9--14------------7--------------------7--|
---------11------------------|-7------------5--12--------------------------|
-----------------------------|---------------------------------------------|


   t    t
----------------|
---13--13-------|
---12--12p7-----|
----------------|
----------------|
----------------|


gtr1                                       1.
||---------------------------------------|---------------------------------|
||---------------------------------------|---------------------------------|
||o---7----7-------7----------9-----9----|----7----7-------7-------9-------|
||o---9p7--9p7-----9p7--------9-----9p7--|----9p7--9p7-----9p7-----7h9p7---|
||--------------9-------9----------------|--------------9-------9----------|
||-7-----------------------7-----7-------|-7-------------------------------|
||                                       |
||gtr2 w/distortion                      |
||-2-------2-----------------------------|-2-------2-----------------------|
||-2-------2-----------------------------|-2-------2-----------------------|
||o4-------4-----------------------------|-4-------4-----------------------|
||o4-------4-----------------------------|-4-------4-----------------------|
||-2-------2-----------------------------|-2-------2-----------------------|
||---------------------------------------|---------------------------------|

               2.
------------||-----------------7----7-------7--7-------7--7--7------------|
------------||-----------------7----7-------7--7-------7--7--7------------|
--7--------o||----7----7-------9----9-------9--9-------9--9--9------------|
--9h9p7----o||----9p7--9p7-----9----9-------9--9-------9--9--9------------|
------------||--------------9---------------------------------------------|
------------||-7-----------------------7----------7-----------------------|
            ||                                                            |
            ||                                                            |
------------||-2-------2--------------------------------------------------|
------------||-2-------2--0-----------------------------------------------|
------------||-4-------4-------9----9--------9--9-------9--9--9-----------|
------------||-4-------4-------9----9--------9--9-------9--9--9-----------|
------------||-2-------2--------------------------------------------------|
------------||---------------7---------7-----------7----------------------|

Rhy Fig.2
|---17--------------------|--16---------------------|----14-------------------|----12-------------------|
|---17--------------------|--17---------------------|----14-------------------|----12-------------------|
|---18--------------------|--16---------------------|----14-------------------|----13-------------------|
|-------------------------|-------------------------|-------------------------|-------------------------|
|-------------------------|-------------------------|-------------------------|------------------------ |
|-------------------------|-------------------------|-------------------------|-------------------------|
|                         |                         |                         |                         |
|Rhy Fig.2A               |                         |                         |                         |
|-------------------------|-------------------------|-------------------------|-------------------------|
|-------------------------|-------------------------|-------------------------|-------------------------|
|-------------------------|-------------------------|-------------------------|-------------------------|
|-------9--7-----9--7--5--|-------9--7-----9--7--5--|-------9--7-----9--7--5--|-------9--7-----9--7--5--|
|-------7--5-----7--5--5--|-------7--5-----7--5--5--|-------7--5-----7--5--5--|-------7--5-----7--5--5--|
|----0--7--5--0--7--5-----|----0--7--5--0--7--5-----|----0--7--5--0--7--5-----|----0--7--5--0--7--5-----|


|---12-------------------|--17------------------|--16----------------------|
|---12-------------------|--17------------------|--17----------------------|
|---13-------------------|--18------------------|--16----------------------|
|------------------------|----------------------|--------------------------|
|----------------------- |----------------------|--------------------------|
|------------------------|----------------------|--------------------------|
|                        |                      |                          |
|                        |                      |                          |
|------------------------|----------------------|--------------------------|
|------------------------|----------------------|--------------------------|
|------------------------|----------------------|--------------------------|
|------9--7-----9--7--5--|----------------9--5--|----------------9--7--5---|
|------7--5-----7--5--5--|-----5/7--5-----7--5--|-----5/7--5-----7--7--5---|
|---0--7--5--0--7--5-----|--0--5/7--5--0--7-----|--0--5/7--5--0--7--5------|


|-14----------------------|-12------------------|-------------------------|
|-14----------------------|-12------------------|-------------------------|
|-14----------------------|-13------------------|-------------------------|
|-------------------------|---------------------|-------------------------|
|-------------------------|---------------------|-------------------------|
|-------------------------|---------------------|-------------------------|
|                         |                     |                         |
|                         |                     |                         |
|-------------------------|---------------------|-------------------------|
|-------------------------|---------------------|-------------------------|
|-------------------------|---repeat------------|-------------------------|
|----------------9--7--5--|---------------------|-------------------------|
|-----5/7--5-----7--5--5--|---------------------|-------------------------|
|--0--5/7--5--0--7--5-----|---------------------|-------------------------|


Six O'clock on a Christmas morning...

||------------------------------------------------------------------------|
||--------9-------9--------9---9-----------9-------9---9------------------|
||o------11------11-------11--11----------11------11--11------------------|
||o------11------11-------11--11----------11------11--11p9----------------|
||------------------------------------------------------------------------|
||---11------11-------11----------11--11------11--------------------------|


|-----------------------------------------------------||--0----0----------|
|-----9---9------9---9------9---9------9---------9----||--3----0----------|
|----11--11-----11--11-----11--11-----11--------11---o||--0----2----------|
|----11--11-----11--11-----11--11-----11--------11---o||--4----2----------|
|-----------------------------------------------------||--2----0----------|
|-9----------9----------9----------9------9-----------||--0---------------|

Spoken:  Well, isn't it for the honor of God, Aunt Kate?   I know all
about the honor of God, Mary Jane.

Verses 1&2
Rhy Fig.3
||-----------------------------------------------|-------------------------|
||---12--------------------------15----15----15--|--12---------------------|
||o--14-------12-----------------14----12----14--|--12------14-------------|
||o--16-------14---------------------------------|--16------14-------------|
||-----------------------------------------------|-------------------------|
||-----------------------------------------------|-------------------------|
||                                               |
||Rhy Fig.3A                                     |
||-----------------------------------------------|-------------------------|
||-----------------------------------------------|-------------------------|
||o----------------------------------------------|-------------------------|
||o----------------------------------------------|-------------------------|
||------7--5--7--5--7-------7--5--7--5--7--5--7--|-----7--5--7--5----------|
||---0-----------------0-------------------------|--0--------------7--3--7-|


----------------------|---------------------------------------------------|
----------------------|--12-----------------------------------------------|
----------------------|--14------12---------------------------------------|
----------------------|--16------14---------------------------------------|
----------------------|---------------------------------------------------|
----------------------|---------------------------------------------------|
                      |                                                   |
                      |                                                   |
----------------------|---------------------------------------------------|
----------------------|---------------------------------------------------|
----------------------|---------------------------------------------------|
----------------------|---------------------------------------------------|
--5--------5-------5--|-----7--5--7--5--7-------7---5--7--5--7--5--7------|
-----5--7-----6h7-----|--0-----------------0------------------------------|


|------------------------------------------------|
|-12--------------15----------17----15-----------|
|-12-------14-----12----------14----12-----------|
|-16-------14------------------------------------|
|------------------------------------------------|
|------------------------------------------------|
|                                                |
|                                                |
|------------------------------------------------|
|------------------------------------------------|
|------------------------------------------------|
|------------------------------------------------|
|------7--5--7--5-----------5-------5-----5--7---|
|-0----------------7--3--7-----5h7-----7---------|


Continue Rhy Fig.3 and 3A for guitars 1 and 2 respectively

Can't find the strength, but he's got promises to keep,
and wood to chop before he sleeps.

Bridges 1,2,3

I may never get over, but never's better than now.
|--------------------|----------------------------------------------------|
|----3----2----------|---3----2-------------------------------------------|
|----0----2----------|---0----2-------------------------------------------|
|----0----2----------|---0----2-------------------------------------------|
|----x----0----------|---x----0-------------------------------------------|
|----3---------------|---3------------------------------------------------|


I've got bases to cover.
|-------------------------|------------------------------------------------|
|--3----2-----------------|------------------------------------------------|
|--0----2-----------------|------------------------------------------------|
|--0----2------------0--4-|--5--4--5--4--5--4------------------------------|
|--x----0-----------------|--------------------5--7--5-----5--4------------|
|--3----------------------|-----------------------------7--------5--3--2--0|


w/Rhy Fig.1     Rhy Fill.1
|--------------|-----------------------------------------------------------|
|--------------|------------5-------------6------------4-------------------|
|--------------|-------t16-------------------t17--t17-----t15--t15--6------|
|--------------|----9--t14--------7--t12-----t15--t15-----t13--t13---------|
|--------------|-7-------------5-----t12-----------------------------------|
|--------------|-----------------------------------------------------------|


--------------------|-------------------------------------------------------|
--------------------|------12-----------------------------------------------|
---t13--6--t14--7---|-----------------------------12--14-----------------15-|
---t11-----t12------|--14---------------------14----------12---------13-----|
--------------------|----------14---------12------------------10/11---------|
--------------------|--------------12\10------------------------------------|


--11------|-----------------------------------------------------------------||
------14--|--12p0---------------------7-----------7-----7-------------------||
----------|--------9---------9--7--9-----9--8--6-----9-----9-8-6-8-6-8-6----||
----------|-----------9\7p0----------------------------------------------8-6||
----------|-----------------------------------------------------------------||
----------|-----------------------------------------------------------------||

Chorus:  w/Rhy Figs.2 & 2A both 2 times

Melody walks though the door, and memory flies out the window
No body knows what they want, 'till they finally let it all go


Gtr1                                             1.
||----------------------------------------------|--------------------------|
||----------------------------------------------|--------------------------|
||o-------7----7-------7----------9-----9--9----|-----7----7-------7-------|
||o-------9p7--9p7-----9p7--------9-----9--9p7--|-----9p7--9p7-----9p7-----|
||------------------9-------9-------------------|---------------9-------9--|
||-----7-----------------------7-----7----------|--7-----------------------|
||                                              |
||Gtr2                                          |
||-----2-------2--------------------------------|--2-------2---------------|
||-----2-------2--------------------------------|--2-------2---------------|
||o----4-------4--------------------------------|--4-------4---------------|
||o----4-------4--------------------------------|--4-------4---------------|
||-----2-------2--------------------------------|--2-------2---------------|
||----------------------------------------------|--------------------------|

                    2.
-----------------||------------------7--7-----7--7-----7--7--7------------|
-----------------||------------------7--7-----7--6-----7--7--7------------|
--9------9------o||-----7----7-------9--9-----9--9-----9--9--9------------|
--7h9p7--7h9p7--o||-----9p7--9p7-----9--9-----9--9-----9--9--9------------|
-----------------||---------------9---------------------------------------|
-----------------||--7---------------------7--------7---------------------|
                 ||                                                       |
                 ||                                                       |
-----------------||--2-------2--------7--7----7--7-----7--7--7------------|
-----------------||--2-------2--------7--7----7--7-----7--7--7------------|
----------------o||--4-------4--------9--9----9--9-----9--9--9------------|
----------------o||--4-------4--------9--9----9--9-----9--9--9------------|
-----------------||--2-------2--------------------------------------------|
-----------------||---------------7--------7--------7---------------------|


Keyboard Solo: w/Rhy Fig. 3A  2times


        1/2
|---------------------------------|----------------------------------------|
|-15----15---------15-------15----|-----------------15---------------------|
|-14bf--14b---p12--14-------14----|-15------16--12--14p12------12----------|
|-----------------------12--------|-12--12-----------------14------14------|
|---------------------------------|----------------------------------------|
|---------------------------------|----------------------------------------|


----------------------|--12--------------------10-------------------------|
----------------------|--11h12----------15-----10--10\8-----8-------------|
--12------------------|-----------------14p12--12--------9--7h9p7---------|
--12h14p12------------|---------12--14--12-----12-------------------9-----|
------------13h14p13--|---------------------------------------------------|
----------------------|---------------------------------------------------|


|--------------------------------------------------------------------------|
|-10--------------------------------------------------------------------12-|
|--7h9p7--------7--------7---------------------------------------12h14-----|
|---------9--8--9--------7h8p7------------------------12--12h14------------|
|------------------10p7---------10p7--10--12--13--13-----------------------|
|--------------------------------------------------------------------------|


|--------------------------------------|-------------------------------------|
|-15bf--17p15--------------------------|------8--------7-----------------5---|
|--------------14bf--17p14---12--14p12-|-9bf-----9bf-----9bf---7----7bf------|
|--------------------------------------|--------------------------9----------|
|--------------------------------------|-------------------------------------|
|--------------------------------------|-------------------------------------|

    1/2
--------------------------|---------------------------------6/7--10-----12--|
---------3----------5-----|------5--------8--------10----8-------10-----12--|
--4-6b-------4-7bf-----4--|-7bf-----7--------7------9p7--9------------------|
--------------------------|------------9--------9--------------------8------|
--------------------------|------------------------------------------------9|
--------------------------|-------------------------------------------------|

                                            trem bar slack
|-10----------------------------------|-------------------------------------|
|-10-------8-------10-----10----------|-------------------------------------|
|----------7h9------8p7----9p7--10p0--|-12-\-0---8----------12----12----9---|
|-----8h9-------9---------------------|----------8--------9----10----13-----|
|-------------------------------------|-------------------------------------|
|-------------------------------------|-------------------------------------|
|                                     |                                     |
| 1/4                                 |                                     |
|-------------------------------------|-------------------------------------|
|-------------------------------------|-------------------------------------|
|-------------------------------------|-------------------------------------|
|-------------------------------------|-5b----------------------------------|
|-------------------------------------|----7--5--7--5--7-----7-5-7-5-7-5-7--|
|-------------------------------------|-------------------0-----------------|

|-----------20\---17h18-17----------------------------------|-15----15-----|
|-------20-----------------19\17p15h17h20p17p15-------------|-15----15-----|
|-8\--------------------------------------------16p14-------|-14bf--14bf---|
|-8\--------------------------------------------------17\---|--------------|
|-----------------------------------------------------------|--------------|
|-----------------------------------------------------------|--------------|
|                                                           |
|                                                           |
|-----------------------------------------------------------|--------------|
|-----------------------------------------------------------|--------------|
|-----------------------------------------------------------|--------------|
|-8---------------------------------------------------------|---7--5-------|
|----7--5--7--5--------2--5--------5-----5--7---------------|---------7----|
|----------------7--3--------5--7-----7---------------------|--------------|


------15-----15--15----------------------------------|
------15-----15--15--------12------------------------|
--12--14p12--14--14p12h14--12--12--15p14-------------|
---------------------------12------14-----14---------|
----------------------------------------------15h16--|
-----------------------------------------------------|
                                                     |
                                                     |
-----------------------------------------------------|
-----------------------------------------------------|
-----------------------------------------------------|
-----------------------------------------------------|
--5--7--5--7-----7--5--7--5--7--5--7-----------------|
--------------0--------------------------------------|


|--------------------------------------------------------------------------|
|--------------------------------------------------------15h17p15h17-------|
|----------------------------------------15h16p15p14h16--------------------|
|-12h14p13h14---------------12h14p13/14------------------------------------|
|--------------12h14p13h14-------------------------------------------------|
|--------------------------------------------------------------------------|
|
|
|--------------------------------------------------------------------------|
|--------------------------------------------------------------------------|
|--------------------------------------------------------------------------|
|--4-----5-----------------------------------------------------------------|
|---------------7-----5------7------5--------------------------------------|
|------------------------------------------7-----------3-------------------|


---------------------------------------------------|
---------------15h17p16h17------------15h17p15h17--|
--14h16p15h16---------------14h15h16---------------|
---------------------------------------------------|
---------------------------------------------------|
---------------------------------------------------|
                                                   |
                                                   |
---------------------------------------------------|
---------------------------------------------------|
---------------------------------------------------|
---------------------------------------------------|
---2-------5-----------------5----------5-----7----|
----------------5-----7------------7---------------|


|-15--\---------17h18-15-------------------------------15-17bf-|--rb17-------|
|-15--\------------------17p15-17h20p17p15----15h16h17---------|--------20bf-|
|-17--\------------------------------------16------------------|-------------|
|---------/19\-------------------------------------------------|-------------|
|--------------------------------------------------------------|-------------|
|--------------------------------------------------------------|-------------|


--17-------17-------19--------------17--|----------------------------------|
------20bf----20bf----------------------|-20bf--rb20----------20bf---------|
------------------------19bf--rb19------|-19bf--rb19--16------19bf---14-12-|
----------------------------------------|-----------------19---------------|
----------------------------------------|----------------------------------|
----------------------------------------|----------------------------------|


--------------------|-----------------------------------------------------|
--------------------|-----------------------------------------------------|
------12------------|-12--------------------------------------------------|
--14--12h14p12------|-12h14p12--------12----------------12----------------|
----------------13--|-----------14-13-12---------/21\5--12\2/20-----------|
--------------------|---------------------15-12---------------------------|


Inside, inside inside....                               comin'

|-----------------------------------------------|--------------------------|
|--------------------------------12-------------|----------12--------------|
|-14-12-14-12-14-12----14--12-14----14-12----12-|-14-12-14----14-12----14--|
|-------------------14--------------------14----|-------------------14-----|
|-----------------------------------------------|--------------------------|
|-----------------------------------------------|--------------------------|
|                                               |                          |
|                                               |                          |
|--0--------------------------------------------|-------------0------------|
|--5--------------------------------------------|----------------5---------|
|--7--------------------------------------------|-------------------7------|
|--7--------------------------------------------|--------------------------|
|-----------------------------------------------|--------------------------|
|--7-----------7---------------------7----------|---7--------7-------------|


outside, outside...

|-------------------------------------------------|------------------------|
|----------------------------------12-------------|----------12-------w/bar|
|-14-12-14-12-14-12----14-14-12-14----14-12----12-|-14-12-14----14-12----12|
|-------------------14----------------------14----|-------------------14---|
|-------------------------------------------------|------------------------|
|-------------------------------------------------|------------------------|
|                                                 |                        |
|hold                                             |                        |
|--0----------------------------------------------|------------0-----------|
|--0----------------------------------------------|---------------0--------|
|--2----------------------------------------------|------------------0-----|
|--2----------------------------------------------|------------------------|
|--0----------------------------------------------|--------0---------------|
|-------------------------------------------------|------------------------|


|-------------------------------------------------|-------------------------|
|----------------------------------12-------------|----------12-------------|
|-14-12-14-12-14-12----14----12-14----14-12----12-|-14-12-14----14-12---14bf|
|-------------------14----------------------14----|-------------------14----|
|-------------------------------------------------|-------------------------|
|-------------------------------------------------|-------------------------|
|                                                 |                         |
|                                                 |                         |
|-------------------------------------------------|------------3------------|
|-------------------------------------------------|---------------3---------|
|-------------------------------------------------|------------------0--0---|
|--7----------------------------------------------|-------------------------|
|--5----------------------------------------------|-------------------------|
|--3----------------------------------------------|-------3-----------------|

                                                                       1/2
                                                                       dive
|-------------------------------------------------|-------------------------|
|----------------------------------12-------------|----------12----------14b|
|-14-12-14-12-14-12----14-14-12-14----14-12----12-|-14-12-14----14-12-------|
|-------------------14----------------------14----|-------------------14----|
|-------------------------------------------------|-------------------------|
|-------------------------------------------------|-------------------------|
|                                                 |                         |
|                                                 |                         |
|--0----------------------------------------------|--------------0----------|
|--0----------------------------------------------|-----------------0-------|
|--2----------------------------------------------|--------------------2----|
|--2----------------------------------------------|-------------------------|
|--0-----------------0-----------------------0----|-----------0-------------|
|-------------------------------------------------|-------------------------|


|-------------------------------------------------|-------------------------|
|-------------------------------------------------|----12-------------------|
|-14-12-14-12-14-12----14-12-14-12-14-12----12-14-|-15----15-12-14-12----12-|
|-------------------14-------------------14-------|-------------------14----|
|-------------------------------------------------|-------------------------|
|-------------------------------------------------|-------------------------|
|                                                 |
|                                                 |
|----------------------------0--------------------|------------------------|
|----------------------------------5--------------|------------------------|
|--------------7-------------------------7--------|----------------7-------|
|---------7---------7-----------------------------|--------7------------7--|
|-------------------------------------------------|------------------------|
|--7-------------------------------------------7--|--7---------------------|


-------------------------|-------------------------------------------------|
-------------------------|-------------------------------------------------|
-14-13-14-12-14-15-14-12-|-14-12-14-12-14-12----14-12-14-12-14-12----12-14-|
-------------------------|-------------------14-------------------14-------|
-------------------------|-------------------------------------------------|
-------------------------|-------------------------------------------------|
                         |                                                 |
                         |                                                 |
-----0-------------------|----------------------3--------------------------|
-----------5-------------|------------------------------------3------------|
--------------------7----|--------------------------------------------0----|
-------------------------|-------------2----2------------------------------|
-------------------------|--------0----------------------------------------|
-------------------------|--3----------------------------------------------|


|-------------------------------------------------|-------------------------|
|----12-15-11-12----------------------------------|-------------------------|
|-15-------------15-14-15-14-12-14-12-11-12-11-12-|-14-12-14-12-14-12----15-|
|-------------------------------------------------|-------------------14----|
|-------------------------------------------------|-------------------------|
|-------------------------------------------------|-------------------------|
|                                                 |
|                                                 |
|---------------------0---------------------------|---------------------0--|
|-------------------------------3-----------------|------------------------|
|--------------2---------------------------2------|----------2-------------|
|--------0----------------------------------------|------2---------2-------|
|-------------------------------------------------|--0---------------------|
|--3----------------------------------------------|------------------------|


----------12-------------|-------------------------------------------------|
----15-11----15-11-------|-------------12-------15-12-------------15-12----|
-14----------------14-12-|-14-15-14-12----15-14-------15-14-12----------15-|
-------------------------|-------------------------------------14----------|
-------------------------|-------------------------------------------------|
-------------------------|-------------------------------------------------|
                         |                                                 |
                         |                                                 |
-------------------------|-------------------0-----------------------------|
-----0-------------------|----------------0--------------------------------|
------------------2------|------------4--------------4--------------2------|
-------------------------|-------2-----------------------------------------|
-------------------------|--0--------------------------------0-------------|
-------------------------|-------------------------------------------------|


|-------------------------------------------------|------------------------|
|----------------------11-12-------17----15-------|----------15-17-15------|
|-14-15-14-12-14-11-12----------12-------------15-|-16-14-16----------14---|
|----------------------------14-------14----14----|------------------------|
|-------------------------------------------------|------------------------|
|-------------------------------------------------|------------------------|
|                                                 |
|                                                 |
|-----------------------0-------------------------|-----------0------------|
|------------------------------------0------------|--------0-----0---------|
|------------4----0--------------------------0----|----11-----------11-----|
|-------4-----------------------------------------|-9------------------9---|
|--2----------------------------------------------|------------------------|
|-------------------------------------------------|------------------------|


-------------------------------|
-15-14------14-12--------------|
--------14--------12-15-14-12--|
-------------------------------|
-------------------------------|
-------------------------------|
                               |
                               |
----------0-------------------0|
-------0-----0-------------0---|
---11-----------11-----11------|
9-------------------9----------|
-------------------------------|
-------------------------------|


Rhy Fig.5

|------------------------------------------------|-------------------------|
|------------------------------------------------|-------------------------|
|------------------------------------------------|-------------------------|
|-7--5--7--5--7--5-----7--5--7--5--7--5-----5--7-|-8--9--8--5--7--5-----5--|
|-------------------7--------------------7-------|-------------------7-----|
|------------------------------------------------|-------------------------|


------------------------|-------------------------------------------------|
------------------------|-------------------------------------------------|
------------------------|-------------------------------------------------|
-7--6--7--5--7--8--7--5-|-7--5--7--5--7--5----7--5--7--5--7--5-----5--7---|
------------------------|-------------------7-------------------7---------|
------------------------|-------------------------------------------------|


|-------------------------------------------------|------------------------|
|-------------------------------------------------|------------------------|
|-------7-----------------------------------------|------------------------|
|-8--9-----8--9--8--7--8--7--5--7--5--4--5--4--5--|-7--5--7--5--7--5-----8-|
|-------------------------------------------------|-------------------7----|
|-------------------------------------------------|------------------------|


-------------------------|------------------------------------------------|
-------------------------|------------------------------------------------|
----7-----9--7-----------|----------------------7-----------------7-------|
-7-----8--------8--7-----|-8--9--8--7--9--8--7-----9--8--7--5--------9--8-|
----------------------10-|-------------------------------------7----------|
-------------------------|------------------------------------------------|


|---------------------------------------------------|----------------------|
|---------------------------------------------------|----------------------|
|-------------------------------------9-----7-------|----------7--9--7-----|
|-7--8--7------7---------8--9---------------------8-|-9--7--9-----------9--|
|----------10-----9--10--------7--10-----7-----7----|----------------------|
|---------------------------------------------------|----------------------|


----------------------------|
----------------------------|
-7--6-----6-----------------|
-------7-----4--5--8--7--5--|
----------------------------|
----------------------------|


Verse 3 w/Rhy Fig.5

|---------------------------------------|----------------------------------|
|---------------------------8----8--8---|-----------------8------10\8----8-|
|-9h11----9------9----------7----7--7---|--9h11---9-------7-------9\7----7-|
|----9----9------9----------------------|-----9---9------------------------|
|---------------------------------------|----------------------------------|
|------------0-------0--7---------------|-------------0-------0--------0---|


|---------------------------------|----------------------------------------|
|----------------------8----8--8--|----------------------------------------|
|-9h11----9-------9----7----7--7--|-9h11----9------------------------------|
|----9----9-------9---------------|----9----9---8--7--5--7--5--4--5--4--5--|
|---------------------------------|----------------------------------------|
|-------------0-------------------|----------------------------------------|


|--------------------------------------|----------------------------------|
|----------------------------8---8--8--|----------------------------------|
|-9h11----9--------9---------7---7--7--|-9h11----9---7-------------7------|
|----9----9--------9-------------------|----9----9------9-8-7--------9-8--|
|--------------------------------------|----------------------10-7--------|
|--------------0------0---0------------|----------------------------------|


|--------------------------------------|-----------------------------------|
|------------------------8----8--8--8--|-----------------------------------|
|-9h11----9--------------7----7--7--7--|-9h11----9---7-6----6--------------|
|----9----9----------------------------|----9----9--------7-----9-5-8-7-5--|
|--------------------------------------|-----------------------------------|
|--------------0---0--0----------------|-----------------------------------|


go.  But don't cut you're losses too soon, cause you'll

|-12-----------------------|--17-------17---|--16-------------------------|
|-12-----------------------|--19-------17---|--17-------------------------|
|-13-----------------------|--19-------18---|--16-------------------------|
|--------------------------|----------------|-----------------------------|
|--------------------------|----------------|-----------------------------|
|--------------------------|----------------|-----------------------------|
|                          |                |                             |
|                          |                |                             |
|--------------------------|----------------|-------------0---------------|
|--------------------------|---3--------2---|-------------0---------------|
|--------------------------|---2--------2---|---1-------------------------|
|---------------------5/7--|---4--------2---|---2-------------------------|
|----5/7--5-----7--5--5/7--|---0--------0---|---2-------------------------|
|-0--5/7--5--0--7--5-------|----------------|---0------------------0------|

only be cutting your throat.  And answer a call while you
|--17----17-----|---16--------------|--17----------------------------------|
|--19----17-----|---17--------------|--19----------------------------------|
|--19----18-----|---16--------------|--19----------------------------------|
|---------------|-------------------|--------------------------------------|
|---------------|-------------------|--------------------------------------|
|---------------|-------------------|--------------------------------------|
|               |                   |                                      |
|               |                   |                                      |
|---------------|----------0--------|--------------------------------------|
|---3-----3-----|----------0--------|--10-10-10-10-10-10-10-10-10-10-10-10-|
|---2-----2-----|----1--------------|---7-----7-----7-----7----7------7----|
|---4-----4-----|----2--------------|---------7-----7-----7----7------7----|
|---0-----0-----|----2--------------|--------------------------------------|
|---------------|----0-----------0--|--------------------------------------|


still hear it all, 'cause nobody will if you

|---19--------------------------------|--21-------------------------------|
|---21--------------------------------|--22-------------------------------|
|---21--------------------------------|--21-------------------------------|
|-------------------------------------|-----------------------------------|
|-------------------------------------|-----------------------------------|
|-------------------------------------|-----------------------------------|
|                                     |                                   |
|                                     |                                   |
|-------------------------------------|-----------------------------------|
|---10/-12-12-12-12-12-12-12-12-12----|--10-10-10-10-10-10----------------|
|----7/-9---9-----9-----9-----9----9--|---9--9--9--9--9--9----------------|
|----7/-9---9-----9-----9-----9----7--|---7--7--7--7--7----9--------------|
|-------------------------------------|---7--7--7--7--7----7--------------|
|-------------------------------------|-----------------------------------|


won't

|-19-------------------------|
|-21-------------------------|
|-21-------------------------|
|----------------------------|
|----------------------------|
|----------------------------|
|                            |
|                            |
|-----0-0-0-0-0-0-0-0-0-0----|
|-----0-0-0-0-0-0-0-0-0-0----|
|--9-------------------------|
|--9-------------------------|
|--7-------------------------|
|--0-------------------------|


Outro
(spoken) Six o'clock on a Christmas Morning.....
                                             1.
||------------------------------------------|------------------------------|
||------------------------------------------|------------------------------|
||o-----7----7-------7----------9----9--9~--|----7----7-------9-------9----|
||o-----9p7--9p7-----9p7--------9----9--9~--|----9p7--9p7-----9p7-----9p7--|
||----------------9-------9-----------------|--------------9-------9-------|
||---7-----------------------7--------------|-7----------------------------|

               2.
------------||------------------------------------------------------------|
------------||-------12-----12--12-----15--15------17--17---------19--19\-|
--9--------o||-------11-----11--11-----14--14------16--16---------16--16\-|
--9p7------o||--7/9------9----------9----------12----------14/16--16--16\-|
-------9----||------------------------------------------------------------|
------------||------------------------------------------------------------|


|--8h9p8p6-----------------------------------------------------------------|
|-----------9----9p8p6-----------------------------------------------------|
|-----------------------8----6h8p6\5-h-6p5---------------------------------|
|-------------------------------------------8----6h8p6--9------------------|
|--------------------------------------------------------------------------|
|--------------------------------------------------------------------------|
|                                                                          |
|                                                                          |
|-----4--4------4--4-------4--4------4--4--------4-----4--4--4-------------|
|-----7--7------7--7-------7--7------7--7--------7-----7--7--7-------------|
|-----6--6------6--6-------6--6------6--6--------6-----6--6--6-------------|
|--------------------------------------------------------------------------|
|--6--------6---------6-----------6--------6--6-----6----------------------|
|--4--------4---------4-----------4--------4--4-----4----------------------|


|---------------------------------------------11--13--14~----|
|-------------------------9/11p9--11--13--14-----------------|
|-----------------8/10p8-------------------------------------|
|------------8p6---------------------------------------------|
|--6/8--p-6--------------------------------------------------|
|------------------------------------------------------------|
|                                                            |
|                                                            |
|------------------------------------------------------------|
|------------------------------------------------------------|
|---same-rhythm-as-above-------------------------------------|
|------------------------------------------------------------|
|------------------------------------------------------------|
|------------------------------------------------------------|


|--------------------------------------------------------------------------|
|-14-16-14-13-------14-16-14-13-------14-16-14-13-------14-16-14-13--------|
|-------------15-13-------------15-13-------------15-13-------------15-13--|
|--------------------------------------------------------------------------|
|--------------------------------------------------------------------------|
|--------------------------------------------------------------------------|
|
|
|
|--------------------------------------------------------------------------|
|---------9---9-------------9--9--------------9----9-------------------9---|
|--------11--11------------11-11-------------11---11------------------11---|
|--------11--11------------11-11-------------11---11------------------11---|
|--------------------------------------------------------------------------|
|-11------------------11---------------11-------------11----11-------------|


----------------------------|----------------------------------------------|
--14-16-14-13-14-16-14\7----|-7-9-7-6-----7-9-7-6-----7-9-7-6-----7-9-7-6--|
----------------------------|---------8-6---------8-6---------8-6----------|
----------------------------|----------------------------------------------|
----------------------------|----------------------------------------------|
----------------------------|----------------------------------------------|
                            |
                            |
----------------------------|------------14--------14--14-------14--14-----|
-------9----9----9----------|------------14--------14--14-------14--14-----|
------11---11---11----------|------------13--------13--13-------13--13-----|
------11---11---11----------|----------------------------------------------|
----------------------------|--11---11--------11------------11-------------|
--11------------------------|------------------------------------------11--|


-----------------------|--------------------------------------------------|
------7-9-7-6----------|--------------------------------------------------|
--8-6---------8-6-8----|--------------------------------------------------|
-----------------------|--------------------------------------------------|
-----------------------|--------------------------------------------------|
-----------------------|--------------------------------------------------|
                       |                                                  |
                       |                                                  |
-14----14--14--14--14--|--------------------------------------------------|
-14----14--14--14--14--|--------------------------------------------------|
-13----13--13--13--13--|--------------------------------------------------|
-----------------------|--------------------------------------------------|
-----------------------|--------------------------------------------------|
----11-----------------|--------------------------------------------------|

---------------------------------------------------------------------------

2. CAUGHT IN A WEB
Tuning - B,E,A,D,G,B,E

Intro:

E-----------------------|-------------|-------------|-------------------|
B-----------------------|-------------|-------------|-------------------|
G-----------------------|-------------|-------------|-------------------|
D-----------------------|-------------|-------------|-------------------|
A-----------------------|-------------|-------------|------X-X----------|
E-4---4--4--4--4---2-2-2|4-4-4---4-4-4|4--2-2-2----2|4---4-X-X-4---2-2-2|
B-0h2-2--2--2--2p0-0-0-0|2-2-0h2-2-2-2|2--0-0-0--5-0|0h2-2-X-X-2p0-0-0-0|

E----------------|-----------------|---------------|--------------|
B----------------|-----------------|---------------|--------------|
G----------------|-----------------|---------------|--------------|
D----------------|-----------------|---------------|--------------|
A-------------X-X|-----------------|----X-X--------|-----------X-X|
E-4--4--2---4-X-X|4---2--2--2-----2|4-4-X-X-4-2-2-2|4--4--2--4-X-X|
B-2--2--0h2-2-X-X|2p0-0--0--0--3--0|0-2-X-X-2-0-0-0|2--2--0--2-X-X|

E-----------------|-------------------|--------------|----------------|
B-----------------|-------------------|--------------|----------------|
G-----------------|-------------------|--------------|----------------|
D-----------------|-------------------|--------------|----------------|
A-----------------|-----X-X-----------|-----------X-X|----------------|
E-4--2--2--2-----2|2--4-X-X-4--2--2--2|4--4--2--4-X-X|4--2--2--2-----2|
B-2--0--0--0--5--0|0--2-X-X-2--0--0--0|2--2--0--2-X-X|2--0--0--0--3--0|

Pre-Verse:

This x4
E------------------|----------------------|
B------------------|----------------------|
G------------------|----------------------|
D------------------|----------------------|
A-2--4-----4--5----|----------------------|
E-2--4-----4--5----|----------------------|
B------X--X-----2-2|X--2--2--X--2--2--X--2|

Verse:

Play Pre-Verse x2 then this twice:
E------------------|----------------------|
B------------------|----------------------|
G------------------|----------------------|
D------------------|----------------------|
A-0--2----2--3-----|----------------------|
E-0--2----2--3-----|----------------------|
B-----X--X-----0--0|X--0--0--X--0--0--X--0|

Then first part of verse once

Then intro

Then first part of verse twice

Then second part of verse once

Then then first part of verse once

Pre-Chorus:
E-----------------------|---------------|----------------|----------------|
B-----------------------|---------------|----------------|----------------|
G-----------------------|---------------|----------------|----------------|
D-----------------------|---------------|----------------|----------------|
A-4--2------------------|---------------|4--2------------|----2--4--2-----|
E------4---2----0---4--2|0-------0--2--3|-----4--2---0---|3--4--------4--2|
B-----------------------|--0---2--------|----------2----2|----------------|

E----------------|----------------|-------------------|
B----------------|----------------|-------------------|
G----------------|----------------|-------------------|
D----------------|---------------2|-----5--3----------|
A----------------|--------4--2----|4--2------4--2-----|
E-0--4--2--0-----|0--2--3------4--|---------------3--1|
B------------0--2|----------------|-------------------|

Chorus:
Let right throughout
E-----------------|-----------------------------|-----------|
B-------------3---|-----------------------------|-----------|
G----------------4|----------------------3------|-------0---|
D-5------5--------|5---------------5-----------5|----------2|
A-5---------------|6-------6--------------------|3----3-----|
E-3---------------|6----------------------------|3----------|
B-----------------|4----------------------------|1----------|

E----------------------------------------|Repeat First Two|-------------|
B----------------------------------------|Measures--------|-------------|
G-7------7-------------------------------|of--------------|------------2|
D-8------8------------8-----10--11--10--8|Chorus----------|-------4-----|
A-8------8------------8-----10--11--10--8|----------------|5---5--------|
E-6------6-------8-10--------------------|----------------|5------------|
B----------------------------------------|----------------|3------------|

                  Post-Chorus:
E-----------|----|-------------------|-----------------|-------------------|
B-----------|----|-------------------|-----------------|-------------------|
G-----------|----|-------------------|-----------------|-------------------|
D-----------|----|-------------------|-----------------|-------------------|
A-3---------|----|-------------------|-----------------|-------------------|
E-3---------|----|-------------------|-----------------|-------------------|
B-1---------|15/-|2--2--0--2--0--2--2|0--2--0--2--2-0-5|2--2--0--2--0--2--2|

E--------------------|----------------------------------|
B--------------------|----------------------------------|
G--------------------|----------------------------------|
D--------------------|-------------------------------X-X|
A--------------------|-------------------------------X-X|
E--------------------|--4-X-X-4-----------4--4-------X-X|
B-0--2--0--2--2--0--3|0h2-X-X-2--0--0--0--2--2--0--5-X-X|

Verse 2:
Let ring-------------------------------------------------------------|
E------------|---------|---------|-------------|---------|-----------|
B------------|---------|---------|-------------|---------|-----------|
G-----------8|--------6|--------4|-------------|--------6|------2----|
D-4----6----6|4---6---6|4---6---6|4---6---7---6|2---4---4|2--4--4---4|
A-4----4----4|4---4---4|4---4---4|4---4---4---4|2---2---2|2--2--2----|
E------------|---------|---------|-------------|---------|-----------|
B------------|---------|---------|-------------|---------|-----------|

E-------------------------------------|------------------------------------|
B-------------------------------------|------------------------------------|
G-------------------------------------|------------------------------------|
D------X-X----------------------------|-----X-X----------------------------|
A------X-X----------------------------|-----X-X----------------------------|
E----4-X-X-4-----2--2--4--4-----------|---4-X-X--4-----2--2--4--4----------|
B-0--2-X-X-2--0--0--0--2--2--0--5--X-X|0--2-X-X--2--0--0--0--2--2--0--3-X-X|

This measure x4:                          This measure twice:
E----------------------------------------|-------------------------------|
B----------------------------------------|-------------------------------|
G----------------------------------------|-------------------------------|
D----------------------------------------|-------------------------------|
A-2--4--4--4--2--4--4---------4---4--2---|0--2--2--2--0--2--2-----2-2-0--|
E---------------------------------------4|------------------------------2|
B----------------------2----2------------|--------------------0--0-------|
^This measure twice^

Then repeat chorus and post-chorus

Bridge:
E------------------------------|-----------------------------|
B------------------------------|-----------------------------|
G------------------------------|-----------------------------|
D------------------------------|-----------------------------|
A------------------------------|-----------------------------|
E--------3-2---------5-4-3-2---|4-5-----5-4-4-4---4-4---4-4-4|
B-2-3-4-5----5-4-3-2--------5-4|2-3-X-X-3-2-2-2-X-2-2-X-2-2-2|

E------------------------------|-----------------------------|
B------------------------------|-----------------------------|
G------------------------------|-----------------------------|
D------------------------------|-----------------------------|
A------------------------------|-----------------------------|
E-1-2-1----------4-3-2---2-1-0-|4-5-----5-4-4-4---4-4---4-4-4|
B-------5-4-3-2-3-----2-1-----0|2-3-X-X-3-2-2-2-X-2-2-X-2-2-2|

E----------------------------|----------------------------|
B----------------------------|----------------------------|
G----------------------------|----------------------------|
D----------------------------|----------------------------|
A----------------------------|----------------------------|
E--------3-2-------5-4-3-2---|1-2-1---------4-3-2---2-1-0-|
B-2-3-4-5---5-4-3-2-------5-4|-----5-4-3-2-3-----2-1-----0|

E--------------------------|--------------|----------------|
B--------------------------|--------------|----------------|
G--------------------------|--------------|----------------|
D--------------------------|-------------2|---------------4|
A------------------------3-|4-3---6-5-3---|6-5-----8-7-5---|
E----------3-2-5-4---6-5---|---6-5--------|---8-7-6--------|
B-1-2-3-5-4-------3-2---4-5|-----------5--|--------------7-|

E-------------------------|------------------------|-------------|
B-------------------------|------------------------|-------------|
G-------------------------|------------------------|-------------|
D---------------5-4-------|7-6-5-4---3-4-3---------|6-5-4---4-3-2|
A--------4-5-6-7---7-6-5-4|-------7-6-----7-6-5-4-5|-----4-3-----|
E-4-5-6-7-----------------|------------------------|-------------|
B-------------------------|------------------------|-------------|

E-----------------------------|----------------|-----------------|
B-----------------------------|---------------5|----------------7|
G-----------------------------|6-5-----8-7-5---|8-7------10-9-7--|
D---------------------------5-|---8-7-6--------|---10-9-8--------|
A------------5-4-7-6---8-7----|-------------7--|---------------9-|
E-2-3-4-5-7-6-------5-4---6--7|----------------|-----------------|
B-----------------------------|----------------|-----------------|

Guitar Solo:
This measure x2        This measure x2
E---------------------|-----------9----------|---------|
B-----------11-9------|12-11-9------12-11-9--|12-11-9--|
G-12-11-8--9----11-9--|-------11-9---------11|-------11|
D--------11---------10|----------------------|---------|
A---------------------|----------------------|---------|
E---------------------|----------------------|---------|
B---------------------|----------------------|---------|

This measure x2
E--------------12----------|
B-15-14-12-------15-14-12--|
G---------14-12----------14|
D--------------------------|
A--------------------------|
E--------------------------|
B--------------------------|

This measure x2
E-----------------------------------------------------------------|
B-17-18-17-15-----17-18-17-15-----20-15-20-15-----20-15-20-15-----|
G------------17-15-----------17-15-----------17-15-----------17-15|
D-----------------------------------------------------------------|
A-----------------------------------------------------------------|
E-----------------------------------------------------------------|
B-----------------------------------------------------------------|

This measure x2
E-17-18-17-15-----17-18-17-15-----20-15-20-15-----20-15-20-15-----|
B------------18-15-----------18-15--------------------------------|
G--------------------------------------------17-15-----------17-15|
D-----------------------------------------------------------------|
A-----------------------------------------------------------------|
E-----------------------------------------------------------------|
B-----------------------------------------------------------------|
                                                               Let ring
E-19-21-19-17-------------------------------------------------|--------|
B------------19-17--------------------------------------------|--------|
G-----------------16-18-16-14---------------------------------|--------|
D----------------------------16-14----------------------------|--------|
A---------------------------------14-16-14-12-----------------|--------|
E--------------------------------------------14-12-7-9-7-5----|4-------|
B----------------------------------------------------------7-5|2-------|

Repeat these two measures x4  Repeat these two x2
E---------|-----------------|---------|-----------------|
B---------|-----------------|---------|-----------------|
G---------|-----------------|---------|-----------------|
D-REST----|-----------------|REST-----|-----------------|
A---------|-----------------|---------|-----------------|
E-----4--4|--4--4---4--4---4|-----2--2|--2--2---2--2---2|
B-----2--2|X-2--2-X-2--2-X-2|-----0--0|X-0--0-X-0--0-X-0|
^Repeat these measures x2^

Repeat verse 2

Repeat chorus twice

Play post-chorus twice

E---------------|
B---------------|
G---------------|
D---------------|
A---------------|
E-4--2--2-4--4-4|
B-2--0--0-2--2-2|

------------------------------------------------------------------

3. INNOCENCE FADED
Tuning - E,A,D,G,B,E

Rhy.Fig.1[Gtr.1&2]
 A5                        E5                       B5
 RIFF A
   ~~~~~~~ ~~~~~       ~~~~~~~~~~~  ~~~~~             ~~~                   ~
|------------------------|--------------------14---|--------------------16-17|
|---------15-------------|---------15----------7-17|(17)-(17)\-----17-19-9-10|
|14--------9-------14-13-|(13)------9-------------9|(-9)-(-9)\14/16-9-11-----|
|-7-------------14--7--6-|(-6)-----------14/16-----|-----------7/9-----------|
|----------------7-------|----------------7/9------|-------------------------|
|------------------------|-------------------------|-------------------------|
|                        |                         |                         |
|gtr.3                   |                         |                         |
|----------0-----------0-|----------0-----------0--|-----------0-----------0-|
|-------0-----------0----|-------0-----------0-----|--------0-----------0----|
|----9-----------9-------|----4-----------4--------|----11----------11-------|
|-7-----------7----------|-2-----------2-----------|-9-----------9-----------|
|------------------------|-------------------------|-------------------------|
|------------------------|-------------------------|-------------------------|

 A5              G#                        A5                E5
 ~~~~                                       ~~~ ~~      /\     ~~~
|(17)-17-16-------------------------------|------------/--\-|--------------------16-17|
|(10)-10-9-17------17---------------------|----17----17-(17)|(17)-(17)\-----15-17-9-10|
|-----------9-16\14-9-14\13-------13-14-16|14---9-----9-(-9)|(-9)-(-9)\14/16-9-11-----|
|--------------9\7-----7\6-14---14-6--7--9|-7------14-------|-----------7/9-----------|
|---------------------------7-16-7--------|---------7-------|-------------------------|
|------------------------------9----------|-----------------|-------------------------|
|                                         |                 |                         |
|                                         |                 |                         |
|-------------------------------0---------|-------0-------0-|----------0-----------0--|
|-----------0--------------0---------0----|-----0-------0---|-------0-----------0-----|
|------9--------------9-------------------|---9-------9-----|----4-----------4--------|
|-7--------------6------------------------|-7-------7-------|-2-----------2-----------|
|-----------------------------------------|-----------------|-------------------------|
|-----------------------------------------|-----------------|-------------------------|

       end Rhy.Fig.1
  B5
          end RIFF A
     /\      ~~~~~~     /~~~~~~~~~~~~~~~~~~~~~~~~~~~~~~~~~~~~~~~~~
|-19/--(19)-19-----|-19/--------------|-(19)-------------|-(19)--------------|
|-12---(12)-12-----|-12---------------|-(12)-------------|-(12)--------------|
|------------------|------------------|------------------|-------------------|
|------------------|------------------|------------------|-------------------|
|------------------|------------------|------------------|-------------------|
|------------------|------------------|------------------|-------------------|
|                  |                  |                  |                   |
|end Rhy.Fig.1A    |                  |                  |                   |
|--------0--------0|---0--------------|-------0----------|---0---------------|
|------0--------0--|------0-----------|-----0---0-------0|---0---------------|
|---11-------11----|---------6-----6--|---4-------4---4--|---4---------------|
|-9--------9-------|------------6-----|-4-----------2----|---4---------------|
|------------------|------------------|------------------|-------------------|
|------------------|------------------|------------------|-------------------|


|--5---------------|-(5)--------------|-(5)--------------|-(5)---------------|
|--5---------------|-(5)--------------|-(5)--------------|-(5)---------------|
|--7---------------|-(7)--------------|-(7)--------------|-(7)---------------|
|--7---------------|-(7)--------------|-(7)--------------|-(7)---------------|
|--0---------------|-(0)--------------|-(0)--------------|-(0)---------------|
|------------------|------------------|------------------|-------------------|

Verse1:

           An - i - ma - tion                  breathes  a cloudless mind
 Rhy.Fig.2                                                      end Rhy.Fig.2
    ~~~~~~~w/bar         ~~~~~~w/bar      ~~~~~~~~w/bar        ~~~~~~~w/bar
|---5--------------|-----3------------|---1--------------|-----3-------------|
|---5--------------|-----3------------|---1--------------|-----3-------------|
|---7--------------|-----5------------|---0--------------|-----2-------------|
|---7--------------|---5--------------|---3--------------|---0---------------|
|-0----------------|-0----------------|-3----------------|-------------------|
|------------------|------------------|------------------|-3-----------------|

w/Rhy.Fig.2(3 times)
1 Fascinations leaves the doubting blind.
2 Until the circle breaks and wisdom lies ahead
3 The faithful live awake,the rest remain misled.

Bridge 1:

Rhy.Fig.3(here plays unison w/bass)

                    Some   will   tran  -  scend                  spin - ning
|-------------------------------------|--------------------------------------|
|-------------------------------------|--------------------------------------|
|-7-------7----9--------10-------9----|--7--------7----9--------10--------9--|
|-----8-------------8--------8--------|--------------------------------------|
|-------------------------------------|------10------------10--------10------|
|-------------------------------------|--------------------------------------|

 years.                                           Whoa___________________.
                                                                end Rhy.Fig.3
|-------------------------------------|--------------------------------------|
|-------------------------------------|--------------------------------------|
|-7-------7----9--------10-------9----|--7--------7----9--------10--------9--|
|-----7-------------7--------7--------|--------------------------------------|
|-------------------------------------|------10------------10--------10------|
|-------------------------------------|--------------------------------------|

w/Rhy.Fig.3
One as if time disappears.

Instrumental Pre-chorus:


 gtr1
|------------------------|-------------------------|-------------------------|
|--10--(10)--8-----7-----|-7----------------10-8-7-|-------------------------|
|o-----------------7-----|-7-7-7------7---7--------|--9----------(9)--7--9---|
|o-----------------------|--------------7----------|-------------------------|
|------------------------|-------------------------|-------------------------|
|------------------------|-------------------------|-------------------------|
|                        |                         |                         |
|gtr2                    |                         |                         |
|------------------------|-------------------------|-------------------------|
|------------------------|-------------------------|-------------------------|
|o-10-------\7-----7-----|-(7)-----------------x\--|----------------------5--|
|o-10-------\7-----7-----|-(5)-----------------x\--|----5-----------------5--|
|---8-------\5-----5-----|-(5)-----------------x\--|----3-----------------3--|
|------------------------|-------------------------|----1--------------------|

| ------------------------------------|2---------------------------------------|
|-------------------------------------|--8-----10--12-----(12)--13/15--13------|
|---------------------------------8---|-----8----------------------------------|
|--(9)--(9)--(9)--7-9-7\5---(5)------o|----------------------------------------|
|------------------------------------o|----------------------------------------|
|-------------------------------------|----------------------------------------|
|-------------------------------------|----------------------------------------|
|                                     |                                      |
|gtr2                                 |                                      |
|-------------------------------------|--------------------------------------|
|-------------------------------------|--------------------------------------|
|--(5)----------------------------x/-o|-------------5-------------------3----|
|--(5)----------------------------x/-o|--5----------5-------------------3----|
|--(3)----------------------------x/--|--3----------3-------------------1----|
|-------------------------------------|--1-----------------------------------|

Chorus:
w/Rhy.Figs 1&1A
A5        E5    B5         A5     G#
Innocence faded,the mirror falls behind you.
A5        E5      B5
Trinity jaded,I break down walls (to coda)

        to  find  you.                     Callow and vain,
                          Rhy.Fig.4 ~~~~~~~~~~~~~~~    ~~~~~~~~~~~~~~~~~~~~~~
|--0---------0-----------|-------------------------|---3---------------------|
|--0---------0-----------|---------10--------------|---3---------------------|
|--1---------2-----------|----7--------------------|---5---------------------|
|--2---------2-----------|-------------------------|---5---------------------|
|--2---------0-----------|-------------------------|---3---------------------|
|--0---------------------|-------------------------|---3---------------------|

      fixed       like         a  fos   -   sil,               shrouding
                                                                end Rhy.Fig.4
|--3----------------------------------|--------------------------------------|
|--6------------6---------------------|--3------------6--------------8-------|
|--5---------------------------5------|--0------------5--------------7-------|
|--3----------------------------------|--0----------------------0------------|
|--3-------------------3--------------|--x-----------------------------------|
|-------------------------------------|--3-----------------------------------|

w/Rhy.Fig.4
pain.Passionless stage,distant like brothers.Wearing

   apathetic   displays     sharing  flesh like envy in cages
 Rhy.Fig.5                                                     end Rhy.Fig.5
                                 pm..                                 pm..
|--------5---------|------------------|------------------|-------------------|
|--3-----3---------|------------------|--6---6-----------|--3------6-------8-|
|--2---------------|--5---------------|--5----------5----|--0------5-------7-|
|--0----------0----|--5---------------|--3---------------|--0----------0-0---|
|--0----------0----|--3-----------3-3-|--3---------------|--x----------------|
|------------------|--3---------------|------------------|--3----------------|

w/Rhy.Fig.5
Condescending,not intending to end.

Bridge 2:
Rhy.Fig.6

                   Some  will  tran  -   scend                  spinning
pm...........................................................................
|-------------------------------------|--------------------------------------|
|-------------------------------------|--------------------------------------|
|--7-7-----7-7-9-9-----10-10-----9-9--|-7-7------7-7-9-9------10-10------9-9-|
|------8-8---------8-8-------8-8------|--------------------------------------|
|-------------------------------------|-----10-10--------10-10------10-10----|
|-------------------------------------|--------------------------------------|

 years.                                               Whoa.
                                                                end Rhy.Fig.6
 pm..........................................................................
|-------------------------------------|--------------------------------------|
|-------------------------------------|--------------------------------------|
|--7-7-----7-7-9-9-----10-10-----9-9--|-7-7------7-7-9-9------10-10------9-9-|
|------7-7---------7-7-------7-7------|--------------------------------------|
|-------------------------------------|-----10-10--------10-10------10-10----|
|-------------------------------------|--------------------------------------|

w/Rhy.Fig.6                   D.S (take 2nd ending) al Coda
One as if time disappears.Whoa.


 [CODA]
 Rhy.Fig.7A                           Rhy.Fig.8

      to    find      you.                              Beginnings get com -
|--0---------0------------------------|--------------------------------------|
|--0---------0------------------------|---9---------------------7--------8---|
|--1---------2------------------------|---9---------------------8--------7---|
|--2---------2------------------------|---9---------------------9--------9---|
|--2---------0------------------------|--------------------------------------|
|--0----------------------------------|--------------------------------------|

    plicated the farther we progress                            end Rhy.Fig.8
|------------------------|-------------------------|-------------------------|
|-(8)------7-----5-------|--6------5-----3----3----|-(3)-3-----------3-------|
|-(7)------7-----6-------|--5------5-----4----2----|-(2)----2-----2-----2----|
|-(9)------7-----7-------|--7------5-----5----5----|-(5)-------4-----------4-|
|------------------------|-------------------------|-------------------------|
|------------------------|-------------------------|-------------------------|

w/Rhy.Fig.8
Opinions are calculated immune to openness.


  Beyond the circles edge we're driven by her blessings
|------------------|-----------0-0----|--------3---------|------5-------12---|
|-------5----------|-----5-----0---0--|------3---3---3---|----5-------7----12|
|-----2---2--------|---4-----4--------|----0-------------|--7-------7--------|
|---2---------2----|-2-----2----------|--0---------5---7-|--------7----------|
|-0---------4---2--|------------------|------------------|-------------------|
|------------------|------------------|------------------|-------------------|

Forever hesitating,caught betweeen the wheel.
|-------5----------|-----7---------7--|-----10-10--------|-------------------|
|-----8---8--------|---7---------7----|-----10------10-12|-(12)--------------|
|---7---------7----|-9---------9------|---7-------7--7-11|-(11)--------------|
|-5---------7---9--|---------9--------|-0------------0--9|-(-9)--------------|
|------------------|-------7----------|------------------|-------------------|
|------------------|------------------|------------------|-------------------|

Chorus:
w/Rhy.Figs 1&1A
Innocence faded,the mirror falls behind you
Cynically jaded,the child will crawl to find you_____

w/Riff A
w/Rhy.Figs 1&1A
_________________________.Yeah.Whoa.


Yes! this is the best part.!!!!

     pm........    pm.    pm......     pm.             pm....    pm......
|------------------------|-------------------------|-------------------------|
|--9-------------7-----8-|-----------7-----5-------|--6--------5-----------3-|
|--9-------------8-----7-|-----------7-----6-------|--5--------5-----------4-|
|--9-------------9-----9-|-----------7-----7-------|--7--------5-----------5-|
|------------------------|-------------------------|-------------------------|
|----0--0--0--0-----0----|--0--0--0-----0----------|-----0--0-----0--0--0----|

      pm.   pm.
|------------------|------------------|------------------|-------------------|
|---------2-----3--|-(3)--3-----------|-----1-------3----|-------------------|
|---------3-----2--|-(2)--2-----------|--0--------5------|-------------------|
|---------5-----5--|-(5)--4---0--2--3-|-------3/5-----5--|---6--------6------|
|------------------|------------------|---------------3--|---3--------4------|
|------0-----0-----|------------------|------------------|-------------------|

                                                       pm.....   pm.......
|------------------------|----0---0-0---0-0--------|-------------------------|
|------------------------|----3/9---5/7-5----------|--7--------10----------9-|
|------------------------|----------------7-6(6)---|--7---------9----------9-|
|---------------------2--|--2-------------------7--|--7---------7----------9-|
|--5--6--7-\----------2--|--2---------------------7|--0-0-0-0-0-0--7-7-7-7---|
|------------2--3--4--0--|--0----------------------|-------------------------|

       pm......    pm.      pm.......      pm.         pm..    pm..........
|------------------------|-------------------------|-------------------------|
|-(9)\----------7-----8--|--------------7-------5--|-6--------5-------------3|
|-(9)\----------8-----7--|--------------7-------6--|-5--------5-------------4|
|-(9)\----------9-----9--|--------------7-------7--|-7--------5-------------5|
|------------------------|-------------------------|-------------------------|
|------0--0--0-----0-----|--0---0---0-------0------|----0--0----0-0-0-0-0-0--|

      pm.    pm.                           pm..
|------------------|------------------|---------------------|----------------|
|---------4-----3--|-(3)--3-----------|---------------------|----------------|
|---------3-----2--|-(2)--2-----------|---0-----------------|----------------|
|---------5-----5--|-(5)--4-----------|-2-------------------|--3/5---3---0---|
|------------------|----------0--2--3-|-----3-1-0-1-0-------|--3/5---3---0---|
|------0-----0-----|------------------|---------\===/-3-1-0-|----------------|


|-------------------------------------|--------------------------------------|
|-------------------------------------|--------------------------------------|
|-------------------------------------|-------10-12/14-----9-----7-----------|
|--(0)-7-0---------9-----9/10-0-------|-----10--------12\7---7\5---5-7-5-0---|
|--(0)-\=/-5-0-5/7---7-0-\====/-8-0---|-8/10-----------------------\=====/-7\|
|----------\=/-------\=/--------\=/---|--------------------------------------|

                      pm.............
|-------------------------------------|--------------------------------------|
|-------------------------------------|-----------3--------------------------|
|-------------------------------------|--2--------2--------------------------|
|-------------------------------------|--2--------0--------0--------3--------|
|--\3--0------------------------------|--0--------0--------x--------3--------|
|---------3--0---------0-0-1-2--3--4--|--------------------3--------1--------|

      --\                       /\             /\              /\  /
|----/---\-----/===\-----|-----/--\-----------/--\-|-------13-/--\/-12-17-15-|
|--7---(7)-(7)-5-7-0--8--|--/12--(12)-----15-14(14)|15-17----15-(15)---------|
|------------------------|-7---------11/14---------|-------------------------|
|------------------------|-------------------------|-------------------------|
|------------------------|-------------------------|-------------------------|
|------------------------|-------------------------|-------------------------|
|                        |                         |                         |
|                        |                         |                         |
|------------------------|-------------------------|-------------------------|
|--9---9------7--------8-|(8)--8-----7-----5--5----|--6--6-----5--5--5-----3-|
|--9---9------8--------7-|(7)--7-----7-----6--6----|--5--5-----5--5--5-----4-|
|--9---9------9--------9-|(9)--9-----7-----7--7----|--7--7-----5--5--5-----5-|
|------------------------|-------------------------|-------------------------|
|---------0--------0-----|--------0-----0----------|--------0-----------0----|

      /    /         /\  /
|---17---17-|-15----/--\/-----|----------------13-15-13-17-19-17-15----------|
|-15--------|---15-17-(17)15--|------------------------------------17-15-17--|
|-----------|---------------14|-14-17-14--14-17----------------------------16|
|-----------|-----------------|---------15-----------------------------------|
|-----------|-----------------|----------------------------------------------|
|-----------|-----------------|----------------------------------------------|
|           |                 |                                              |
| pm. pm.   |                 |                                              |
|-----------|-----------------|----------------------------------------------|
|----4---3--|(3)---3----------|----------1------------------------3----------|
|----3---2--|(2)---2----------|-0------------------------5-------------------|
|----5---5--|(5)---4----0-2-3-|---------------3-/-5------------------------6-|
|-----------|-----------------|--------------------------------------------3-|
|--0---0----|-----------------|----------------------------------------------|

    ~~~~~ ~~              pm..
|------------|-------------------|---16-12-------12-9------------------------|
|------------|-----------------9-|--------14-12------12-9--12-9-----------12-|
|-17----18--\|/----------------9-|-9-----------13--------11----11-9--11/13---|
|------------|-12-13-14--------9-|---------------------------------11--------|
|------------|---------9-10-11---|-------------------------------------------|
|------------|-------------------|-------------------------------------------|
|            |                   |                                           |
|            |                   |                             /\         pm.|
|------------|-------------------|----0---------0-0-------0-0-/--\-----------|
|------------|-------------------|----3/9---------5/7-----0-3-2-(3)----------|
|------------|-------------------|------------------------------------2------|
|--6----6----|-----------------2-|-2---------------------------------------2-|
|--3----4----|-5--6--7\--------2-|-2-----------------------------------------|
|------------|---------2--3--4-0-|-0-----------------------------------------|

        /-----+~~~~~~  /---\                       /\                   ~~~~~--|
|--12--/-------------19--|(19)-17-19-17\16--------/|-\-------------------------|
|-----15-----22----------|----------------17-19--19|(19)-----------------------|
|------------------------|-------------------------|-------19\14-------14------|
|------------------------|---------------------16--|----17-------12\11---------|
|------------------------|-------------------------|---------------------------|
|------------------------|-------------------------|---------------------------|
|                        |                         |                         |
|    pm......    o opm.  |                    pm.  |      pm.    pm.         |
|--2----------9----------|-------------------------|-------------------------|
|--3---------10--------9-|(9)----------------7---8-|(8)-8------7-----5--5----|
|--2----------9--------9-|(9)----------------8---7-|(7)-7------7-----6--6----|
|--x----------x--------9-|(9)----------------9---9-|(9)-9------7-----7--7----|
|--0--0-0-0-0-0--7-7-----|-------------------------|-------------------------|
|-------------------0-0--|------0--------0-0---0---|--------0-----0----------|

              ------\----------------------------------------------------------|
|----/13-17--/-15----\---|-15/18--------|17-15------------15-17-14-------------|
|---/------15----15-(15)-|-------16-15--|-------------------------15-----------|
|-15---------------------|--------------|-----19-14--14-19----------14---------|
|----------------------12|--------------|----------17-----------------16-------|
|------------------------|--------------|-------------------------------17-15--|
|------------------------|--------------|--------------------------------------|
|                        |              |                                    |
|                  pm.   |pm.           |                                    |
|------------------------|--------------|------------------------------------|
|-6---6-----5----5-----3-|-----4-----3--|-(3)------------3-------------------|
|-5---5-----5----5-----4-|-----3-----2--|-(2)------------2-------------------|
|-7---7-----5----5-----5-|-----5-----5--|-(5)------------4-------------------|
|------------------------|--------------|--------------------------0---2---3-|
|--------0----------0----|-0------------|------------------------------------|

      pm...                                ~~
|---------------------------|----------------|-------------------------------|
|---------------------------|-10--12--10-----|-----/=\------------/=====\----|
|---------------------------|-10--12--10-----|-----9-0-------11---11/12-0----|
|14-17----------------------|----------------|--------7-0-7/9--9-0-------10-0|
|-----15-13-12-13-12--------|-------------12-|(12)\---\=/------\=/-------\=/-|
|------------\====/-15-13\12|----------------|-------------------------------|
|                           |                |                               |
|     pm...                 |                |                               |
|---------------------------|----------------|-------------------------------|
|---------------------------|----------------|-------------------------------|
|---0-----------------------|----------------|-----/=\-------------/====\----|
|-2-------------------------|--3-/-5---3---0-|-(0)-7-0--------9----9/11-0----|
|-----3--1--0--1--0---------|--3-/-5---3---0-|-(0)----5-0-5/7--7-0--------8-0|
|-----------\=====/--3--1--0|----------------|--------\=/------\=/--------\=/|

                                                pm...........
|-------13-15/17-----12----10-/=\-----|----------------------|---------------|
|-----13--------15\10--10\8--10-8-----|----------------------|---------------|
|10/12--------------------------------|----------------------|---------------|
|--------------------------------12-14|10--------------------|-7/12----------|
|------------------------------------\=/-12-10--7-7-8-9-10-11|-------10--8---|
|-------------------------------------|---\=/-12-------------|---------------|
|                                     |                      |               |
|                                     |         pm...........|               |
|-------------------------------------|----------------------|---------------|
|-----------/=\-----------------------|----------------------|----2----------|
|-------10-12-14-----9------7---------|----------------------|-2--2---0------|
|-----10--------12\7----7\5---7-5-----|----------------------|-2--0---0---3--|
|-8/10------------------------\=/-5-7-|--3-0-----------------|-0--0---x---3--|
|---------------------------------\=/-|--\=/3-0-0-1-2-2-3-3-4|--------3---1--|
                                            \=/

  slight pm.......
|-------------------------------------|--------------------------------------|
|------------------5-9----------8-12--|-8---------------------10-14-10-------|
|----------------------8-11-8---------|-------------11-14-11-----------------|
|--9-6---6-9---6-9------------9-------|---12-9--9-12--------12--------14-11--|
|------7-----7------------------------|-------10---------------------------12|
|-------------------------------------|--------------------------------------|
|                                     |                                      |
|                                     |                                      |
|-------------------------------------|--------------------------------------|
|----------------------7--7-----8--8--|-8--8--7------7--7-------5-5-5-5-5-5--|
|----------------------8--8-----7--7--|-7--7--7------7--7-------6-6-6-6-6-6--|
|--2-------------------9--9-----9--9--|-9--9--9------7--7-------7-7-7-7-7-7--|
|--2----------------------------------|--------------------------------------|
|--0---0---0---0-------------0--------|----------0---------0-----------------|

 slight pm.....................         /==\            /==\        /==\
|-----------------------------------15-19|-15------15--18--15------17--15----|
|------------------------------13-17-----|-----15--------------16------------|
|----------------------------------------|-----------------------------------|
|------------15-14-17-14--14-17----------|-----------------------------------|
|15-12--12-15-----------15---------------|-----------------------------------|
|-----13---------------------------------|-----------------------------------|
|                                        |                                   |
|                                        |                                   |
|----------------------------------------|-----------------------------------|
|-6--------------5--5--5---5--------3----|----------4---------------3----3---|
|-5--------------5--5--5---5--------4----|----------3---------------2----2---|
|-7--------------5--5--5---5--------5----|----------5---------------5----5---|
|----------------------------------------|-----------------------------------|
|-----------0-------------------0--------|--0---------------0----------------|

                                                       /=\   /=\       /=\
|--------15-17-15--------15-17-15----------|-------13-17-13-20-15--15-17-15-----|
|20-15-20--------19-15-19--------17-15-----|---------------------17-------------|
|-------------------------------------17-14|--14-17------------------------19-16|
|------------------------------------------|15----------------------------------|
|------------------------------------------|------------------------------------|
|------------------------------------------|------------------------------------|
|                                          |                                    |
|                                          |                                    |
|------------------------------------------|------------------------------------|
|-3--------------3--3--3-------------------|------1--------------------3--------|
|-2--------------2--2--2-------------------|-0--------------------5-------------|
|-5--------------4--4--4-----0----2----3---|-----------3-----5--------------5---|
|------------------------------------------|--------------------------------3---|
|------------------------------------------|------------------------------------|

    ~~~~~~~ ~~~~~~~                                    ~~~~~
|------------------------|-------------------------|-------------------------|
|------------------------|-------------------------|---9----(9)\-------------|
|--17------18-----(18)\--|-------------------------|---9----(9)\-------------|
|------------------------|--12--13--14-------------|-------------------------|
|------------------------|--------------9--10--11--|-------------------------|
|------------------------|-------------------------|-------------------------|
|                        |                         |                         |
|                        |                         |                         |
|------------------------|-------------------------|-------------------------|
|------------------------|-------------------------|-------------------------|
|------------------------|-------------------------|-------------------------|
|---6------6-------------|-------------------------|---2---------------------|
|---3------4-------------|---5---6---7-------------|---2---------------------|
|------------------------|--------------2---3---4--|---0---------------------|

------------------------------------------------------------------------

4. EROTOMANIA
Tuning - E,A,D,G,B,E

Intro:  Distorted organ arranged for guitar.
------

E -7---3------6---5------7---3------6---5-|
B -7---3------4---5------7---3------4---5-|
G -9---5------6---7------9---5------6---7-|
D ----------------------------------------|
A ----------------------------------------|
E ----------------------------------------|


Section 1:
----------

E -----------------------------------------------| r
B -----------------------------------------------| e
G --------------------------------------- p  x 4-|
D -----------------------------------------------| e
A ---------2-5-4--------------4-7-6--------------| a
E -2-3-4-5-------3--0-4-5-6-7-------5--0---------| t

(0:22)
E ---------------------------------------|
B ---------------------------------------|
G ---------------------------------------|
D ----------9-8~---6---------7-6---5-----|
A ---7---7-------7------4-5----------3---|
E (0)0-0-0------------0----------3-----1-|

E ---------------------------------------------------|
B ---------------------------------------------------|
G ---------------------------------------------------|
D ----------9-8~---6----3-5-7------1-3-5-------------|
A ---7---7-------7------------5~\--------3~\---4-3-2-|
E (0)0-0-0------------0------------------------------|

E ---------------------------------------|
B ---------------------------------------|
G ---------------------------------------|
D ----------9-8~---6---------7-5---5-----|
A ---7---7-------7------4-5----------3---|
E (0)0-0-0------------0----------3-----1-|

					  *
E ---------------------------------------------------|
B ---------------------------------------------------|
G ---------------------------------------------------|
D ----------9-8~---6----3-5-7------1-3-5-------------|
A ---7---7-------7------------5~\--------3~\---4-3-2-|
E (0)0-0-0------------0------------------------------|

NB: at *, second guitar plays:  B---15-17-18--------13-15-16-------11-11-10-----|
                                G-x----------14~\------------12~------------11~-|

(play all of Section 1 again)

(1:13)
E ------------------------------| r
B ------------------------------| e
G ------------------------------| p
D ------------------------------| e
A ------------------------------| a
E -3~--2~--1~--0--3~--2~--1~-0--| t

E -----------------------------------| r
B -----------------------------------| e
G -----------------------------------| p
D -5---4---3--2---5---7---10-10-9-9--| e
A -----------------------------------| a
E -----------------------------------| t
  [palm-mute]

E ------------------------------------------------------| r
B ------------------------------------------------------| e
G ------------------------------------------------------| p
D -5-5-5---4-4-4---3-3-3---2-2-5-5-5---4-4-4---3-3-2-2--| e
A -5-5-5---4-4-4---3-3-3---2-2-5-5-5---4-4-4---3-3-2-2--| a
E -3-3-3---2-2-2---1-1-1---1-1-3-3-3---2-2-2---1-1-0-0--| t
  [palm-mute]


E -----------|
B -----------|
G -7---6---5-|
D -7---6---5-|
A -5---4---3-|
E -5---4---3-|


Solo #1:  (largely speculative on my part)
--------

E ------------------------------------------------------------------------|
B -17(b)19~----14(b)15----12(b)14----14-13--------------------14-14-15-15-|
G -----------------------------------------15-13--14-14-16-16-------------|
D ------------------------------------------------------------------------|
A ------------------------------------------------------------------------|
E ------------------------------------------------------------------------|

E --------------19-14-19-14-------14(b)15~--19-19-14-14-14-14-------------|
B --17-------17-------------19-14-----------------------------14-14-12-12-|
G -----14-16--------------------------------------------------------------|
D ------------------------------------------------------------------------|
A ------------------------------------------------------------------------|
E ------------------------------------------------------------------------|

E ----------------------------------------------14-------------------------|
B -----------------------------12-15-14------------------16-14-17-16-------|
G -13-13-13-13-------16-----------------12^0^12-------15-------------14%16-|
D ----------------14-------------------------------13----------------------|
A -------------12-------14~\-----------------------------------------------|
E -------------------------------------------------------------------------|

E -17-14-15-16-15-14--------------------------------------------------14~~-|
B -------------------17-16-15-14--14-15-17-15-14---------------------------|
G -----------------------------------------------17-16-14------------------|
D --------------------------------------------------------17-16-15-14------|
A -------------------------------------------------------------------------|
E -------------------------------------------------------------------------|

E ----------19-19-21-19~\-|
B -21-21-21---------------|
G ------------------------|
D ------------------------|
A ------------------------|
E ------------------------|

(1:56)
E ------------------------------------------------------------------| r
B ------------------------------------------------------------------| e
G ------------------------------------------------------------------| p
D -------------------------------4----------------------------------| e
A ---------2-2-----------4---6-6---------2~--2-----------2-2-4-4----| a
E -4-4-2-4-----4-2-4-4-4-----------4-4-2-------4-2-4-4-4---------2--| t

(2:10)
E ------------------------------------------------------------------------|
B ------------------------------------------------------------------------|
G ----------------------------------------------------------------1-------|
D ------------------------------------------------1-1-------1---2---4-2-1-|
A ---------1-1-------2-1-1---1--4^2^1-----2-2-1-2-----4-2-4---4-----------|
E -4-4-2-4-----4-2-4-------4----------4-2---------------------------------|

E ------------------------------------------------------------------------|
B ------------------------------------------------------------------------|
G ------------------------------------------------------------------------|
D -----------------------------------------2-----2--1---------------------|
A -2-1------------------------------------------------4-2--1----2-1--2--4-|
E -----2-0-0-2--4--2--0--2-4--4/6--4--2-4-----4---------------4-----------|

E --------------------------------------------------------------------------|
B --------------------------------------------------------------------------|
G --------------------------------------------------------------------------|
D ----------------------------------------------------------------2---------|
A -2--1---------------------------2-1-2--2-1-2--4--2-1------------2---------|
E -------2-4-2-4--4-2-4/6--6-4-6-----------------------4-2-0--0-0-0-0-2^4^2-|

E -------------------------------------------------------------|
B -------------------------------------------------------------|
G ----------------------------------------------3--------------|
D --------4------------------6------------------3--------------|
A --------4------------------6-----1^2^1-1-1-1--1-1-1----------|
E -2-2-2--2-2-2-4^6^4-4-4-4--4-4-4--------------------2--4-2-4-|

(clean, slightly muted)
E -------------------------------------------------------------------|
B -------------------------------------------------4-2---2-4-2---2-4-|
G -8---8-9-8---8-9--6---6-8-6---6-8--4---4-6-4---4-----1-------1-----|
D ---6-------6--------4-------4--------2-------2---------------------|
A -------------------------------------------------------------------|
E -------------------------------------------------------------------|

E -------------------------------------------------------------------|
B -5---5-7-5---5-7---------------------------------------------------|
G ---4-------4------6---6-8-6---6-8--4---4-6-4---4-6-3---3-4-3---3-4-|
D --------------------4-------4--------2-------2-------4-------4-----|
A -------------------------------------------------------------------|
E -------------------------------------------------------------------|

(let notes ring)
E --------0--------------0--------------0---------------0-----------|
B ---4--------4-------0-----0--------0-----0---------0-----0--------|
G -----4------------6--------------8--------------13---------13-----|
D -6------------6-8------------8-9-----------9-11---------------11\-|
A ------------------------------------------------------------------|
E ------------------------------------------------------------------|

E -------0---------------0--------------0--------------0--------|
B -----0---0-----------0---0--------5------5---------0---0------|
G ---4-------0-------3-------3--------4------4----11-------11---|
D -2------------2--4-----------4--6-------------8-------------8-|
A --------------------------------------------------------------|
E --------------------------------------------------------------|

(3:05) (distorted, let notes ring)
E ------------------------------------------------------------------|
B ------------------------------------------------------------------|
G ------4------4-4-----------4------4-4-----------4------4-4--------|
D ------------------------------------------------------------------|
A -2-------2--------2---2-------2--------2---2-------2--------2---2-|
E ------------------------------------------------------------------|

E -------------------------------------------------------------------|
B -2-2-2-------------------------------------------------------------|
G -4-4-4--4---4--4----4------4-4-----------4------4-4-----------4----|
D -4-4-4--2---4--4---------------------------------------------------|
A --------2---2--2-------2--------2---2-------2--------2---2-------2-|
E -------------------------------------------------------------------|

E -------------------------------|
B -------------------------------|
G --4-4------------4------4-4----|
D -------------------------------|
A -------2---2--------2--------2-|
E -------------------------------|


Solo #2:
--------

    B5                C#5                 E5                F#5
E --------------------------------------------------------------|
B -\4~---5--7---5/7--\5-5---------------------------------------|
G --------------4/6--\4-4-------------6-8-8(b)9~---8^9^8--------|
D ----------------------6-------6-8-9--------------------9-/11~-|
A --------------------------7-9---------------------------------|
E --------------------------------------------------------------|
                            [ palm-muted ]

                                 B5                     C#5
E -----------------------------------------------------------------------------|
B ------------------------------------------------------12~---------11-12-13---|
G -------11----11^13^11-------------\8--9--11--9~-------------11-13------------|
D -------11----------------------------------------9-11------------------------|
A -11^13----13----------11\9------9--------------------------------------------|
E ---------------------------9/11-7--------------------------------------------|


      E5                             F#5
E -11-12~----------------------------------------16-19-16-------------------|
B --------14(b)16-14~--11^12^11------12~---16-19----------19-16-------19-16-|
G -----------------------------13-11----------------------------18-16-------|
D --------------------------------------------------------------------------|
A --------------------------------------------------------------------------|
E --------------------------------------------------------------------------|


E -----------------------------------|
B -----------------------------------|
G -18-16-------18-16-----------------|
D -------18-16-------18-16-----------|
A -------------------------17-16-17~-|
E -----------------------------------|


(3:42)  (the chord progression of the gods)
   D5              Bb                G5      D          A5  G5     C5     G
E ----------------------------------------------------------------------------|
B -3-------3-------3---6--6-6-6-5----8-8-8---7-7-7------10\-8-------------0-0-|
G -2-------2-------3---3--3-3-3-3----7-7-7---7-7-7-------9\-7------5v5~---0-0-|
D -0---0---0--x-x--3---3--3-3-3-3----5-5-5---7-7-7--x-x--7\-5-x-x--5v5~---0-0-|
A -----0------x-x----------------------------5-5-5--x-x-------x-x--3v3--------|
E ----------------------------------------------------------------------------|

E ---------------------1------------------------------------------------------|
B -3-------------------1-----6-------8-8-8---7-7-7------10\-8-------------0-0-|
G -2---------------3---3--x--5--5----7-7-7---7-7-7-------9\-7------5v5~---0-0-|
D -0---------------3---3--x--3--5----5-5-5---7-7-7--x-x--7\-5-x-x--5v5~---0-0-|
A -0-----------0---1------------3------------5-5-5--x-x-------x-x--3v3--------|
E ---------2-3----------------------------------------------------------------|

---

Mr.Scary (Gary Chapman)
-------------------------
scary@zikzak.apana.org.au
--
		Zikzak public access UNIX, Melbourne, Australia.

From: letostak@netcom.com (Judy Letostak)

Dream Theater "Erotomania"
from Awake
letostak@netcom.com

                                                              repeat 2x
|--7----3-----|---6-----5-----|--7-----3-----|---6----5----||---------------|
|--7----3-----|---4-----5-----|--7-----3-----|---4----5----||---------------|
|--9----5-----|---6-----7-----|--9-----5-----|---6----7----||---------------|
|-------------|---------------|--------------|-------------||---------------|
|-------------|---------------|--------------|-------------||------------2--|
|-------------|---------------|--------------|-------------||-2--3--4--5----|


---------------|------------------------------|---------------------------||
---------------|------------------------------|---------------------------||
---------------|------------------------------|---------------------------||
---------------|------------------------------|---------------------------||
-5--4----------|-------------4--7--6----------|-------------4--7--6-------||
-------3----0--|-4--5--6--7-----------5----0--|-4--5--6--7-----------5--0-||


||---------------------------|-----------------------------|----------------|
||---------------------------|-----------------------------|----------------|
||--9------------------------|-----------------------------|--9-------------|
||--9--------9--8~-----6-----|----0--7--6-----5------------|--9--------9--8-|
||--7-----7---------7--------|-4-----------------3---------|--7-----7-------|
||-----0------------------0--|-------------3--------1----0-|-----0----------|


              1.
           |-------------------------------------------------|
-----------|--------------|---------------|------------------|
-----------|--------------|---------------|------------------|
-----------|--------------|---------------|------------------|
----6------|-3--5--7------|-1--3--5-------|------------------|
-7---------|----------5~--|----------3~---|---4--3--2~-------|
--------0--|--------------|---------------|------------------|


Ending 2.

|-------10--12--13-------|-------8-10-11------|----------------------------|
|----x--------------10~--|----x-----------8~--|-11--11---10----7~----------|
|-x----------------------|-x------------------|-11--11---10----8~----------|
|------------------------|--------------------|----------------------------|
|------------------------|--------------------|----------------------------|
|------------------------|--------------------|----------------------------|

||------------------|----------------------||----------------|-------------||
||------------------|----------------------||----------------|-------------||
||------------------|----------------------||----------------|-------5--4--||
||------------------|----------------------||--5--4----3--2--|-5--7--------||
||------------------|----------------------||----------------|-------------||
||3--2~----1~----0--|--3~---2~----1~----0--||----------------|-------------||


||--------------------------|-----------------------||---------------------|
||--------------------------|-----------------------||---------------------|
||--------------------------|-----------------------||-7---6---5-----------|
||--------------------------|-----------------------||-7---6---5-----------|
||5-5-5-4-4-4-3-3-3-2-2-----|-5-5-5-4-4-4-3-3-3-2-2-||-5---4---3-----------|
||3-3-3-2-2-2-1-1-1-0-0-----|-3-3-3-2-2-2-1-1-1-0-0-||-3---2---1-----------|


|-14----------------------|-------------------------------------|-----------|
|-17bf~--------15---------|-14-------14\13----------------14-15-|-17--------|
|--------------17bf~------|-16bf~----------15p13/14-14-16-------|----14-16--|
|-------------------------|-------------------------------------|-----------|
|-------------------------|-------------------------------------|-----------|
|-------------------------|-------------------------------------|-----------|


----19p14-19p14--------15~------|-19-19-14-14-------------------------------|
-17-------------19-14-----------|-------------19-19-14-14-------------------|
--------------------------------|-------------------------16-16-11-11-------|
--------------------------------|-------------------------------------16-16-|
--------------------------------|-------------------------------------------|
--------------------------------|-------------------------------------------|


------------|---------------------------|-14-------------------------------|
------------|----------12-15-14---------|----------16-14-17-16-------------|
-------16---|--------x----------12-0-12-|-------15--------------14tr16-----|
----14------|---------------------------|----13----------------------------|
-12---------|-14p12---------------------|----------------------------------|
------------|---------------------------|----------------------------------|

                                1/2
|-17-14-15-16-15-14--------------------------------------------------------|
|-------------------17-16-15-14------14-15-17-15-14------------------------|
|-------------------------------16b-----------------16-15-14-13------------|
|---------------------------------------------------------------17-16------|
|--------------------------------------------------------------------------|
|--------------------------------------------------------------------------|


|-14~--/17--16-19-21-19~-\--|
|---------------------------|
|---------------------------|
|---------------------------|
|---------------------------|
|---------------------------|


||-------------------------------------------------|------------------------|
||-------------------------------------------------|------------------------|
||-------------------------------------------------|------------------------|
||-----------------------------------------------4-|------------------------|
||------------2--2-----------------2/4--4--6--6----|----------2--2--2-------|
||4--4--2--4--------4--2--4--4--4------------------|-4--4--2-----------4--2-|


                            Ending 2
-------------------------||-------------------------------------------------|
-------------------------||-------------------------------------------------|
-------------------------||-------------------------------------------------|
-------------------------||-------------------------------------------------|
----------2--2--4--4-----||-----------2~---2-----------------2--2--4--4-----|
-4--4--4--------------2--||--4--4--2----------4--2--4--4--4--------------2--|


|--------------------------------------------------------|------------------|
|--------------------------------------------------------|------------------|
|--------------------------------------------------------|------------------|
|--------------------------------------------------------|------------------|
|----------------------------2\1--1-----1--4--2--1-------|-2--2--1--2--6--6-|
|-4--4--2--4--6--6--4--2--4----------4--------------4--2-|------------------|


---------------------------------------|-----------------------------------|
---------------------------------------|-----------------------------------|
---------------------------------------|-----------------------------------|
----------------2--6--4--2-------------|-----------------------------------|
-4--2--4--6--4--------------6--2-------|-----------------------------------|
----------------------------------6--2-|-0--0--2--4~--4--2--0--4/6--4--2---|


|------------------------------------|---------------------|-----------------|
|------------------------------------|---------------------|-----------------|
|------------------------------------|---------------------|-----------------|
|------2--2-----2--------------------|---------------------|-----------------|
|------------------6--4--2--------2--|-1--2--2/4--2--1-----|-----------------|
|-2/4--------4--------------6--4-----|------------------2--|-4--2--4----4--2-|


-------|-------------------------|-------------------------------|----------|
-------|-------------------------|-------------------------------|----------|
-------|-------------------------|-------------------------------|-1--------|
-------|-------------------------|-------------------------------|-2--------|
-------|-------------------------|-------------------------------|-2--------|
-4--4--|-4/6---6--4--6-----7--6--|-7----7--6--7-7/9--7--6--4--2--|-0--0--0--|


---------------------------------------------|------------------------------|
-------------------------------2-------------|------------------------------|
-----1-------------------------3-------------|------------------------------|
-----2-------------------------4-------------|------------------------------|
-----2-------------------------4-------------|-6-----------4h7--------------|
--0--0--0--0--2/4--2--2--2--2--2--2--2--4/6--|-4--4--4--4--4----4--4--6/7---|


----------------------------------|
----------------------------------|
----------------------------------|
-------------8--------------------|
-------------9--------------------|
-6--6--6--6--6--6--6--2--4--2--4--|


|-------------------------------------------------|-------------------------|
|-------------------------------------------------|-------------------------|
|--8----8--9--8-----8--9--6-----6--8--6-----6--8--|--4-----4--6--4-----4--8-|
|----6-----------6-----------4-----------4--------|-----4-----------4-------|
|-------------------------------------------------|-------------------------|
|-------------------------------------------------|-------------------------|


--------------------------|-------------------------------------------------|
--------------------------|-------------------------------------------------|
--6-----6--8--6-----6--8--|-9-----9--11--9-----9--11--6-----6--8--6-----6--8|
-----6-----------6--------|----9------------9------------4-----------4------|
--------------------------|-------------------------------------------------|
--------------------------|-------------------------------------------------|


|-------------------------------------------------|---------0---------------|
|-------------------------------------------------|-------0----0------------|
|-4-----4--6--4-----4--6--3-----3--4--3-----3--4--|----8----------8-----8---|
|----2-----------2-----------4-----------4--------|-6----------------6------|
|-------------------------------------------------|-------------------------|
|-------------------------------------------------|-------------------------|


------------0---------------|-----------0------------------------0----------|
---------0-----0------------|--------0------------------------0-----0-------|
-----11-----------11-----11-|----11--------11-----11------13-----------13---|
--8-------------------8-----|-9----------------9------11--------------------|
----------------------------|-----------------------------------------------|
----------------------------|-----------------------------------------------|


---------|----------0-----------------------0-----------|----------0--------|
---------|-------0-----0-----------------0-----0--------|-------0-----0-----|
-----13--|----4-----------4-----4-----3-----------3-----|----9-----------9--|
--11-----|-2-----------------2-----4-----------------4--|-6-----------------|
---------|----------------------------------------------|-------------------|
---------|----------------------------------------------|-------------------|


------------------0----------------|---------------------------|------------|
---------------0-----0-------------|------0--------0--0--------|-----0------|
-----9-----11-----------11-----11--|------4---4----4--4--------|-----4------|
--6-----8-------------------8------|-4--------4----------------|-4----------|
-----------------------------------|-2-------------------2--2--|-2------2---|
-----------------------------------|---------------------------|------------|


-----------|-----------------------|--------------------|-------------------|
--0--0-----|-------0------0--0-----|-----0--0--0--0--0--|-0--0--------0--0--|
--4--4-----|--4----4------4--4-----|-----4--4--4--4--4--|-4--4--4-----4--4--|
-----------|-----------------------|-----4--2--2--2--4--|-4--4--4-----4--4--|
--------2--|--2-------2---------2--|--2-----------------|-2---------2------2|
-----------|-----------------------|--------------------|-------------------|


|------------------------|---------------------|---------------------------|
|------0-------0--0------|-----0------0--0-----|------0--------0--0--------|
|------4-------4--4------|-----4------4--4-----|------4--------4--4--------|
|-4----4-------4---------|---------------------|---------------------------|
|-2---------2--------2---|--2------2--------2--|--2-------2------------2---|
|------------------------|---------------------|---------------------------|

                                                      1/2
|--------------------|------------------------------|----------------------|
|-7\4--h5---7---5/7--|-7\5--5--5----------------2-4-|-4b~----4h5p4p0-------|
|---------------4/6--|-6\4--4--4--4-4-6-0-1-3-4-----|----------------4/6~--|
|--------------------|------------------------------|----------------------|
|--------------------|------------------------------|----------------------|
|--------------------|------------------------------|----------------------|


|----------------------------------|---------------------------|-------7~---|
|----------7h9p7-------------------|-----------9\4---5--7--5~--|-0----------|
|-----6-------------6--------------|--4---4~-------------------|----6-------|
|-6h8---8---------8----8/6p4-------|--4---4~-------------------|------------|
|----------------------------4--6--|---------------------------|------------|
|----------------------------------|---------------------------|------------|


-----------------11-|-12--------------------------------------|-------16----|
--------11-12-14----|-----14bf--rb14~--12h14p12/11-------12~--|-16-19-------|
-11-13--------------|------------------------------13p11------|-------------|
--------------------|-----------------------------------------|-------------|
--------------------|-----------------------------------------|-------------|
--------------------|-----------------------------------------|-------------|


--19p16-------------------------------------------------|------------------|
--------19p16-------19-16-------------------------------|------------------|
--------------18-16-------18-16-------18p16-------------|------------------|
--------------------------------18p16-------18-16-------|------------------|
--------------------------------------------------18-16-|--17~-------------|
--------------------------------------------------------|------------------|


|--2-----------------0---|--1----1--1--1--1---0--------3--3--|-3------2--2--|
|--3--------3--------3---|--3----3--3--3--3---3--------3--3--|-3---0--3--3--|
|--2--------2--------3---|--3----3--3--3--3---3--------0--0--|-0---0--2--2--|
|--0--------0------------|-----------------------------------|-----0--------|
|--0---0-------0--0------|-----------------------0--0--------|--------------|
|------------------------|-----------------------------------|--------------|


--2-----------------|------------------------|-------|---------------------|
--3------------10---|--8--------5---5~---0---|--0----|--3------------------|
--2------------9----|--7--------5---5~---0---|--0----|--2------------3-----|
---------------7----|--5--0--0--5---5~---0---|--0----|--0------------3-----|
--0----0--0---------|------------------------|-------|--0--------0---1-----|
--2-----------------|------------------------|-------|-----2--3------------|


|-------------------------------|-------2--2--2----------------|------------|
|--1--------6---5---------8--8--|--8----3--3--3-----------10---|-8--------5-|
|--3--------5---5---------7--7--|--7----2--2--2-----------9----|-7--------5-|
|-----------3---5---------5--5--|--5----------------------7----|-5--x--0--5-|
|-----1--1----------x--x--------|-----------------0--0---------|------------|
|-------------------------------|-------------2----------------|------------|


-----------|-------|---------------------|------1--1----|-1---0--0---0-----|
--5~---0---|--0----|--0--------------4---|------1--1----|-1---1--1---1-----|
--5~---0---|--0----|--0-----0--------3---|------0--0----|-0---0--0---0-----|
--5~---0---|--0----|--0-----0---0----1---|--------------|-0---2--2---2-----|
-----------|-------|---------------------|--------------|------------3-----|
-----------|-------|--3---------3--------|--------------|------------------|


|-----------------------------|-------------------------|------------------|
|------------------3----------|--0----------------------|------------------|
|-------0-------0----------0--|--0----------------------|--3---------------|
|-----------------------------|--0----------------------|--5---------------|
|--1p0-----0h3----------------|-------------------------|--6---------------|
|---------------------1b------|--3----3--3--3--3--3--3--|---------3--3--3--|
                      1/4


|----------------------------|-----------------------0---------------------|
|------1------------1--------|-----------------------1---------------------|
|---------3p0----------0--0--|------0----------------0---------------------|
|-0h3----------0h2-----------|---------------------------------------------|
|----------------------------|-0h1-----1--1--1--0h3------------------------|
|----------------------------|--------------------------1--1---------------|


|----------------------------------|---------------------------------------|
|----------------------------------|---------------------------------------|
|----------------------------------|---------------------------------------|
|----------------------------------|---------------------------------------|
|----------------------------------|---------------------------------------|
|-3--3--3--2--2--2--1--1--1--0--0--|-3--3--3--2--2--2--1--1--1--0--0-------|


|----------------------------------|---------------------------------------|
|----------------------------------|---------------------------------------|
|----------------------------------|---------------------------------------|
|----------------------------------|---------------------------------------|
|----------------------------------|----------------5-----0--3--2----------|
|-3--3--3--2--2--2--1--1--1--0--0--|-3--3--3--2--5-----1-----------3--0----|


|-------------------------------|----------2--3----------------------------|
|-------------------------------|----------------5--3----------------------|
|-------5--4--2-----------2-----|-------4-----------------4--5p4h5p4-------|
|-1--4-----------5--4--5-----4--|-5--2-----------------6--------------7----|
|-------------------------------|------------------------------------------|
|-------------------------------|------------------------------------------|


|--------------------------------------------------------------------------|
|--------------------------------------------------------------------------|
|-4-7-5-4---------2-5-4-2--------------------------------------------------|
|----------7-5-4-----------5-4-2--5-9-7-5---------5h7p5p4------------------|
|------------------------------------------9-7-5-----------7-5-3-----------|
|--------------------------------------------------------------------------|


|--------------------------------------|------------------------------------|
|--------------------------------------|------------------------------------|
|-------------------------2-4---2-4-5--|-------4-----4-5---4-5-7-------6----|
|---5-3-2-----------2-3-5-----5--------|-4-5-7---5-7-----7-------6-7-9---7--|
|---------5-3-2-3-5--------------------|------------------------------------|
|-1------------------------------------|------------------------------------|


----------------|-----------------------------------------|-----------------|
----------------|-----------------------------------------|-----------------|
----6-7---6-7-9-|-10-13/14-14p10-10p7-7-------------------|--12-12p9-9-5-5--|
--9-----9-------|-----------------------9-9p6-6-----------|-----------------|
----------------|-------------------------------8-8p5-5---|-----------------|
----------------|---------------------------------------7/|8----------------|


----------------------|-----------------------------------|-----------------|
----------------------|-----------------------------------|-----------------|
----------------------|----10-10p7-4-4--------------------|--9-9p5-5-2-2p0--|
--7-7-4-4p0-----------|-----------------6-6-3-3p0---------|-----------------|
------------5-5p3-3p0-|---------------------------5-2-2---|-----------------|
----------------------|-7-------------------------------4/|5----------------|


------------------|----------------------|-----------------|----------------|
------------------|----------------------|-----------------|----------------|
------------------|----------------------|-----------------|-----2h4--0h4p0-|
--5p2-2-----------|--------2--3--3/5~----|-----------------|-3p0------------|
--------4-4-0-0---|----/5----------------|-------2--4tr5---|----------------|
----------------3-|-1--------------------|-0--4------------|----------------|


----------|-----------------------------------------------------|-----------|
----------|-5h6p5---5-------------------------------------------|-----------|
-----5h7--|-------7---5h7-4h5p4---4-----------------------------|-----------|
--0-------|---------------------7---2h3p2---2-------------------|-----------|
----------|-------------------------------5---3h5-2h3p2---2-----|-----------|
----------|---------------------------------------------5---3h5-|-0--0--0---|


---------------------------|---------------------------------------|--------|
---------------------------|---------------------------------------|-----3~-|
---------------------------|-3----------------------------------2--|-3-5----|
---------------------------|-3----------------2-----2-3---2-3-5----|--------|
---------------------------|-1--1--3--5~--3-5---3-5-----5----------|--------|
-1--1--1--3--3--3--5--5--5-|---------------------------------------|--------|


-------------------|--------------------------------------------------------|
----3-5~--6-5------|-----------6-8-10/11-------------8-10-11-13bf~----------|
--5-----------5----|-9-7-5-7-9-----------10-9-7-9-10----------------12-10---|
----------------5--|--------------------------------------------------------|
-------------------|--------------------------------------------------------|
-------------------|--------------------------------------------------------|


|--------------------------------------8-10-12-10-8-------|------------------|
|---------10-11-13-11-10----------------------------------|---------10-11-13-|
|-9-10-12----------------12-10-9-10-12--------------12-10-|-9-10-12----------|
|---------------------------------------------------------|------------------|
|---------------------------------------------------------|------------------|
|---------------------------------------------------------|------------------|


--------------------------------------------|--------------------------------|
-11-10---------------10-10-11-13-11-10------|-------8-10-11-10-8-------------|
---------------------------------------10-9\|7-9-10--------------10-9-7-9-10-|
-------12-10-8-10-12------------------------|--------------------------------|
--------------------------------------------|--------------------------------|
--------------------------------------------|--------------------------------|


--6-8-10-8-6------|--------------------------------------------------------|
------------------|--------8-10-11-10-8--------------8-10-11-10-8----------|
--------------10-9|-7-9-10-----------------------------------------9-7\----|
------------------|----------------------10-8-7-8-10-----------------------|
------------------|--------------------------------------------------------|
------------------|--------------------------------------------------------|


|---------------------------------------------|-----------------10-8-7-8-10-|
|-------6-8-10-8-6----------------------------|-------5-6-8-6-5-------------|
|-5-7-9-----------------------------------7-5-|-4-5-7-----------------------|
|-------------------------------3-5-7-5-3-----|-----------------------------|
|-------------------8-7-5-3-5-7---------------|-----------------------------|
|---------------------------------------------|-----------------------------|


--12-13-15-13-12-------|----------10-12-13-12-10\---------------------------|
-----------------13-12-|-10-12-13-------------------------------------------|
-----------------------|---------------------------------------7-9-10-9-7---|
-----------------------|---------------------------10-9-7-9-10--------------|
-----------------------|----------------------------------------------------|
-----------------------|----------------------------------------------------|


--------|---------8-10-12-10-8\--------------------------|-------5-7-8-7-5--|
-12-10--|-9-10-12------------------------------------8-6-|-5-6-8------------|
--------|----------------------------------5-7-9-7-5-----|------------------|
--------|------------------------9-7-6-7-9---------------|------------------|
--------|------------------------------------------------|------------------|
--------|------------------------------------------------|------------------|


---------------|-------------------------------|---------|-------|--0------|
---------------|-------------------------------|--0------|-------|--0------|
-----------2-4-|-5-4-2-------------------------|--1------|-------|---------|
-5-3-2-3-5-----|-------------------------------|--2------|-------|---------|
---------------|--------------2-3-5-3-2--------|--2------|-------|---------|
---------------|--------3-1-5------------5-3-1-|--0------|-------|---------|


||-------------------------------------------------------|------------------|
||-------------------------------------------------------|------------------|
||-------------------------------------------------------|------------------|
||----------------------------------------------------2--|------------------|
||-4--4----4--4--4--4-----------4--4----4-4-4---2--4-----|-4--4--4-4-4-4----|
||-2--2----2--2--2--2---2-2-2-2-2--2----2-2-2------------|-2--2--2-2-2-2----|


-------------------------------------||
-------------------------------------||
-------------------------------------||
------------------------2--2---------||
----------4--4----4--4--0--0--4--2---||
-2-2-2-2--2--2----2--2--------2--0---||


ending 1
|-----------------------------------------|
|-----------------------------------------|
|-----------------------------------------|
|-----------------------------------------|
|---4--4---4-4-4-4-----------4--4-----4-4-|
|---2--2---2-2-2-2--2-2-2-2--2--2-----2-2-|


|-----------------|-----------|
|-----------------|-----------|
|-----------------|-----------|
|--3--5--7--------|--1--3--5--|
|-----------5~----|-----------|
|-----------------|-----------|

                                                            1/2
|----------10-10p6----------------------------------------------------------|
|-8h10p8~----------10-10p6-6--------------/8--6p4\3h6p4p3-------------------|
|----------------------------7-7-3-3----------------------5h7b--rb7p5-------|
|------------------------------------7p3------------------------------7\5p3-|
|---------------------------------------------------------------------------|
|---------------------------------------------------------------------------|

    1/2
|---------------------------------|
|---------------------------------|
|---------------------------------|
|-5/7b-rb7-b7-rb7--p5\3-----------|
|-----------------------5p3h5p3---|
|---------------------------------|

---------------------------------------------------------------------------

5. VOICES
Tuning - E,A,D,G,B,E

E---0)--------------(0)------------A.H----------------------------------------------|
B---4(------------|-(4)----------|--4(16)-----------|-(4)-----------|---------------|
G---4)------------|-(4)----------|--4(16)-----------|-(4)-----------|--2---------2--|
D---2(------------|-(2)----------|------------------|---------------|--2---------2--|
A---0)------------|-(0)----------|------------------|---------------|--0---------0--|
E-----------------------------------------------------------------------------------|

E-----------------------------------------------------------------------------------|
B---------------|----------------|---------------|---------------|------------------|
G--2---------3--|--5----------5--|--7----5----4--|--2---------2--|--2------------3--|
D--1---------1--|--3----------3--|--5----3----3--|--2---------2--|--1------------1--|
A--0---------0--|--0----------0--|--0----0----0--|--0---x-----0--|--0------------0--|
E-----------------------------------------------------------------------------------|
						       pm
				    Band enters
E------------------3----------------------------------------------------------------|
B---------------|--3--------------|--------------|---------------|------------------|
G--5---------5--|--0--------------|--9--------9--|--8---------8--|-10-----------10--|
D--3---------3--|--0-----3--------|--7--------7--|--7---------7--|--7------------7--|
A--0---------0--|--------3--------|--0--------0--|--0---------0--|--0------------0--|
E------------------3-----1-----0----------------------------------------------------|

E-----------------------------------------------------------------------------------|
B----------------|-------------------------------|----------------------------------|
G--7----5-----4--|--9------9-----9------9-----9--|--8------8-------8-------8-----8--|
D--5----3-----3--|--7------7-----7------7-----7--|--7------7-------7-------7-----7--|
A--0----0-----0--|--0--0-0---0-0---0-0----0-0----|----0-0-----0-0-----0-0----0-0----|
E-----------------------------------------------------------------------------------|
		      pm..| pm..| pm..|  pm..|       pm..|   pm..|   pm..|  pm..|

E-----------------------------------------------------------------------------------|
B------------------------------|----------------------------------|-----------------|
G-10-----10----10----10----10--|--7------7------5------5-------4--|-----------------|
D--7------7-----7-----7-----7--|--5------5------3------3-------3--|-----------------|
A-----0-0---0-0---0-0---0-0----|-----0-0----0-0----0-0----0-0-----|--0-7-0-7-6-3-0-5|
E-----------------------------------------------------------------------------------|
     pm..| pm..| pm..| pm..|        pm..|  pm..|  pm..|  pm..|			pm..|

E-----------------------------------------------------------------------------------|
B---------|--------------------------|--------------------------|-------------------|
G---------|--------------------------|--------------------------|-------------------|
D---------|--------------------------|--------------------------|-------------------|
A-3b(3½)--|--0-7-0-7-6-3-0-5-3b(3½)--|--0-7-0-7-6-3-0-5-3b(3½)--|--0-3-4-5-6-5-3-5-3|
E-----------------------------------------------------------------------------------|
		pm..|			   pm..|

E-----------------------------------------------------------------------------------|
B--------------------------|---------------------------|----------------------------|
G--------------------------|---------------------------|----------------------------|
D----9---9--8--5----5/7\5--|----9---9--8--5-----5/7\5--|----9---9--8--5-----5/7\5---|
A----9---9--8--5----5/7\5--|----9---9--8--5-----5/7\5--|----9---9--8--5-----5/7\5---|
E--0-7-0-7--6--3--0-----------0-7-0-7--6--3--0------------0-7-0-7--6--3--0----------|
  pm...............|	     pm...............|		   pm...............|

E-----------------------------------------------------------------------------------|
B---------------------|--------------------------|--------------------------|-------|
G---------------------|--------------------------|--------------------------|-------|
D---------------------|--------------------------|--------------------------|-------|
A---------------------|--0-7-0-7-6-3-0-5-3b(3½)--|--0-7-0-7-6-3-0-5-3b(3½)--|--0-7-0|
E--0-7-6-7-6-3-2-1-0----------------------------------------------------------------|
  pm................|       pm..|     		       pm..|			  pm

						 Keyboard arranged for guitar
E---------------------------------------------------------0------------------0------|
B-------------------|-------------------------|-----10-----------|-----10-----------|
G-------------------|-------------------------|--12----12--------|--11----11--------|
D-------------------|---A.H...|---------------|------------------|------------------|
A-7-6-3-0-5-3b(3½)--|--0-3-4-5-6-5-3-5-3b(4)--|------------------|------------------|
E-----------------------------------------------------------------------------------|
  pm

E-----------0------------------0------------------0------------------0--------------|
B-----10-----------|-----12-----------|-----10-----------|-----10-----------|----10-|
G--10----10--------|--12----12--------|--12----12--------|--11----11--------|-10----|
D------------------|------------------|------------------|------------------|-------|
A------------------|------------------|------------------|------------------|-------|
E-----------------------------------------------------------------------------------|

					 w/Fill 1
E-----0------------------0-------0-----------------0-----0--------------0-----------|
B------------|-----10------------------|-----10-------------|-----10-----------|----|
G--10--------|--12----12-----------12--|--12----12----------|--11----11--------|--10|
D------------|----------------12-------|--------------------|------------------|----|
A------------|-------------------------|--------------------|------------------|----|
E-----------------------------------------------------------------------------------|

E--------0-----0-------------0-----0------------------0--------------------0--------|
B--10-------------|----12------------(0)--|-----10-----------|------10--------------|
G-----10----------|-12----12--------------|--12----12--------|--11------11----------|
D-----------------|-------------12--------|------------------|----------------------|
A-----------------|-----------------------|------------------|----------------------|
E-----------------------------------------------------------------------------------|

					      Guitar
E-----------0------------------0----------------12------5~~~---(5)------------------|
B-----10-----------|-----12------------14p15-|---------------|---------5----|--6~~~-|
G--10----10--------|--12----12------14-------|---------------|--------------|-------|
D------------------|-------------------------|---------------|--------------|-------|
A------------------|-------------------------|---------------|--------------|-------|
E-----------------------------------------------------------------------------------|
					       <<<<   <<<       >>> <<< >>   <<< >>

E-----------------------------------------------------------------------------------|
B--(6)-------------|-------------------|--------------|------------|----------------|
G--------------4---|-(4)b(6)~~~~~~-----|-----2--------|------------|--4b(5)r4b(5)r4-|
D------------------|-------------------|--------------|--3~~~~-----|----------------|
A------------------|-------------------|--------------|------------|----------------|
E-----------------------------------------------------------------------------------|
           <<<<   			  <<<< >>      <<<<<        <<<<<       >>>

E-----------------------------------------------------------------------------------|
B-------------|-----------------|---------------|------------------|----------------|
G--2~~~~~~----|--(2)------------|---------------|------------------|----------------|
D-------------|---------2-------|--3~~~~~~~~----|--(3)-------------|----------------|
A-------------|-----------------|---------------|----------------2b|(3)b(5)~~~~~~---|
E-----------------------------------------------------------------------------------|
  <<<<          >>>   <<<    >>   <<<                     ><<<<<<<

								  A9
E---------------------------------------------------------------|------------0------|
B-----------------|---------------|-----------------------------|--------0-----0----|
G-----------------|---------------|-----------------------------|*-----6---------6--|
D-----------------|---------------|-----------------------------|*---5--------------|
A--(2)------0-----|---------------|--2b(3)r2b(3)r2b(3)r2b(3)r2--|--0-------0--------|
E---------------------1-----------------------------------------|-------------------|
  <<<<    <<<< >>   <<<<       >>>  <<<<

  A69                 A(b139)             Asus2		  x2
E------------0-------------------0-----------------0---------|--0-----------(0)-----|
B--------0-----0----|--------0-----0----|--------0---0-------|--0---------|-(0)-----|
G------6---------6--|------6---------6--|------4-------4----*|--2---------|-(2)-----|
D----4--------------|----3--------------|----2-----------2--*|--2---------|-(2)-----|
A--0-------0--------|--0-------0--------|--0-----------------|--0---------|-(0)-----|
E------------------------------------------------------------|----------------------|

			     w/Fill 1
E--(0)----------(0)-----------(0)----------(0)-----------(0)----------(0)-----------|
B--(0)-------|--(0)--------|--(0)-------|--(0)--------|--(0)--------|-(0)-----------|
G--(2)-------|--(2)--------|--(2)-------|--(2)--------|--(2)--------|-(2)-----------|
D--(2)-------|--(2)--------|--(2)-------|--(2)--------|--(2)--------|-(2)-----------|
A--(0)-------|--(0)--------|--(0)-------|--(0)--------|--(0)--------|-(0)-----------|
E-----------------------------------------------------------------------------------|

   Chorus
E----------------------------------------------------0---------------0--------------|
B----------------|---0------------|--------------|--------0-------|--0-----|--------|
G----------------|--------2-------|--------------|------------2---|--9-----|----2---|
D----------------|------------3---|--------------|----------------|--7-----|-4-----4|
A--3-------------|--(3)-----------|--(3)---------|--(3)-----------|--0-----|--------|
E--1----------------(1)--------------(1)------------(1)-----------------------------|

E-----------------------------------------------------------3-----------------------|
B-----------|--------------|---------3(--|--(3)----------|--3-----------3--3--|--2--|
G-----2-----|--4/6---4-----|---------2)--|--(2)----------|--0-----------0--0--|--2--|
D--3-----3--|--------4--2--|--3----------|---0(----------|--0-----------0--0--|--2--|
A-----------|--2/4---2--0--|--3----------|---0)----------|--------------------|--0--|
E-----------------------------1-----------------------------3-----------3-----------|

             *(on 3rd chorus play here Fill 2)
E-----------------------------------------------------------------------------------|
B----------|------------|------------|----------------|--------------------|--------|
G--2-------|--*--2------|-----2------|--4/6---4---2---|-----------------0--|--(0)---|
D-------2--|--4-----4---|--3-----3---|--------4---2---|--3-----------3-----|--------|
A----------|------------|------------|--2/4---2---0---|--3--------3--------|--------|
E--------------------------------------------------------1-----1--------------------|

						   end Chorus
E----------------3------------------------------------------------------------------|
B-------------|--3--------------------|-----------------------|---------------------|
G-------------|--0--------------0--2--|--(2)------------------|---------------------|
D--3----------|--0-----------0--------|-----------------------|----9---9--8--5-----5|
A------3------|-----------------------|-------------2--3--2---|----9---9--8--5-----5|
E----------------3--------3----------------------3---------------0-7-0-7--6--3--0---|
								pm...............|

E-----------------------------------------------------------------------------------|
B------|---------------------------|---------------------------|--------------------|
G------|---------------------------|---------------------------|--------------------|
D/7\5--|----9---9--8--5-----5/7\5--|----9---9--8--5-----5/7\5--|--------------------|
A/7\5--|----9---9--8--5-----5/7\5--|----9---9--8--5-----5/7\5--|--------------------|
E---------0-7-0-7--6--3--0------------0-7-0-7--6--3--0------------0-7-0-7-6-3-2-1-0-|
          pm..............|          pm...............|          pm................|

E-----------------------------------------------------------------------------------|
B---------------------------------|-----------------------------------|-------------|
G---------------------------------|-----------------------------------|-------------|
D---------------------------------|-----------------------------------|-------------|
A-3-3-0-0-3-3-0-0-0-0-5-0-0-7-0-0-|--3-3-0-0-3-3-0-0-0-0-5-0-0-7-0-0--|--3-3-0-0-3-3|
E-----------------------------------------------------------------------------------|
  pm................................................................................

E-----------------------------------------------------------------------------------|
B----------------------|-------------------------------------------|----------------|
G----------------------|-------------------------------------------|----------------|
D----------------------|-------------------------------------------|----------------|
A-0-0-0-0-5-0-0-7-0-0--|--3-3-0-0-3-3-0-0-------3-5-7-7-5-3--------|----------------|
E-----------------------------------------3-5-7-------------7-5-3-----5-5-2-2-5-5-2-|
 .................................................................|  pm.............

E-----------------------------------------------------------------------------------|
B---------------------|-------------------------------------|-----------------------|
G---------------------|-------------------------------------|-----------------------|
D---------------------|-------------------------------------|-----------------------|
A--------2-----4------|------------------------2-----4------|----------------------2|
E--2-2-2---2-2---2-2-----5-5-2-2-5-5-2-2-2-2-2---2-2---2-2-----5-5-2-2-5-5-2-2-2-2--|
  pm................................................................................

E-----------------------------------------------------------------------------------|
B------------|-------------------------------------------|--------------------------|
G------------|-------------------------------------------|--------------------------|
D------------|-------------------------------------------|--------------------------|
A-----4------|------------------------4-----------4-5-7--|--3-3-0-0-3-3-0-0-0-0-5-0-|
E-2-2---2-2-----5-5-2-2-5-5-2-2-4-5-7---7-5-4-5-7-----------------------------------|
 ......................................................|   pm.......................

E-----------------------------------------------------------------------------------|
B----------|-----------------------------------|------------------------------------|
G----------|-----------------------------------|------------------------------------|
D----------|-----------------------------------|------------------------------------|
A-0-7-0-0--|--3-3-0-0-3-3-0-0-0-0-5-0-0-7-0-0--|--3-3-0-0-3-3-0-0-0-0-5-0-0-7-0-0---|
E-----------------------------------------------------------------------------------|
 ...................................................................................

E-----------------------------------------------------------------------------------|
B-------------------------------------------|-----------------------------------|---|
G-------------------------------------------|-----------------------------------|---|
D-------------------------------------------|-----------------------------------|---|
A--3-3-0-0-3-3-0-0-------5-7-8-8-7-5--------|-----------------------------------|---|
E------------------5-7-8-------------8-7-5-----3-3-0-0-3-3-0-0-0-0-5-0-0-7-0-0-----3|
 ..........................................|  pm....................................

E-----------------------------------------------------------------------------------|
B--------------------------------|-----------------------------------|--------------|
G--------------------------------|-----------------------------------|--------------|
D--------------------------------|-----------------------------------|--------------|
A--------------------------------|-----------------------------------|--------------|
E-3-0-0-3-3-0-0-0-0-5-0-0-7-0-0-----3-3-0-0-3-3-0-0-0-0-5-0-0-7-0-0-----3-3-0-0-3-3-|
 ...................................................................................

E--------------------------------------------------------(0)-----0--------0-----0---|
B-----------------------|--------------|--------0-----|--(0)-----0-----|--0-----0---|
G-----------------------|--Chorus-(2)--|--------9-----|--(9)-----9-----|--9-----10--|
D-----------------------|--------------|--7-----------|---7------------|--7---------|
A-----------------------|--------------|--0-----------|---0------------|--0---------|
E--0-0-7-6-5-4-5-4-3-2--------------------------------------------------------------|
 .....................|
									    Riff 1 (
E-(0)------0-------0-----0--------(0)-----0-------------------------------|---------|
B-(0)------0----|--0-----0-----|--(0)-----0-----|----------|--------------|---------|
G-(10)----10----|--9-----9-----|--(9)-----9-----|--5-------|--4---5---4---|---------|
D--7------------|--7-----------|---7------------|--3-------|--3---3---3---|---------|
A--0------------|--0-----------|---0------------|----------|--------------|---------|
E-------------------------------------------------------------------------|--3h5-5-5|

 Gtr.1)								 end Riff 1
E---------------------------------------------------------------------------|-------|
B---------------------------------|-----------------------------------------|-------|
G---------------------------------|-----------------------------------------|-Riff-1|
D---------------------------------|-----------------------------------------|-------|
A---------------------------------|---------------------------------3-------|-------|
E-5-5-3h5-5-5-5-5-3h5-5-5-3h5-5-5---3h5-5-5-5-5-3h5-5-5-5-5-3h5-5-5---5-5-5-|-------|

  Gtr.2 with Riff 1 (2 times)
E-----------------------------------------------------------------------------------|
B-------------------------------------------|---------------------------------------|
G*------------------------------------------|----------------------------------5----|
D*-5h7-7-7-7-7-5h7-7-7-7-7-5h7-7-7-5h7-7-7--|--5h7-7-7-7-7-5h7-7-7-7-7-5h7-7-7---7-7|
A-------------------------------------------|---------------------------------------|
E-----------------------------------------------------------------------------------|

   x2
E--------0-----0-----0--------------0-----0------0--------0-----0-----0-------------|
B-----|--0-----0--------0--------|--0-----0------0-----|--0-----0--------0----------|
G----*|--9-----9-----------9-----|--6-----6------6-----|--6-----6-----------6-------|
D-7--*|--7-----7--------------7--|--5-----5------------|--4-----4--------------4----|
A-----|--0-----0-----------------|--0-----0------------|--0-----0-------------------|
E-----------------------------------------------------------------------------------|

E--0-----0-----0)------0-----0----0---0------0------0------0------0------0-----0-0--|
B--0-----0-----0(---|--0-----0------0-----|--0------0------0---|--0------0-------0-0|
G--5-----4-----5)---|--4-----4------------|--6------6------6---|--6------6-------6--|
D--3-----3-----3(---|--2-----2------------|--5------5------5---|--4------4-------4--|
A--0-----0-----0)---|--0-----0------------|--0------0------0---|--0--------------0--|
E-----------------------------------------------------------------------------------|

E----------------------0-----0-----0-------0---0---------0------0-------------------|
B---|---------------|--0-----0-----0----0---------0---|--0------0---------0---------|
G---|--5----4----5--|--4-----4-----4------------------|--6------6-------------------|
D---|--3----3----3--|--2-----2-----2------------------|--5------5------5------5-----|
A---|---------------|--0-----------0------------------|--0------0-------------------|
E-----------------------------------------------------------------------------------|

					  Riff 2
E--0------0------0------------------------------------------------------------------|
B--2------0-------------|---------------|--------------------|----------------------|
G--6------6---------6---|--5----4----5--|--9--9-----9--9-----|--10--10----10--10----|
D--4------4-------------|--3----3----3--|--7--7-----7--7-----|---7---7-----7---7----|
A--0------0-------------|---------------|--------0--------0--|----------0---------0-|
E-----------------------------------------------------------------------------------|

E-----------------------------------------------------------------------------------|
B------------------------|------------------------|----------------------|----------|
G--12--12-----12--12-----|--14--14-----14--14-----|--16--16-----16--16---|--16--16--|
D--10--10-----10--10-----|--12--12-----12--12-----|--13--13-----13--13---|--14--14--|
A----------0----------0--|----------0----------0--|----------0---------0-|----------|
E-----------------------------------------------------------------------------------|

						      end Riff 2
E-----------------------------------------------------------------------------------|
B--------------|------------------------|------------------------|------------------|
G----16--16----|--17--17-----17--17-----|--19--19-----19--19-----|--9---------------|
D----14--14----|--15--15-----15--15-----|--17--17-----17--17-----|--7---------------|
A-0----------0-|----------0----------0--|----------0----------0--|------------------|
E-----------------------------------------------------------------------------------|

E-----------------------------------------------------------------------------------|
B---------------|------------------|-----------------|--------------------|---------|
G--6------------|------------------|--5----4-----5---|--9-----------------|---6~~~~-|
D--5------------|-------2/4~~~~~~--|--3----3-----3---|--7-----------------|---5~~~~-|
A---------------|------------------|-----------------|--0--------------0--|--(0)~~~-|
E------------------2----------------------------------------------------------------|

E------------------------------------------------------------------3----3----3----3-|
B--------|------------------|-----------------|----Riff-2-------|--1----0----3----3-|
G--------|------------------|--5-----4-----5--|-(-only-the-7-)--|--0----0----2----0-|
D--------|-------2/4~~~~~~--|--3-----3-----3--|--(first-bars)---|--0----0----0----0-|
A--------|------------------|-----------------|-----------------|-------------------|
E-----------2~~----------------------------------------------------3----3----3----3-|

								Guitar Solo
E--------------------------------------------|-------0------------------------------|
B------------|--------------|-------0--------|----------0-----|--10b(12)b(13)--r(10)|
G--2---------|--(2)---------|----------2-----|-------------2--|---------------------|
D--2---------|--(2)---------|-------------3--|----------------|---------------------|
A--0---------|--(0)---------|--3-------------|--3-------------|---------------------|
E------------------------------1----------------1-----------------------------------|

E----------------------------------5-------------5----------------------------------|
Bp8---------------------------|--5---5-8b(10)~~----8p5-8-7b(8)--r7p5---5------------|
G---9~~---(9)\7b(8)b(10)~~~~--|--------------------------------------7---5~~--------|
D-----------------------------|-------------------------------------------------(7)-|
A-----------------------------|-------------------------------------------------(0)-|
E-----------------------------------------------------------------------------------|

E-----------------------------------------------------------------------------------|
B---------------|----------------------------------------|--------------------------|
G-7p6p5b(7)-r5--|------------7b(9)---b(11)--(11)-r7-5~~--|-------------slight-------|
D---------------|--4~~~~---x-----------------------------|--7p5---------A.H.........|
A---------------|----------x-----------------------------|------6\5-3-5--5b(6)--5--3|
E-----------------------------------------------------------------------------------|

E-----------------------------------------------------------------------------------|
B------------------------------------------13--|-------------13b(15)----13b(15)---13|
G------------------------------------12-14-----|--14~~~~---12-----------------------|
D.....................|--12-10-12/14-----------|------------------------------------|
A-5--3b(5)--r(3)-(3)/--------------------------|------------------------------------|
E-----------------------------------------------------------------------------------|

E------------------------------------------15---------------------------------------|
Bb(15)-b(16½)--13b(15)b(16)--15b(16)b(17)------15---(17)--------------12-13-14-15-16|
G---------------------------------------------------------11-12-13-14---------------|
D-----------------------------------------------------------------------------------|
A-----------------------------------------------------------------------------------|
E-----------------------------------------------------------------------------------|

E-12-13-14-15b(17)~~----(15)-r15b(17)-----------------------------------------------|
B---------------------|-----------------15-13b(14)-------------------------10-------|
G---------------------|-----------------------------14------------12b(14)----12b(14)|
D---------------------|--------------------------------14\12p10h12------------------|
A---------------------|-------------------------------------------------------------|
E-----------------------------------------------------------------------------------|

E-----------------------------------------------------------------------------------|
B-----------------------------------------------------------------------------------|
G--------------------------------------------------------------------------17-------|
D--------------------------------------------17----------17-19-18-17-19-19----19-19-|
A--------------15----------------15-17-16-19----19-17-19----------------------------|
E--/15--16--17----17-16-15-16-17----------------------------------------------------|

E-------------------------------------hold-bend-------------------------------------|
B-------------17--|--19b(20)~~~~---19--19b(21)--19--19--19--19-r18b(19)~~--|--(18)\-|
G-17-18-17-19-----|--------------------------------------------------------|--------|
D-----------------|--------------------------------------------------------|--------|
A-----------------|--------------------------------------------------------|--------|
E-----------------------------------------------------------------------------------|

E--------------------------------------------------7b(8)--(8)-r7p5---5--------------|
B--15b(17)-b(19)--r(15)-13----------13b(15)---|--5-----------------8---5-8---5------|
G--------------------------14-12-14-----------|----------------------------8---5--7-|
D---------------------------------------------|-------------------------------------|
A---------------------------------------------|-------------------------------------|
E-----------------------------------------------------------------------------------|

E-----------------------------------------------------------------------------5-----|
B-------------------------|----------------------------------5-5-----8-8p5------/10~|
G----5--------------------|------------------5-5-----7-7p5-------8p5-------8--------|
D--7---5--7----5~~--(5)\--|--5-5-----7-7p5-------7p5-------7------------------------|
A-----------7-------------|------7p5-------7----------------------------------------|
E-----------------------------------------------------------------------------------|

E--17p12----12-17p12-17p12----12-17p12----12-17p12-17p12----12-17p12----12-17p12----|
B--------14----------------14----------14----------------14----------14----------14-|
G-----------------------------------------------------------------------------------|
D-----------------------------------------------------------------------------------|
A-----------------------------------------------------------------------------------|
E-----------------------------------------------------------------------------------|

E-17p12h17p12----17p12----12h17p12----17p12----17p12--------12h15p12----12-15p12-15p|
B-------------14-------14----------14-------14-------14--|-----------14-------------|
G--------------------------------------------------------|--------------------------|
D--------------------------------------------------------|--------------------------|
A--------------------------------------------------------|--------------------------|
E-----------------------------------------------------------------------------------|

E12----12-15p12----12-15p12-15p12----12-15p12----12-17p12----12-15p12----12-17p12---|
B---14----------14----------------14----------14----------14----------14----------14|
G-----------------------------------------------------------------------------------|
D-----------------------------------------------------------------------------------|
A-----------------------------------------------------------------------------------|
E-----------------------------------------------------------------------------------|

E-12-15p12-12-17p12-12-----14p12----12-14p12-14p12----12-14p12----12-14p12-14p12----|
B-----------------------|--------13----------------13----------13----------------13-|
G-----------------------|-----------------------------------------------------------|
D-----------------------|-----------------------------------------------------------|
A-----------------------|-----------------------------------------------------------|
E-----------------------------------------------------------------------------------|

E-12-14p12----12-15p12----12-14p12----12-15p12----12-14p12----12-15-12--------------|
B----------13----------13----------13----------13----------13----------12-13-12-|-13|
G-------------------------------------------------------------------------------|---|
D-------------------------------------------------------------------------------|---|
A-------------------------------------------------------------------------------|---|
E-----------------------------------------------------------------------------------|

E-----------------------------------------------------------------------------------|
B15-12-13-13-13-15-12-13-13-15-12-13-13-15-13/14-17-14-13/14-15-15-17-15-17-17-15-17|
G-----------------------------------------------------------------------------------|
D-----------------------------------------------------------------------------------|
A-----------------------------------------------------------------------------------|
E-----------------------------------------------------------------------------------|

			       end Guitar Solo
E----------------------15/17--17---------------|------------------------------------|
B-18-15-15-17-17-18-16-----------22b(25)~~-----|----------------------|-------------|
G----------------------------------------------|*---------------------|-------------|
D----------------------------------------------|*-----------7-----7---|-------------|
A----------------------------------------------|---4--5--7-----0------|------------3|
E----------------------------------------------|-------------------------3--5---5---|

E-----------------------------------------------------------------------------------|
B-----|-----------------------|-------------------|-----------------------|---------|
G-----|-----------------------|-------------------|-----------------------|---------|
D-----|-----------5------5/7--|-------------------|-----------4------5/7--|---------|
A--5--|--4--5--7------0-------|--5---7----7--3h5--|--4--5--7------0-------|---------|
E----------------------------------------------------------------------------3---5--|

						   x2
E-----------------------------------------------------|---------------------3-------|
B----------|---------------------|--------------------|----Chorus-(3)----|--3-------|
G----------|---------------------|-------------------*|-(-only-the-17-)--|--0-------|
D----------|-------(5)-----5/7---|-------------------*|--(-first-bars-)--|--0-------|
A-----3h5--|--3h5---7---0--------|--5---7----7---3h5--|------------------|----------|
E--3--------------------------------------------------|---------------------3-------|

E--3--3-----(3)-------3--------1----------------------------------------------------|
B--3--3--|--(3)-------3-----|--1-----------|--------------|-----------------|-------|
G--0--2--|--(2)-------0-----|--3-----------|--3-----------|-----------------|-------|
D--0--0--|--(0)-------0-----|--3-----------|--3-----------|-----------------|-------|
A--------|------------------|--1-----------|--1p0---------|--------------0--|--2---3|
E--3--3-----(3)-------3----------------------------3--1------0---2---4--------------|

							  Acoustic Guitar
E-----------------------------------------------------------------0---------0-------|
B--(3)------|----------------|--------------------------|----9--------9--------|----|
G---2-------|----------------|--------------------------|-------7--------7-----|----|
D---0---3---|--2-------------|--(2)---------------------|----------------------|----|
A---0-------|--2-------------|--(2)---let-ring-til-end--|----------------------|----|
E--------------0----------------(0)------------------------0----------------------0-|

E-------0---------0-------------0---------0-------------0---------0--------------0--|
B--9--------9--------|-----9--------9--------|-----7--------7--------|-----9--------|
G-----6--------6-----|--------5--------5-----|-----------------------|--------7-----|
D--------------------|-----------------------|--------9--------9-----|--------------|
A--------------------|-----------------------|-----------------------|--------------|
E-----------------------0-----------------------0-----------------------0-----------|

E-------0-------------0--------0-------------0--------0--------------0------||
B--9-------|-----9--------9-------|-----9--------9-------|--------7------7--||
G-----7----|--------6--------6----|--------5--------5----|-----7------------||   Segue to
D----------|----------------------|----------------------|--0---------------|| "Silent Man"
A----------|----------------------|----------------------|------------------||
E-------------0----------------------0--------------------------------------||


  Fill 1 (w/heavy amp tremolo)		  x4
E-------------0--------------(0)---------------|
B-------------0---------|----(0)---------------|
G-------------9---------|*---(9)--------------*|
D-fade in-----7---------|*---(7)--------------*|
A-------------0---------|----(0)---------------|
E----------------------------------------------|
           <<<<<<<<<
  Fill 2
E-----------------------------------------<4>----------------------|
B--7-------------x-----|----(6--------------<4>------|-------------|
G--9b(11)~~~~-----x----|----)8b(10)~~~~-------<4>----|-6---7---9---|
D------------------x---|--x---------------------<4>--|-6---7---9---|
A-------------------0--|-----------------------------|-4---5---7---|
E------------------------------------------------------------------|

-----------------------------------------------------------------------

6. THE SILENT MAN
Tuning - E,A,D,G,B,E

Gtr.1 12 string acoustic
||---------3----------3---------2---|-----------2-------------2-----------|
||---------3----------3---------3---|-----------3-------------3-----------|
||o--------0----------0---------2---|-----------2---------2---2-----------|
||o--------0----------0----0----0---|----0------0---------2---0---0---0---|
||-------------------------0----0---|----0------0---------0-------0---0---|
||----3----------3------------------|-------------------------------------|


silence like a fever?
woman, of his father?

|--0------------0------------0-------|-------------------1---1---x---0----|
|--0------------0------0----------3--|--------3----x--x--1---1---x---0----|
|--0------------0------0----------0--|--------0----x--x--0---0---x---0----|
|--2------2------------2----------2--|--------2----x--x--3---3---x---0----|
|--4------4-----------------------3--|--------3----x--x--3---3---x--------|
|------------------------------------|---3--------------------------------|


"A voice never heard?"           "Or a
If he elects not to bother,     will he
w/fill 1
|-------3----0---------------2---|-----------2----------2-----------------|
|-------3----3---------------3---|-----------3----------3----3----0-------|
|-------0----0---------------2---|-----------2----------2----2----0-------|
|-------0----0----------0----0---|-----------0------0---0----0------------|
|-------x-----------0---0----0---|------0-----------0---------------------|
|--3----3------------------------|----------------------------------------|

Fill 1
|-------3---3---3----------------2--|-------------------------------------|
|-------3---3---3--3---3---------3--|-------3---------------3--x--x-------|
|-------0---0---0--0---0---------2--|-------2---------------0--x--x-------|
|-------0---0------0---x---x--x--0--|-------0-----------4---4--x--x-------|
|------------------2---3---x--x--0--|---0-------0---5-------5--x--x-------|
|---3-------------------------------|-------------------------------------|


message with no receiver?"
suffocate their faith?

|--0---------0-----0----0--------|-----------------------1--1----x----0---|
|--0---------0-----0----0---3----|----------3----x----x--1--1----x----0---|
|--0---------0-----0----0---0----|----------0----x----x--0--0----x----0---|
|--2----2-------------------2----|----------2----x----x--3--3----x----0---|
|--4----4-------------------3----|----------3----x----x--3--3----x--------|
|--------------------------------|----3-----------------------------------|
                                    Thumb


Pray they won't ask.                                  Be  -
Desperate to fall                                     Be  -

|--0---------0----------0----0---x--|--0----------0---------0-------------|
|--0---------0----------0----0---x--|--1----------1---------1---1----1----|
|--0---------0----------0----0---x--|--0----------0---------0---0----0----|
|--2---------4----------2----2------|--2----2----------2----2---2----2----|
|--2---------2----------------------|--0----0----------0----0-------------|
|--0----0----------0----------------|-------------------------------------|


hind the stained glass
hind the Great Wall

|--0-----------------------------0--|--0-------0---------0---0---0--------|
|--1/3---------3------------3----0--|--0-------0---------0---0---0--------|
|--0-----------0------------0-------|--0-------0---------0---0------------|
|--2/4----4----4------------4-------|--2-------4---------4----------------|
|--0------0--------------0----------|--2-------2---------2----------------|
|-----------------------------------|--0---0--------0---------------------|


there's always one more mask.
that separates us all.

|-----------------------------------|------------------------------------||
|--3---------3---------3----x----x--|---7---------------7----------------||
|--0---------0---------0----x----x--|---7---------------7---------------o||
|--4---------4---------4----x----x--|---7---------------7---------------o||
|--3----3---------3----3----x----x--|---x---------------x----------------||
|-----------------------------------|---8------8--------8----------------||


Chorus
When there is reason, Tonight I'm awake
                  (Tonight I'm awake)
let ring
|--------0--------0--------|-----------------|----------0---------0-------|
|-----0--------0--------0--|--(0)------------|-------0------2--0----------|
|--1--------1--------1-----|-----------------|----6-----------------------|
|--------------------------|-----------------|-7--------------------------|
|--------------------------|-----------------|----------------------------|
|--------------------------|-----------------|----------------------------|


                  When there's no answer.            Arrive
(The Silent Man)

|---0------------|--------0--------0----------|---------------------------|
|---0------------|-----0--------0---------0---|---------------------------|
|---8------------|--1--------1---------4------|---2-----------------------|
|---9------------|----------------------------|---------------------------|
|----------------|----------------------------|---------------------------|
|----------------|----------------------------|---------------------------|


the silent man.                             If there is bal -

|-----------0------------0--|-(0)------------|-------0--------0-----------|
|--------0------------0-----|----------------|----0--------0--------0-----|
|-----6------------8--------|----------------|-1--------1--------1--------|
|--7------------9-----------|----------------|----------------------------|
|---------------------------|----------------|----------------------------|
|---------------------------|----------------|----------------------------|


ance         tonight   he's awake
       (Tonight he's awake)           (The Silent man)

|--------0--------0-------0--|-------0--------0-----0-|-------0-------0---0|
|-----0--------0----------0--|----0--------0----------|----0-------0-------|
|--2--------2---------2------|-6--------6--------6----|-8-------8-------8--|
|----------------------------|------------------------|--------------------|
|----------------------------|------------------------|--------------------|
|----------------------------|------------------------|--------------------|


If they have to suffer                          there lies

|-------0--------0--------|-------0--------0-----0------------------------|
|----0--------0--------0--|----0--------0--------0------------------------|
|-1--------2--------4-----|-2--------2--------2---------------------------|
|-------------------------|-----------------------------------------------|
|-------------------------|-----------------------------------------------|
|-------------------------|-----------------------------------------------|


the silent man.

|-----------0-------------0---|---(0)-------------------------------------|
|--------0-------------0------|-------------------------------------------|
|-----6-------------8---------|-------------------------------------------|
|--7-------------9------------|-------------------------------------------|
|-----------------------------|-------------------------------------------|
|-----------------------------|-------------------------------------------|


|--2---------0----2-------------0--|--1---1----1----1----0---------7--7---|
|--3---------3----3-------------3--|--3---3----3----3----3---3--0--8--8---|
|--2---------2----2-------------3--|--3---3----3----3----3---3--0--7--7---|
|--0----0----0---------0----0---0--|--0---0---------0----0---0-----0------|
|--0----0--------------0----0------|--------------------------------------|
|----------------------------------|--------------------------------------|


|--7--------5--5---5------3--3--|----3--------0--0---0--0--0--|-0--0--x---|
|--8--------7--7---7------5--5--|----0--------0--0---0--0--3--|-3--3--x---|
|--7-----7--7--7---7------5--5--|----5--5--5--5--5---5--5--4--|-4--4--x---|
|--0--0--0--0------0---0-----0--|----0--0--0--5--5---------5--|-5--5--x---|
|-----0----------------0--------|----0--------0--0---------0--|-0--0------|
|-------------------------------|-----------------------------|-----------|


|---------------------1---|---1--------0----0--0--0--7--7--|-7-------5--5--|
|--3------------------1---|---1--------1----1--1--1--8--8--|-8-------7--7--|
|--2------------------3---|---3--3--x--0----0--0--0--7--7--|-7-------7--7--|
|--0------------------3---|---3--3--x--3----2--2-----0-----|-0--0--0-0-----|
|--x---------------0--1---|---1--1--x--3----3--3-----------|-------0-------|
|--2---2--0--2--3---------|--------------------------------|---------------|


--5---------3---|-3--------0--0--0--0---0--|--0--0---x--------------------|
--7---------5---|-0--------0--0--0--0---3--|--3--3---x--------------------|
--7---------5---|-5--5--5--5--5--5--5---4--|--4--4---x--------------------|
--0---0--0--0---|-0--0--0--5--5---------5--|--5--5---x--------------------|
------0--0------|-0--------0--0---------0--|--0--0------------------------|
----------------|--------------------------|--------------0---------------|


Guitar Solo

|-------------------------------|------------------------------------------|
|--------------8--7h8p7---------|------------10------12-----10-------------|
|--------7--9------------9--7~--|---7--9/11------11------11-----11\9p7-----|
|--7--9-------------------------|--------------------------------------9---|
|-------------------------------|------------------------------------------|
|-------------------------------|------------------------------------------|


--------|-------------------9--7h9p7--5--------|--------------------------|
--------|----------------------------------8---|-------6---6--------------|
---7h9--|--(9)~------6-------------------------|-----5h7---5--------------|
--------|---------------7----------------------|---------------7\5p3\2----|
--------|--------------------------------------|--------------------------|
--------|--------------------------------------|--------------------------|

Sin without deceivers,   a God with no believers

|-------------------------|------------------------|-----------------------|
|-------------------------|----------1-------------|------3-----------7----|
|-----------0-------------|-------0--------0-------|---------0----------0--|
|--------4-------4--------|----2--------------2----|-2/4----------4/7-----7|
|-----2-------------2-----|-0-----------0--------0-|------------0----------|
|--0-------------------0--|------------------------|-----------------------|


I could sail by on the winds

|----------------------------------|----------0---------------------------|
|----------8--------7\5---------3--|----------3---3------3----------------|
|----------------------------------|-------0------0------0----------------|
|-----7/9-----9\7---7\5---2/4------|----4----------------4----------------|
|----------------------------------|-3------------------------------------|
|--0-------------------------------|--------------------------------------|


of silence and maybe they won't notice    But this

|---------------------x--x--|---------0-------0--x--x-|-0-----0-------0---|
|-----------7-----7---x--x--|---------0-------0--x--x-|-0-----0-------0---|
|--------7--7-----7---x--x--|---------6-------6-------|-0-----0-------0---|
|-----7-----7-----7---------|-------------------------|-2-----2-------2---|
|---------------------------|-9-----------9-----------|-2-----------------|
|--8--------------8---------|-7---7-------7-----------|-0--0------0-------|


time, I think it'd be better if I swim.

|-------------------------|---0h2-----------|---(2)-----------------------|
|--3---------3---------3--|---3-------------|---(3)-----------------------|
|--0---------0---------0--|---2-------------|---(2)-----------------------|
|--2---------2---------2--|---0-------------|---(0)-----------------------|
|--3----3---------3-------|-----------------|-----------------------------|
|-------------------------|-----------------|-----------------------------|


The silent man.  There lies

|--0---0--0---0----0--0--0--0---|-------------------0--0---0--0-----------|
|--0---0--0---0----0--0--0--0---|-10--10--10--------0--0---0--0-----------|
|--6---6--6---6----8--8--8--8---|--9---9---9--------8--8---8--8-----------|
|--7---7--7---7----9--9--9--9---|--7---7---7--------7--7---7--7-----------|
|--7---7------7----9--9-----9---|--x---x---x--------9--9---9--9-----------|
|-------------------------------|--9---9---9--------7--7---7--7-----------|


|--4----x---x----------------------------|---0----------------------------|
|--5----x---x---4----x----x----2----0----|---0----------------------------|
|--6----x---x---4----x----x----2----2----|---1----------------------------|
|--6----x---x---4----x----x----2----2----|---2----------------------------|
|--4------------2----x----x----0----x----|---2----------------------------|
|-----------------------------------2----|---0----------------------------|

----------------------------------------------------------------------

7. THE MIRROR
Tuning - B,E,A,D,G,B,E

E|   |--------------------|-------------------------------------|   |---------------------------------|
B|   |--<4>---------------|-------------------------------------|   |---------------------------|
G|   |-----<4>------------|-------------------------------------|   |---------------------------|
D|4/4|--------<4>---------|--4-4-4----4-4-4----4-4-4----4-4-4---|3/4|--4-4-4----4-4-4----4-4-4--|
A|   |------------x-------|--2-2-2----2-2-2----2-2-2----2-2-2---|   |--2-2-2----2-2-2----2-2-2--------|
E|   |--------------x-----|--2-2-2-:--2-2-2-:--2-2-2-:--2-2-2-:-|   |--2-2-2-:--2-2-2-:--2-2-2--------|
B|   |----------------x---|--0-0-0----0-0-0----0-0-0----0-0-0---|   |--0-0-0----0-0-0----0-0-0--------|
         v                   >        >        >        >              >        >        >


           . . .     . .    .   .     . .                       . . .    . . .    . . .    . . .
E|    ||--------------------------------------||       |   ||--------------------------------------||
B|    ||--------------------------------------||       |   ||--------------------------------------||
G|    ||--------------------------------------||       |   ||--------------------------------------||
D|12/8||*--4-4-4-----4-4----4---4-----4-4----*||4 times|4/4||*--4-4-4----4-4-4----4-4-4----4-4-4--*||7 times
A|    ||*--2-2-2-----2-2----2---2-----2-2----*||       |   ||*--2-2-2----2-2-2----2-2-2----2-2-2--*||
E|    ||---2-2-2---:-2-2----2-:-2-----2-2-:---||       |   ||---2-2-2-:--2-2-2-:--2-2-2-:--2-2-2---||
B|    ||---0-0-0-----0-0----0---0-----0-0-----||       |   ||---0-0-0----0-0-0----0-0-0----0-0-0---||
           >                >         >                         >        >        >        >

        . . .    . . .           . . .    . . .    .
E|   |-------------------|    |-------------------------|
B|   |-------------------|    |-------------------------|
G|   |-------------------|    |-------------------------|
D|2/4|--4-4-4----4-4-4---|9/16|--4-4-4----4-4-4----4----|
A|   |--2-2-2----2-2-2---|    |--2-2-2----2-2-2----2----|
E|   |--2-2-2-:--2-2-2-:-|    |--2-2-2-:--2-2-2-:--2-:--|
B|   |--0-0-0----0-0-0---|    |--0-0-0----0-0-0----0----|
        >        >               >        >

          . .   .    . .   .    . .   .    . .   .    . .   .    . .   .    . .   .    . .   .
E|   ||----------------------|---------------------|---------------------|-----------------------||
B|   ||----------------------|---------------------|---------------------|-----------------------||
G|   ||----------------------|---------------------|---------------------|-----------------------||
D|4/4||*--4-4---4----4-4---4-|--4-4---4----4-4---4-|--4-4---4----4-4---4-|--4-4---4----4-4---4--*||4 times
A|   ||*--2-2---2----2-2---2-|--2-2---2----2-2---2-|--2-2---2----2-2---2-|--2-2---2----2-2---2--*||
E|   ||---2-2-:-2----2-2-:-2-|--2-2-:-2----2-2-:-2-|--2-2-:-2----2-2-:-2-|--2-2-:-2----2-2-:-2---||
B|   ||---0-0---0----0-0---0-|--0-0---0----0-0---0-|--0-0---0----0-0---0-|--0-0---0----0-0---0---||
          >          >          >          >          >          >          >          >

  /
 |
 | Gtr 1 (Rhy. Fig 1)
 | E|   ||---------------|--------------|-----------------------------|------------------|
 | B|   ||---------------|--------------|-----------------------------|------------------|
 | G|   ||---------------|--------------|-----------------------------|------------------|
 | D|4/4||--4------------|-[4]----------|--4--------------------------|-[4]--------------|
 | A|   ||--2------------|-[2]----------|--2--------------------------|-[2]--------------|
 | E|   ||--2------------|-[2]----------|--2--------------------------|-[2]--------------|
 | B|   ||--0------------|-[0]----------|--0--------------------------|-[0]--------------|
 |          >                              >
 |
 |
 |                                                        w/bar -1     fdbk
 | Gtr 2                         !                            \/
 | E|   |---------------|--------------|-----------------------------|------------------------|
 | B|   |---------------|--------------|-----------------------------|------------------------|
 | G|   |---------------|--------------|-----------------------------|------------------------|
 | D|4/4|-:----------4--|--3--<>-------|-(3)s(6)---------------------|------------------|
 | A|   |-----<2>p1h2---|--------------|----------6p<4>---p2---4s6---|--(6)--(6)--|
 | E|   |---------------|--------------|-----------------------------|------------------------|
 | B|   |---------------|--------------|-----------------------------|------------------------|
 |            >
 |        w/wah as filter       !=Gradually open wah from bass (o) to treble(+) position
 |
  \

  /
 |
 | Gtr 1
 | E|   |-----------------|-------------------|--------------------------|------------------------------||
 | B|   |-----------------|-------------------|--------------------------|------------------------------||
 | G|   |-----------------|-------------------|--------------------------|------------------------------||
 | 
(Rhy.Fig.1)
 | A|   |-2---------------|-[2]---------------|-2------------------------|-[2]--------------------------||
 | E|   |-2---------------|-[2]---------------|-2------------------------|-[2]-5-4-3-2-1-0--------------||
 | B|   |-0---------------|-[0]---------------|-0------------------------|-[0]--------------------------||
 |        >                                     >
 |
 |
 |
 | Gtr 2  !                                !!!!!!!!!!!!!
 | E|   |-----------------|-------------------|--------------------------|--------------------|
 | B|   |-----------------|-------------------|--------------------------|--------------------|
 | G|   |-----------------|-------------------|--------------------------|--------------------|
 | D|4/4|---------------4-|--3---(3)h(<4>)----|-(3)----------------------|--------------|
 | A|   |---(6)s<2>p1h2---|-------------------|------------8s<6>--4--6s8s|s6-4-0--|
 | E|   |-----------------|-------------------|--------------------------|-------4-3-2-1-0----|
 | B|   |-----------------|-------------------|--------------------------|--------------------|
 |
 |                                  != trill w/edge of pick
 |
  \

  /
 |
 |
 |
 |
 |
 |    Guitar 1: (Rhy.Fig.1)
 |
 |
 |
 |
 |
 |
 |
 | Guitar 2                                            -1
 | E|   |--------------------|------|-------------------------|------------------|
 | B|   |--------------------|------|----------/\-------------|------------------|
 | G|   |---------------11---|--10--|-(10)----6  <8>p6---8s10s|s8--6-------|
 | D|4/4|-------9p8-9--------|------|-------------------------|-------7----------|
 | A|   |--------------------|------|-------------------------|------------------|
 | E|   |--------------------|------|-------------------------|------------------|
 | B|   |-0------------------|------|-------------------------|------------------|
 |
 |
 |
  \

  /
 |
 |
 |
 |
 |
 |    Guitar 1: (Rhy.Fig.1)
 |
 |
 |
 |
 |
 |
 |           grad dive
 | Guitar 2   \ -3                                       pick slide
 | E|   |------\-------------|------------------|--------------------------|-------------------------|----|
 | B|   |--------------------|------------------|--------------------------|-------------------------|----|
 | G|   |--------------------|------------------|-------(x)s--10s8p6--8b(1)|r(8)p6-------------------|----|
 | D|4/4|--------9p8--9--11--|-10----(10)h(11)--|-(10)--(x)s---------------|--------s7-6-5-4-3-------|----|
 | A|   |--------------------|------------------|--------------------------|---------------------7---|-7@-|
 | E|   |--------------------|------------------|--------------------------|-------------------------|----|
 | B|   |--------------------|------------------|--------------------------|-------------------------|----|
 |
 |
 |
  \


Gtr 2 tacet

Gtr 1

           .      .         .          .  .       .         .  .         .  .  .
E|   |-----------------------------------------------|   |-------------------------|
B|   |-----------------------------------------------|   |-------------------------|
G|   |-----------------------------------------------|   |-------------------------|
D|4/4|-----4------4---------4----------4--4-------4--|7/8|--4--4---------4--4--4---|
A|   |-----2s(7)--2---------2s(7)------2--2-------2--|   |--2--2---------2--2--2---|
E|   |-----2------2-------:-2----------2--2-----:-2--|   |--2--2--:------2--2--2---|
B|   |-----0------0---------0----------0--0-------0--|   |--0--0---------0--0--0---|


VERSE 1: (Rhy.Fig.2)
          . . .      . .     .   .     . .
E|    ||--------------------------------------|
B|    ||--------------------------------------|
G|    ||--------------------------------------|
D|12/8||--4-4-4------4-4-----4---4-----4-4----|
A|    ||--2-2-2------2-2-----2---2-----2-2----|
E|    ||--2-2-2----:-2-2-----2-:-2-----2-2-:--|
B|    ||--0-0-0------0-0-----0---0-----0-0----|
         Temptation........


         . . .      . .     .   .     . .
E|    |--------------------------------------|
B|    |--------------------------------------|
G|    |--------------------------------------|
D|12/8|--4-4-4------4-4-----4---4-----4-4----|
A|    |--2-2-2------2-2-----2---2-----2-2----|
E|    |--2-2-2----:-2-2-----2-:-2-----2-2-:--|
B|    |--0-0-0------0-0-----0---0-----0-0----|

         . . .      . .     .   .     . .
E|    |--------------------------------------|
B|    |--------------------------------------|
G|    |--------------------------------------|
D|12/8|--------------------------------------|
A|    |--5-5-5------5-5-----5---5-----5-5----|
E|    |--5-5-5----:-5-5-----5-:-5-----5-5-:--|
B|    |--3-3-3------3-3-----3---3-----3-3----|

         . . .      . .
E|    |----------------------------------------|
B|    |----------------------------------------|
G|    |----------------------------------------|
D|12/8|----------------------------------------|
A|    |--5-5-5------5-5-----5s7-------7-[7]----|
E|    |--5-5-5----:-5-5-----5s7-:-----7-[7]-:--|
B|    |--3-3-3------3-3-----3s5-------5-p0-----|

         . . .      . .     .   .     . .
E|    |--------------------------------------|
B|    |--------------------------------------|
G|    |--------------------------------------|
D|12/8|--4-4-4------4-4-----4---4-----4-4----|
A|    |--2-2-2------2-2-----2---2-----2-2----|
E|    |--2-2-2----:-2-2-----2-:-2-----2-2-:--|
B|    |--0-0-0------0-0-----0---0-----0-0----|

         . . .      . .     .   .     . .
E|    |--------------------------------------|
B|    |--------------------------------------|
G|    |--------------------------------------|
D|12/8|--4-4-4------4-4-----4---4-----4-4----|
A|    |--2-2-2------2-2-----2---2-----2-2----|
E|    |--2-2-2----:-2-2-----2-:-2-----2-2-:--|
B|    |--0-0-0------0-0-----0---0-----0-0----|

         . . .      . .     .   .     . .
E|    |--------------------------------------||
B|    |--------------------------------------||
G|    |--------------------------------------||
D|12/8|--------------------------------------||
A|    |--3-3-3------3-3-----3---3-----3-3----||
E|    |--1-1-1----:-1-1-----1-:-1-----1-1-:--||
B|    |--1-1-1------1-1-----1---1-----1-1----||   end of (Rhy.Fig.2)

VERSE 2:

         . . .      . .     .   .     . .
E|    |--------------------------------------|
B|    |--------------------------------------|
G|    |--------------------------------------|
D|12/8|--4-4-4------4-4-----4---4-----4-4----|
A|    |--2-2-2------2-2-----2---2-----2-2----|
E|    |--2-2-2----:-2-2-----2-:-2-----2-2-:--|
B|    |--0-0-0------0-0-----0---0-----0-0----|

          . . .      . .     .   .     . .
E|    ||--------------------------------------|
B|    ||--------------------------------------|
G|    ||--------------------------------------|
D|12/8||--------------------------------------|
A|    ||--5-5-5------5-5-----5---5-----5-5----|
E|    ||--5-5-5----:-5-5-----5-:-5-----5-5-:--|
B|    ||--3-3-3------3-3-----3---3-----3-3----|

         . . .      . .
E|    |----------------------------------------|
B|    |----------------------------------------|
G|    |----------------------------------------|
D|12/8|----------------------------------------|
A|    |--5-5-5------5-5-----5s7-------7-[7]----|
E|    |--5-5-5----:-5-5-----5s7-:-----7-[7]-:--|
B|    |--3-3-3------3-3-----3s5-------5-p0-----|

         . . .      . .     .   .     . .
E|    |--------------------------------------|
B|    |--------------------------------------|
G|    |--------------------------------------|
D|12/8|--4-4-4------4-4-----4---4-----4-4----|
A|    |--2-2-2------2-2-----2---2-----2-2----|
E|    |--2-2-2----:-2-2-----2-:-2-----2-2-:--|
B|    |--0-0-0------0-0-----0---0-----0-0----|

         . . .      . .     .   .     . .
E|    |--------------------------------------|
B|    |--------------------------------------|
G|    |--------------------------------------|
D|12/8|--4-4-4------4-4-----4---4-----4-4----|
A|    |--2-2-2------2-2-----2---2-----2-2----|
E|    |--2-2-2----:-2-2-----2-:-2-----2-2-:--|
B|    |--0-0-0------0-0-----0---0-----0-0----|

         . . .      . .     .   .     . .
E|    |--------------------------------------|
B|    |--------------------------------------|
G|    |--------------------------------------|
D|12/8|--------------------------------------|
A|    |--3-3-3------3-3-----3---3-----3-3----|
E|    |--1-1-1----:-1-1-----1-:-1-----1-1-:--|
B|    |--1-1-1------1-1-----1---1-----1-1----|

         . . .      . .     .   .     . .    .
E|    |-----------------------------------------||
B|    |-----------------------------------------||
G|    |-----------------------------------------||
D|13/8|-----------------------------------------||
A|    |--3-3-3------3-3-----3---3-----3-3----3--||
E|    |--1-1-1----:-1-1-----1-:-1-----1-1-:--1--||
B|    |--1-1-1------1-1-----1---1-----1-1----1--||


  Rhy.Fig.3
                                                                  semi-@
E|   ||-----|----------|-----|---------|-----|-----------------------------------|
B|   ||-----|----------|-----|---------|-----|-----------------------------------|
G|   ||-----|----------|-----|---------|-----|-----------------------------------|
D|4/4||--4--|--[4]-----|-----|---------|-----|-----------------------------------|
A|   ||--2--|--[2]-----|--4--|--[4]----|--5--|-[5]-------------------------------|
E|   ||--2--|--[2]-----|--2--|--[2]----|--5--|-[5]-------------------------------|
B|   ||--0--|--[0]--0--|--2--|--[2]--0-|--3--|-[3]--0--3p0--5b(1,1/2)--r(5)--3p0-|


                                               .
E|   |---------------------|----------------------|-----|-----------|-----|---------|
B|   |---------------------|----------------------|-----|-----------|-----|---------|
G|   |---------------------|----------------------|--4--|--[4]------|-----|---------|
D|4/4|--4-4---4----4-4---4-|-4-4---4----4-4-------|--3--|--[3]------|-----|---------|
A|   |--2-2---2----2-2---2-|-2-2---2----2-2-------|-----|-----------|--4--|-[4]-----|
E|   |--2-2-:-2----2-2-:-2-|-2-2-:-2----2-2-:-----|-----|-----------|--4--|-[4]-----|
B|   |--0-0---0----0-0---0-|-0-0---0----0-0----0--|-----|--------0--|--2--|-[2]--0--|


E|   |---------------------|------------------|-------------------|----------------------||
B|   |---------------------|------------------|-------------------|----------------------||
G|   |---------------------|------------------|-------------------|----------------------||
D|4/4|---------------------|------------------|-------------------|----------------------||
A|   |---------------------|------------------|-3-3---3---3-3---3-|-3-3---3---3-3---3----||
E|   |--------6---------7--|-------6--------7-|-1-1-:-1---1-1-:-1-|-1-1-:-1---1-1-:-1----||
B|   |--5p0-5-----5p0-5----|-5p0-5----5p0-5---|-1-1---1---1-1---1-|-1-1---1---1-1---1s0--||End of (Rhy.Fig.3)

VERSE 3

E|   ||-------------|
B|   ||-------------|
G|   ||-------------|
D|2/4||-------------|
A|   ||---2-2-------|
E|   ||---2-2-:-----|
B|   ||---0-0-------|

        . . .    . . .    . . .    . . .
E|   |-------------------------------------|
B|   |-------------------------------------|
G|   |-------------------------------------|
D|4/4|--4-4-4----4-4-4----4-4-4----4-4-4---|
A|   |--2-2-2----2-2-2----2-2-2----2-2-2---|
E|   |--2-2-2-:--2-2-2-:--2-2-2-:--2-2-2-:-|
B|   |--0-0-0----0-0-0----0-0-0----0-0-0---|

        . . .    . . .    . . .    . . .
E|   |-------------------------------------||
B|   |-------------------------------------||
G|   |-------------------------------------||
D|4/4|--4-4-4----4-4-4----4-4-4----4-4-4---||
A|   |--2-2-2----2-2-2----2-2-2----2-2-2---||
E|   |--2-2-2-:--2-2-2-:--2-2-2-:--2-2-2-:-||
B|   |--0-0-0----0-0-0----0-0-0----0-0-0---||


W/Rhy.Fig.2

          . . .      . .     .   .     . .
E|    ||--------------------------------------|
B|    ||--------------------------------------|
G|    ||--------------------------------------|
D|12/8||--4-4-4------4-4-----4---4-----4-4----|
A|    ||--2-2-2------2-2-----2---2-----2-2----|
E|    ||--2-2-2----:-2-2-----2-:-2-----2-2-:--|
B|    ||--0-0-0------0-0-----0---0-----0-0----|


         . . .      . .     .   .     . .
E|    |--------------------------------------|
B|    |--------------------------------------|
G|    |--------------------------------------|
D|12/8|--4-4-4------4-4-----4---4-----4-4----|
A|    |--2-2-2------2-2-----2---2-----2-2----|
E|    |--2-2-2----:-2-2-----2-:-2-----2-2-:--|
B|    |--0-0-0------0-0-----0---0-----0-0----|

         . . .      . .     .   .     . .
E|    |--------------------------------------|
B|    |--------------------------------------|
G|    |--------------------------------------|
D|12/8|--------------------------------------|
A|    |--5-5-5------5-5-----5---5-----5-5----|
E|    |--5-5-5----:-5-5-----5-:-5-----5-5-:--|
B|    |--3-3-3------3-3-----3---3-----3-3----|

         . . .      . .
E|    |----------------------------------------|
B|    |----------------------------------------|
G|    |----------------------------------------|
D|12/8|----------------------------------------|
A|    |--5-5-5------5-5-----5s7-------7-[7]----|
E|    |--5-5-5----:-5-5-----5s7-:-----7-[7]-:--|
B|    |--3-3-3------3-3-----3s5-------5-p0-----|

         . . .      . .     .   .     . .
E|    |--------------------------------------|
B|    |--------------------------------------|
G|    |--------------------------------------|
D|12/8|--4-4-4------4-4-----4---4-----4-4----|
A|    |--2-2-2------2-2-----2---2-----2-2----|
E|    |--2-2-2----:-2-2-----2-:-2-----2-2-:--|
B|    |--0-0-0------0-0-----0---0-----0-0----|

         . . .      . .     .   .     . .
E|    |--------------------------------------|
B|    |--------------------------------------|
G|    |--------------------------------------|
D|12/8|--4-4-4------4-4-----4---4-----4-4----|
A|    |--2-2-2------2-2-----2---2-----2-2----|
E|    |--2-2-2----:-2-2-----2-:-2-----2-2-:--|
B|    |--0-0-0------0-0-----0---0-----0-0----|

         . . .      . .     .   .     . .
E|    |--------------------------------------||
B|    |--------------------------------------||
G|    |--------------------------------------||
D|12/8|--------------------------------------||
A|    |--3-3-3------3-3-----3---3-----3-3----||
E|    |--1-1-1----:-1-1-----1-:-1-----1-1-:--||
B|    |--1-1-1------1-1-----1---1-----1-1----||


CHORUS:

             . .           . .        . .
E|   ||--------------------------------------|
B|   ||--------------------------------------|
G|   ||--------------------------------------|
D|4/4||--2---------5--4----------------------|
A|   ||--2---------2--2----------------------|
E|   ||--0---0-0---0--0----0-0---2p0--0-0----|
B|   ||--------------------------------------|
       it's time for me to deal........


           . .         . .        . .
E|   |--------------------------------------|
B|   |--------------------------------------|
G|   |--------------------------------------|
D|4/4|--2-----------------------------------|
A|   |--2-------5s7----------5s4------------|
E|   |--0--0-0--5s7----0-0---3s2--0-0-------|
B|   |----------3s5-------------------------|

           . .          . .  .  .  .  .            .   . .    . .    . .
E|   |-----------------------------------|----------------------------------|
B|   |-----------------------------------|----------------------------------|
G|   |-----------------------------------|----------------------------------|
D|4/4|--2--------------------------------|----------------------------------|
A|   |--2--------8--7--------------------|----------------------------------|
E|   |--0--0-0---6--5---0-0--5--3--------|-7s5---7-----7-7-:--7-7-:--7-7----|
B|   |-----------6--5--------------6--3--|-5s3---5-x---5-5----5-5----5-5----|


                    . .     . .     . .           .   . .     . .    . .
E|   |----------------------------------|-----------------------------------|
B|   |----------------------------------|-----------------------------------|
G|   |----------------------------------|-----------------------------------|
D|4/4|--8s7-----------------------------|-----------------------------------|
A|   |--8s7---8-------------------------|-----------------------------------|
E|   |--6s5---6-:---7-7-:---7-7-:---7-7-|-8s7--8--x---7-7-:---7-7-:--7-7----|
B|   |--6s5---6-----5-5-----5-5-----5-5-|-6s5--6--x---5-5-----5-5----5-5----|


E|   |------------------------------|---------------------------||
B|   |------------------------------|---------------------------||
G|   |------------------------------|---------------------------||
D|4/4|------------------------------|---------------------------||
A|   |------------------------------|--------------------5------||
E|   |--7s5---7--0--7---0-0--8---0--|--7s5--7---0--7-----5------||
B|   |--5s3---5--0--5---0-0--6---0--|--5s3--5---0--5--0--3------||
                                       look in the mirror my.....

BRIDGE:

E|   ||---2------------|---0------------|--0---------------|
B|   ||---3------------|---0------------|--6---------------|
G|   ||---6------------|---3------------|--7---------------|
D|4/4||---4------------|---4------------|--7---------------|
A|   ||---2------------|---4------------|--5---------------|
E|   ||----------------|----------------|------------------|
B|   ||----------------|----------------|------------------|
          <<<<<<<<        
     <<<<<<<<<<<<


E|   |---7----------|----------------|---4----4---------|
B|   |---7----------|----------5-----|---5-------5------|
G|   |---7----------|--4---------4---|---6--------------|
D|4/4|---9----------|--3-------------|------------------|
A|   |--------------|----------------|------------------|
E|   |--------------|----------------|------------------|
B|   |--------------|----------------|------------------|
         <<<<<<<<     Clean....

E|   |--3--3-------|--6---------|
B|   |--3-----3----|--5---5-----|
G|   |--5----------|--0-----5---|
D|4/4|--5----------|--5---------|
A|   |--3----------|--5---------|
E|   |-------------|------------|
B|   |-------------|------------|


  /
 |
 | Gtr 1
 | E|   |---------------------------------------|-------------------------------------------|
 | B|   |---------------------------------------|-------------------------------------------|
 | G|   |-----6--------------------6------------|-----6------------------6------------------|
 | D|4/4|---4--------------------4--------------|---4------------------4--------------------|
 | A|   |-2--------------------2----------------|-2------------------2----------------------|
 | E|   |---------------------------------------|-------------------------------------------|
 | B|   |---------------------------------------|-------------------------------------------|
 |
 |
 |
 |  Gtr 2
 | E|   |----------0--------------------0-------|----------0--------------------0-----------|
 | B|   |-------3-----3---------------3---3-----|--------3---3----------------3---3---------|
 | G|   |---------------6-------------------6---|--------------6--------------------6-------|
 | D|4/4|-----------------4-------------------4-|----------------4--------------------4-----|
 | A|   |---------------------------------------|-------------------------------------------|
 | E|   |---------------------------------------|-------------------------------------------|
 | B|   |---------------------------------------|-------------------------------------------|
 |
 |
 |
  \

  /
 |
 | Gtr 1
 | E|   |-----------------------------------------------|-----------------------------------------------|
 | B|   |-----------------------------------------------|-----------------------------------------------|
 | G|   |-----7-----------------------7-----------------|-----7----------------------9-------------(9)s-|
 | D|4/4|---7-----------------------7-------------------|---7----------------------9--------------------|
 | A|   |-5-----------------------5---------------------|-5----------------------7----------------------|
 | E|   |-----------------------------------------------|-----------------------------------------------|
 | B|   |-----------------------------------------------|-----------------------------------------------|
 |
 |
 |
 |  Gtr 2
 | E|   |----------0------------------------0-----------|------------0-----------------------0---------|
 | B|   |-------8------------------------8--------------|----------8----------------------------0------|
 | G|   |--------------10---------------------10--------|--------------10-------------------------9----|
 | D|4/4|-----------------12----------------------12----|-----------------12--------------9---------9--|
 | A|   |--------------------12----------------------12-|--------------------12------------------------|
 | E|   |-----------------------------------------------|----------------------------------------------|
 | B|   |-----------------------------------------------|----------------------------------------------|
 |
 |
 |
  \

  /
 |
 | Gtr 1
 | E|   |---------------------------------------|-------------------------------------------|
 | B|   |---------------------------------------|-------------------------------------------|
 | G|   |-----6--------------------6------------|-----6------------------6------------------|
 | D|4/4|---4--------------------4--------------|---4------------------4--------------------|
 | A|   |-2--------------------2----------------|-2------------------2----------------------|
 | E|   |---------------------------------------|-------------------------------------------|
 | B|   |---------------------------------------|-------------------------------------------|
 |
 |
 |
 |  Gtr 2
 | E|   |----------0--------------------0-------|----------0--------------------0-----------|
 | B|   |-------3-----3---------------3---3-----|--------3---3----------------3---3---------|
 | G|   |---------------6-------------------6---|--------------6--------------------6-------|
 | D|4/4|-----------------4-------------------4-|----------------4--------------------4-----|
 | A|   |---------------------------------------|-------------------------------------------|
 | E|   |---------------------------------------|-------------------------------------------|
 | B|   |---------------------------------------|-------------------------------------------|
 |
 |
 |
  \


  /
 |
 | Gtr 1
 | E|   |-------------------------------------------------|-------0----------------------3-------|
 | B|   |-------------------------------------------------|-3---3----------------------7---5-----|
 | G|   |-0-----0-----------------0----0------------------|---0------------------------7---5-----|
 | D|4/4|---------7----------------------7----------------|--------------------------------------|
 | A|   |-------------------------------------------------|-3------------------------------------|
 | E|   |----8-----------------------8--------------------|--------------------------------------|
 | B|   |-6-----------------------6-----------------------|--------------------------------------|
 |
 |
 |
 |  Gtr 2
 | E|   |-------------1------------------------1----------|-------------0------------------9-----|
 | B|   |-----------1---1--------------------1---1--------|-----------3---3----------------8-----|
 | G|   |-----------------0---0--------------------0---0--|-----------------0--------------9-----|
 | D|4/4|-------------------3------------------------3----|-------------------6------------------|
 | A|   |-------------------------------------------------|--------------------------------------|
 | E|   |-------------------------------------------------|--------------------------------------|
 | B|   |-------------------------------------------------|--------------------------------------|
 |
 |
 |
  \

  /
 |
 | Gtr 1
 | E|   |-----------------------------------------------|------------------------------------------------|
 | B|   |-8--------------------8------------------------|-8-------------------------8--------------------|
 | G|   |---11-------------------11---------------------|---11------------------------11-----------------|
 | D|4/4|------9--------------------9-------------------|------9-------------------------9---------------|
 | A|   |-----------------------------------------------|------------------------------------------------|
 | E|   |-----------------------------------------------|------------------------------------------------|
 | B|   |-----------------------------------------------|------------------------------------------------|
 |          Reflections of reality......
 |
 |
 |  Gtr 2
 | E|   |-----------------0----------------------0------|-----------------0---------------------------0--|
 | B|   |---------------0----------------------0--------|---------------0---------------------------0----|
 | G|   |-----------4----------------------4------------|----------4----------------------------4--------|
 | D|4/4|---------4---4------------------4---4----------|--------4---4------------------------4---4------|
 | A|   |-----------------------------------------------|------------------------------------------------|
 | E|   |-----------------------------------------------|------------------------------------------------|
 | B|   |-----------------------------------------------|------------------------------------------------|
 |
 |
 |
  \


  /
 |
 | Gtr 1
 | E|   |------------------------------------------------|------------------------------------0----------0----|
 | B|   |-10-----------------------10--------------------|-10------------------------------14-----------------|
 | G|   |----12-----------------------12-----------------|----12------------------------14----------12h14-----|
 | D|4/4|-------12-----------------------12--------------|------12--------------------------------------------|
 | A|   |------------------------------------------------|----------------------------------------------------|
 | E|   |------------------------------------------------|----------------------------------------------------|
 | B|   |------------------------------------------------|----------------------------------------------------|
 |          Reflections of reality......
 |
 |
 |  Gtr 2
 | E|   |-------------------10-----------------------10--|-10-------------------10------------0---------------|
 | B|   |----------------10-----------------------10-----|-10----------------10-----------------0-------------|
 | G|   |------------12------------------------12--------|----------12----12----------------------14----14----|
 | D|4/4|---------12------------------------12-----------|-------------12-----------14---------------12-------|
 | A|   |------------------------------------------------|----------------------------------------------------|
 | E|   |------------------------------------------------|----------------------------------------------------|
 | B|   |------------------------------------------------|----------------------------------------------------|
 |
 |
 |
  \


 /
|
|   Gtrs 1&2 tacet:
|
|
|   Gtr 3:
|
|   G/B            Bm                      G/B              Bm                    G/B           Bm       G/B  Bm
|   How  in  the  hell_____ could you pos    -     sib   -   ly____ for -  give__________    me______
|
|
|   F2    F     F2       F              C9/G     C/G    C9/G      C/G
|               Af - ter all__ the hell_____ I   put___ you_____ through________?|
|
|
|
|   Gtr 1
|   E|   |-------------------------------------------------------------------------||
|   B|   |-------------------------------------------------------------------------||
|   G|   |-------------------------------------------------------------------------||
|   D|4/4|-------------------------------------------------------------------------||
|   A|   |-------------------------------------------------------------------------||
|   E|   |---------------------------------------------------------------3---------||
|   B|   |---------------------------------------------------------------1---------||
|
 \


CHORUS 2:

             . .           . .        . .
E|   ||--------------------------------------|
B|   ||--------------------------------------|
G|   ||--------------------------------------|
D|4/4||--2---------5--4----------------------|
A|   ||--2---------2--2----------------------|
E|   ||--0---0-0---0--0----0-0---2p0--0-0----|
B|   ||--------------------------------------|
       it's time for me to deal........


           . .         . .        . .
E|   |--------------------------------------|
B|   |--------------------------------------|
G|   |--------------------------------------|
D|4/4|--2-----------------------------------|
A|   |--2-------5s7----------5s4------------|
E|   |--0--0-0--5s7----0-0---3s2--0-0-------|
B|   |----------3s5-------------------------|

           . .          . .  .  .  .  .            .   . .    . .    . .
E|   |-----------------------------------|----------------------------------|
B|   |-----------------------------------|----------------------------------|
G|   |-----------------------------------|----------------------------------|
D|4/4|--2--------------------------------|----------------------------------|
A|   |--2--------8--7--------------------|----------------------------------|
E|   |--0--0-0---6--5---0-0--5--3--------|-7s5---7-----7-7-:--7-7-:--7-7----|
B|   |-----------6--5--------------6--3--|-5s3---5-x---5-5----5-5----5-5----|


                    . .     . .     . .           .   . .     . .    . .
E|   |----------------------------------|-----------------------------------|
B|   |----------------------------------|-----------------------------------|
G|   |----------------------------------|-----------------------------------|
D|4/4|--8s7-----------------------------|-----------------------------------|
A|   |--8s7---8-------------------------|-----------------------------------|
E|   |--6s5---6-:---7-7-:---7-7-:---7-7-|-8s7--8--x---7-7-:---7-7-:--7-7----|
B|   |--6s5---6-----5-5-----5-5-----5-5-|-6s5--6--x---5-5-----5-5----5-5----|


                                                .     . .
E|   |------------------------------|-----------------------------|
B|   |------------------------------|-----------------------------|
G|   |------------------------------|-----------------------------|
D|4/4|------------------------------|-----------------------------|
A|   |------------------------------|----------------------5------|
E|   |--7s5---7--0--7---0-0--8---0--|--7s5--7------7-------5------|
B|   |--5s3---5--0--5---0-0--6---0--|--5s3--5---0--5--0-0--3------|
                                               I'll never hurt you________


                                                          \-4
E|   |-------|-------|--3-|-[3]--|----|------|-3--|--------\--------|
B|   |-------|-------|--3-|-[3]--|----|------|-3--|---------\-------|
G|   |-------|-------|--0-|-[0]--|----|------|-0--|--0-------\------|
D|4/4|--4----|--[4]--|--0-|-[0]--|-4--|--[4]-|-0--|-----------------|
A|   |--2----|--[2]--|--x-|-[x]--|-2--|--[2]-|-x--|-----------------|
E|   |--2----|--[2]--|--3-|-[3]--|-2--|--[2]-|-3--|-----------------|
B|   |--0----|--[0]--|----|------|-0--|--[0]-|----|-----------------|
______again.......

E|   |-----|-------|---------|---------|-------|---------|
B|   |-----|-------|---------|---------|-------|---------|
G|   |-----|-------|---------|---------|-------|---------|
D|4/4|---4-|-[4]---|--[4]----|--[4]----|-[4]---|--[4]----|
A|   |---2-|-[2]---|--[2]----|--[2]----|-[2]---|--[2]----|
E|   |---2-|-[2]---|--[2]----|--[2]----|-[2]---|--[2]----|
B|   |---0-|-[0]---|--[0]----|--[0]----|-[0]---|--[0]----|

                                 gradually fade in                        fdbk_w/bar
E|   |-------|-------|-------|---------------------------|-----|----------12-----------|
B|   |-------|-------|-------|---------------------------|-----|-----------------------|
G|   |-------|-------|-------|---------------------------|-----|-----------------------|
D|4/4|-........keyboard.....-|-------------------------4-|-[4]-|-[4]-------------------|
A|   |-------|-------|-------|-------------------------2-|-[2]-|-[2]-------------------|
E|   |-------|-------|-------|-------------------------2-|-[2]-|-[2]-------------------|
B|   |-------|-------|-------|-------------------------0-|-[0]-|-[0]-------------------|


             gradually dive                                gradually dive
              w/bar                                        w/bar
             \-3                                            \-3 -3  1/2--------------------------|
E|   |--------\------------|--------------------|------------\-|---/-----------------------------|
B|   |---------\-----------|--------------------|-------------\|--/------------------------------|
G|   |----------\----------|--------------------|--------------|\/--------<12>--<7>--|
D|4/4|--[4]-----------<5>--|-(5)----<5>----<5>--|--(5)---(5)---|-(5)-----------|
A|   |--[2]---------<4>----|-----<4>----<4>-----|--------------|---------------|
E|   |--[2]----------------|--------------------|--------------|---------------------------------|
B|   |--[0]----------------|--------------------|--------------|---------------------------------|


                                    /
               \-3     1/2      ___/         \w/bar
E|   |------|---\-------_______/--------------\--------------------|
B|   |------|----\_____/-----------------------\-------------------|
G|   |--(7)-|--(7)-----<2>----------------------\------------|
D|4/4|------|------------------------------------\-----------------|
A|   |------|-------------------------------------\----------------|
E|   |------|--------------------------------------\---------------|
B|   |------|-------------------------------0----------------------|


            w/bar    gradually dives
           _______
        +2/       \_____ -6
E|   |---/--------------\______---------------------------|
B|   |-------------------------\_____---------------------|
G|   |---------2.5-------2--------------------------------|
D|4/4|----------------------------------------------------|
A|   |----------------------------------------------------|
E|   |-------------\__------------------------------------|
B|   |---0------------\__---------------------------------|
                    -6   \___________

End:0
                .        .              .  .   .  .   .  .
E|   |---------------------------|------------------------------|
B|   |---------------------------|------------------------------|
G|   |---------------------------|------------------------------|
D|4/4|---------------------------|------------------------------|
A|   |------5------5--4-----4----|-[4]-----4-------4-----5------|
E|   |--2---3---0--3--2--0--2----|-[2]-----2---0---2--0--3------|
B|   |--0---3---0--3--2--0--2----|-[2]--0--2---0---2--0--3------|


               .       .           .     .
E|   |----------------------|----------------------------|
B|   |----------------------|----------------------------|
G|   |----------------------|----------------------------|
D|4/4|----------------------|----------------------------|
A|   |------5-----5-4----4--|--[4]----5------5--4--3-----|
E|   |---2--3-----3-2----2--|--[2]----3------3--2--1-----|
B|   |---0-----0-------0----|------0-----0---------------|


               .         .              .  .  .  .  .  .
E|   |-------------------------|--------------------------|
B|   |-------------------------|--------------------------|
G|   |-------------------------|--------------------------|
D|4/4|-------------------------|--------------------------|
A|   |-----5-------5--4-----4--|---[4]-----4-----4-----5--|
E|   |--2--3---0---3--2--0--2--|---[2]-----2--0--2--0--3--|
B|   |--0--3---0---3--2--0--2--|---[2]--0--2--0--2--0--3--|


                .          .             .     .
E|   |---------------------------|--------------------------||
B|   |---------------------------|--------------------------||
G|   |---------------------------|--------------------------||
D|4/4|---------------------------|--------------------------||
A|   |------5-------5--4------4--|--[4]-----5-----5--4--3---||
E|   |--2---3---0---3--2---0--2--|--[2]--0--3-----3--2--1---||
B|   |--0---3---0---3--2---0--2--|--[2]--0--3--0--3--2--1---||

                                                    gradual bend
E|   ||---------------------------------|----------------------------------||
B|   ||---------------------------------|----------------------------------||
G|   ||---------------------------------|-------0--------------------------||
D|4/4||*--------------------------------|-------3b(1/2)-------------------*||play 4 times, then segue to "LIE"
A|   ||*--------------------------------|---------------------------------*||
E|   ||---------------------------------|----------------------------------||
B|   ||--0----2p0-------3b(1)--------0--|-(0)------------------------------||

-------------------------------------------------------------------------

8. LIE
Tuning - B,E,A,D,G,B,E

Rhy. Fig. 1 (one 4/4 bar):
 (4/4) PM----|    PM---------------------------------------------|
E |--------------------------------------------------------------|
B |--------------------------------------------------------------|
D |--------------------------------------------------------------|
A |--------------------------------------------------------------|
E |-2-----------2--------5-----------7-------7---8---7---5-------|
B |-0--0--0--0--0--0--0--3-----------5-------5---6---5---3-------|

Riff A (one 4/4 bar):
                        A.H.
E |-----------------------------------------|
B |-----------------------------------------|
G |-----------------------------------------|
D |-----------------------------------------|
A |-----------------------------------------|
E |--------------P-------B------------------|
B |-0-----0--0--2^0--0--3^(6)--3/\/\/\/\----|

Rhy. Fig 2 (four 4/4 bars)
    PM---------------------|          PM--------------------------------|
E |---------------------------------|-----------------------------------|
B |---------------------------------|-----------------------------------|
G |---------------------------------|-----------------------------------|
D |---------------------------------|-----------------------------------|
A |---------------------------------|-----------------------------------|
E |---------------------------------|-----------------------------------|
B |-0-x-x-0-x-x-0-3---3-5-3-5-6-5-3-|-0-x-x-0-x-x-0-3---3-5-3-5-6-5-3---|

    PM------------------------------------------------------------------|
E |---------------------------------|-----------------------------------|
B |---------------------------------|-----------------------------------|
G |---------------------------------|-----------------------------------|
D |---------------------------------|-----------------------------------|
A |---------------------------------|------------------------------H----|
E |---------------------------------|-------------2---5-5---5-----5^7---|
B |-0-x-x-0-x-x-0-3---3-5-3-5-6-5-3-|-0-x-x-0-x-x--/7-----7-----7-------|

Rhy. Fill 1 (one 4/4 bar)

E |----------------------------------|
B |----------------------------------|
G |----------------------------------|
D |----------------------------------|
A |-------------------------------H--|
E |------------------5-5---5-----5^7-|
B |-0-0-0-0-0-0-0-/7-----7-----7-----|

Rhy. Fig 3 (two 4/4 bars)
                        PM-|                                 PM-|
E |---------------------------------|---------------------------------|
B |---------------------------------|---------------------------------|
G |---------------------------------|---------------------------------|
D |---------------------------------|---------------------------------|
A |---------------------------------|---------------------------------|
E |-7-5-7-------7-----------8-------|-7-5-7--------7-------------5----|
B |-5-3-5-----0-5-------0-0-6-------|-5-3-5------0-5---------0-0-3----|

Rhy. Fig 3A (two 4/4 bars)

E |---------------------------------|---------------------------------|
B |---------------------------------|---------------------------------|
G |---------------7---9-7-9-10-9-7--|--H------------7----9-7-9-10-9-7-|
D |---------9-----7---9-7-9-10-9-7--|-7^9-----9-----7----9-7-9-10-9-7-|
A |-7/9-----9-----------------------|-7^9-9-9-9-9-9-------------------|
E |-5/7-7-7-7-7-7-------------------|---------------------------------|
B |---------------------------------|---------------------------------|

Rhy. Fig 4 (two 4/4, one 2/4, one 5/8, one 7/8 bar)

  (4/4)                 PM---|                              PM---------|
E |---------------------------------|----------------------------------|
B |---------------------------------|----------------------------------|
G |---------------------------------|----------------------------------|
D |---------------------------------|----------------------------------|
A |---------------------------------|----------------------------------|
E |-2-2-2-----2---2-2-2-------------|-2-2-2-----2---2-2-2--------------|
B |-0-0-0-----0---0-0-0---0-3-5-3---|-0-0-0-----0---0-0-0---0-3-5-6\---|

  (2/4)             (5/8)   PM---|    PM-------------------------------------| (7/8)
E |-----------------|---------------------|----------------------------------|
B |-----------------|---------------------|----------------------------------|
G |-----------------|---------------------|----------------------------------|
D |-----------------|---------------------|----------------------------------|
A |-----------------|---------------------|---------------------------H--0---|
E |-2-2-2-----2---2-|-2-2-----------------|-4------------------------0^2-----|
B |-0-0-0-----0---0-|-0-0---0-3-5-3---0-3-|-2--------------------------------|

Bridge (twenty-four 6/8, three 4/4, one 7/8, three 4/4, one 6/8 bar)
  (6/8)
E |-------|-------|-------|-------|-------|-------|-------|-------|
B |-3-----|-(3)---|-(3)---|-(3)---|-(3)---|-(3)---|-------|-------|
G |-2-----|-(2)---|-(2)---|-(2)---|-(2)---|-(2)---|-------|-------|
D |-0-----|-(0)---|-(0)---|-(0)---|-(0)---|-(0)---|-------|-------|
A |-0-----|-(0)---|-(0)---|-(0)---|-(0)---|-(0)---|-------|-------|
E |-------|-------|-------|-------|-------|-------|-------|-------|
B |-------|-------|-------|-------|-------|-------|-------|-------|

E |-------------|----------------|-------------|------------------|
B |-------------|----------------|-------------|------------------|
G |-------------|----------------|-------------|------------------|
D |-------------|----------------|-------------|------------------|
A |-------------|----------------|-------------|---------P------3-|
E |----1--3~----|----1--3--H--1--|----1--3~----|----1-1-3^1-3/5---|
B |-3~-------1--|-3~------1^3----|-3~-------1--|-3~---------------|

E |-------------|----------------|-------------|------------------|
B |-------------|----------------|-------------|------------------|
G |-------------|----------------|-------------|------------------|
D |-------------|----------------|-------------|------------------|
A |-------------|----------------|-------------|---------P------3-|
E |----1--3~----|----1--3--H--1--|----1--3~----|----1-1-3^1-3/5---|
B |-3~-------1--|-3~------1^3----|-3~-------1--|-3~---------------|

E |-------------|----------------|-------------|------------------|
B |-------------|----------------|-------------|------------------|
G |-------------|----------------|-------------|------------------|
D |-------------|----------------|-------------|---------P------5-|
A |----3--5~----|----3--5--H--3--|----3--5~----|----3-3-5^3-5/7---|
E |-5~-------3--|-5~------3^5----|-5~-------3--|-5~---------------|
B |-------------|----------------|-------------|------------------|

E |-------------|----------------|-------------|------------------|
B |-------------|----------------|-------------|------------------|
G |-------------|----------------|-------------|------------------|
D |-------------|----------------|-------------|------------------|
A |-------------|----------------|-------------|---------P------7-|
E |----5--7~----|----5--7--H--5--|----5--7~----|----5-5-7^5-7/9---|
B |-7~-------5--|-7~------5^7----|-7~-------5--|-7~---------------|

  (4/4)                                             (7/8) PM--|    PM----------|
E |-----------------|--------------|-----------------|-------------------------|
B |-----------------|--------------|-----------------|-------------------------|
G |-----------------|--------------|-----------------|-------------------------|
D |-----------------|--------------|-----------------|-------------------------|
A |-----------------|--------------|-----------------|-------------------------|
E |-2-----5---------|-2-----7---8\-|-2-----5---B-----|-9--------8--------------|
B |-0-----3---/12\--|-0-----5---6\-|-0-----3--7^(10)-|-7--0--0--6--0--0--3-2---|

  (4/4)                                             (6/8) PM--|    PM-----|
E |-----------------|--------------|-----------------|--------------------|
B |-----------------|--------------|-----------------|--------------------|
G |-----------------|--------------|-----------------|--------------------|
D |-----------------|--------------|-----------------|--------------------|
A |-----------------|--------------|-----------------|--------------------|
E |-2-----5---------|-2-----7---8\-|-2-----5---B-----|-9--------8---------|
B |-0-----3---/12\--|-0-----5---6\-|-0-----3--7^(10)-|-7--0--0--6--0--0---|

Rhy. Fig 5 (two 4/4 bars)
NOTE: All notes are sixteenth notes, % indicates a 16th rest.  They've been
      noted here to make this complex passage easier to learn.
  (4/4)
E |---------------------------------|---------------------------------|
B |---------------------------------|---------------------------------|
G |---------------------------------|---------------------------------|
D |---------------------------------|---------------------------------|
A |---------------------------------|---------------------------------|
E |---2-2-----2---2-2-2-----2-2-----|-2-2-2-----2---2-2-2---2---2-2-2-|
B |-%-0-0-%-%-0-%-0-0-0-%-%-0-0-%-%-|-0-0-0-%-%-0-%-0-0-0-%-0-%-0-0-0-|

Guitar Solo Rhythm Guitar, section 2: (eight 4/4 bars)
NOTE: % are sixteenth rests, some notes are non-sixteenth.

   PM--------------------------|      PM--------------------------------|
E |---------------------------------|-----------------------------------|
B |---------------------------------|-----------------------------------|
G |---------------------------------|-----------------------------------|
D |---------------------------------|-----------------------------------|
A |---------------------------------|-----------------------------------|
E |-2-2-2-----2---2-2-2-------------|-2-2-2-----2---2-2-2---------------|
B |-0-0-0-%-%-0-%-0-0-0-%-0-3-5-3---|-0-0-0-%-%-0-%-0-0-0-%-0-3-5-3-----|

    PM------------------------------------------------------------------|
E |---------------------------------|-----------------------------------|
B |---------------------------------|-----------------------------------|
G |---------------------------------|-----------------------------------|
D |---------------------------------|-----------------------------------|
A |---------------------------------|-----------------5-----7---9-7-5---|
E |-2-2-2-----2---2-2-2-------------|-----5-----7-----------------------|
B |-0-0-0-%-%-0-%-0-0-0-%-0-3-5-3---|-5/7-------------------------------|

E |---------------------------------|---------------------------------|
B |---------------------------------|---------------------------------|
G |---------------------------------|---------------------------------|
D |---------------------------------|---------------------------------|
A |---------------------------------|---------------------------------|
E |-2-2-2-----2---2-2-2-------------|-------------5---------------5---|
B |-0-0-0-%-%-0-%-0-0-0-%-0-3-5-3---|-0-3-5-3-0-3-3---0-3-5-3-0-3-3---|

                                                        PM---|  PM------|
E |---------------------------------|-----------------------------------|
B |---------------------------------|-----------------------------------|
G |---------------------------------|-----------------------------------|
D |---------------------------------|-----------------------------------|
A |---------------------------------|-5-5-5-----5---5-7-------7---------|
E |-7-7-7-----7---7-7-7---7---7-7-7-|-3-3-3-%-%-3-%-3-5-5-5-5-5-5-5-5---|
B |-5-5-5-%-%-5-%-5-5-5-%-5---5-5-5-|-----------------------------------|

Guitar solo (thirteen 4/4 bars)
NOTE: bars too dense to fit on one line are broken into two lines - the first
      line beats 1 and 2, the second line beats 3 and 4; no bars lines
      begin/end these lines.

E |---------------------------------------------------------------------|
B |---------------------------------------------------------------------|
G |---------------------------------------------------------------------|
D |---------------------------------------------------------------------|
A |---------------------------------------------------------------------|
E |--H-P-P-H-H-P-P-H-H-P-P-H-H-P-P-H-H-P-P---H-P-H-H-P-----------P-H-H--|
B |-3^5^3^2^3^5^3^2^3^5^3^2^3^5^3^2^3^5^3^2/3^5^3^5^7^3---------5^3^5^7-|


E |--------------------------------------------------------------------H--H|
B |----------------------------------------------H-H-P-H----P-P-H-H---9^10^|
G |------------------------------------H---H-H--6^7^9^7^9/11^9^7^9^11------|
D |------------H-H-P-P---H-H-P-P-H-H--7^9-6^7^9----------------------------|
A |--H-H-P-H--4^5^7^5^4/5^7^9^7^5^7^9--------------------------------------|
E |-4^5^7^5^7--------------------------------------------------------------|
B |------------------------------------------------------------------------|

                   H  H  P  P    H  H  P  P  T  P  T  P  P  P  T  P  T
E |H--P--P-H--H---9^10^12^10^9/10^12^14^12^10^16^14^16^14^12^10^17^14^--|
B |^12^10^9^10^12-------------------------------------------------------|
G |---------------------------------------------------------------------|
D |---------------------------------------------------------------------|
A |---------------------------------------------------------------------|
E |---------------------------------------------------------------------|
B |---------------------------------------------------------------------|

   T  P  P  P  H  P  T  P  T  P  P  T  P  T  P  T  P  T  P  T  P
E -^17^14^12^10^12^10^16^14^16^14^12^16^10^16^14^16^12^16^10^16^|
B --------------------------------------------------------------|
G --------------------------------------------------------------|
D --------------------------------------------------------------|
A --------------------------------------------------------------|
E --------------------------------------------------------------|
B --------------------------------------------------------------|

   P T  P  T  P  T  P T  P T  P  T  P T  P
E |^9^16^12^16^10^16^9^14^7^14^10^14^9^14^7-T--P--T--P-T--P------------------|
B |-----------------------------------------^14^10^14^9^14^7-T--P--T--P-H-P--|
G |----------------------------------------------------------^14^10^14^7^9^7-|
D |--------------------------------------------------------------------------|
A |--------------------------------------------------------------------------|
E |--------------------------------------------------------------------------|
B |--------------------------------------------------------------------------|

                                           B            B    B        B
E |--B----------B------|---B--------|-7-^(7)-----9-^(9)--|-10^(10)--12^(12)--|
B |-7^(7)-----9-^(9)---|-10^(10)----|-10^(12)~~~-12^(14)-|-13^(15)~-15^(17)~-|
G |-9^(11)~~~-11^(13)--|-12^(14)~~~-|--------------------|-------------------|
D |--------------------|------------|--------------------|-------------------|
A |--------------------|------------|--------------------|-------------------|
E |--------------------|------------|--------------------|-------------------|
B |--------------------|------------|--------------------|-------------------|

                             P     P           P        H  P
E |---B-------B---------14-19^14-17^14----14-16^14----13^14^13-------------|
B |-17^(19)-17^(19)/\/\----------------18----------18----------17-16-15-14-|
G |------------------------------------------------------------------------|
D |------------------------------------------------------------------------|
A |------------------------------------------------------------------------|
E |------------------------------------------------------------------------|
B |------------------------------------------------------------------------|

E |-16-17-16-14-----------------------------------------|
B |-------------17-16-15-14----14-15-17-15-14-----------|
G |-------------------------17----------------16-14-13--|
D |-----------------------------------------------------|
A |-----------------------------------------------------|
E |-----------------------------------------------------|
B |-----------------------------------------------------|

E -------------------------------------------------|
B -------------------------------------------------|
G -16-14-13----14-13----------13----------11-------|
D ----------16-------16-15-14----16-14-12----14-12-|
A -------------------------------------------------|
E -------------------------------------------------|
B -------------------------------------------------|

E |----------------------------------------------|
B |----------------------------------------------|
G |-------------------------------------------14-|
D |-------11-14-12-11-------------------14-16----|
A |----12-------------14-13-12-11-14/16----------|
E |-14-------------------------------------------|
B |----------------------------------------------|

E ----------------------------------------|
B -14-15-16-17/19----------15-------------|
G ----------------16-(16)\----14-14-------|
D ----------------------------------14----|
A -------------------------------------14-|
E ----------------------------------------|
B ----------------------------------------|

                     B    RB      B    RB
E |----------16-16/22^(24)^(22)-21^(24)^(21)-----------|
B |---H--------------------------------------23--------|
G |-14^16-16------------------------------------21-21\-|
D |----------------------------------------------------|
A |----------------------------------------------------|
E |----------------------------------------------------|
B |----------------------------------------------------|

E --------------------------------------------|---------------|
B -----22-------------------------------------|---------------|
G -\19----19\18-------------------------------|---------------|
D --------------19----------19----------------|---------------|
A -----------------21-19\17----17-16-------16-|---------------|
E -----------------------------------17-17----|-19~~~~~~(19)\-|
B --------------------------------------------|---------------|

Fill 1 (three 4/4 bars)

E |-------------------P-----------7-|
B |---------------7--9^7--B-----7---|
G |--H-------P----7--9^7-9^(11)-----|
D |-7^9-9-9-9^7---------------------|
A |-------------9-------------------|
E |---------------------------------|
B |---------------------------------|

E |---B-----7------9-10-9-7--------P---------------------------|-------------|
B |-10^(12)---10-7----------10-7-10^7-9-7--------B-------------|--B----------|
G |----------------------------------------10-7-9^(11)-9-7-----|-9^(12)-7\/\-|
D |--------------------------------------------------------9-7-|-------------|
A |------------------------------------------------------------|-------------|
E |------------------------------------------------------------|-------------|
B |------------------------------------------------------------|-------------|

-----------------------------------------------------------------------

9. LIFTING SHADOWS OFF A DREAM
Tuning - E,A,D,G,B,E

Repeat 6x        natural harmonics
||-----------12--------------|-------------------------------------------||
||--------------------12-----|--------------------------------------7----||
||o--------------------------|-----12--------------------5--------------o||
||o--------------------------|----------------5-------------------------o||
||---------------------------|-------------------------------------------||
||-------7-------------------|-------------------------------------------||

                              1.2.3                         4.
||------------0--------------|----------------0----------||----------0-----|
||------------------0--------|----------3--------3-------||----------------|
||o--------4-----------4-----|-------2--------------2---o||-------4--------|
||o-----4-----------------4--|----0---------------------o||----2-----------|
||---2-----------2-----------|---------------------------||-0-----------0--|
||---------------------------|-3-----------3-------------||----------------|


--------------|
--0-----------|
-----4--------|
--------2-----|
--------------|
--------------|


Verse 1 (Riff A)
           He seems alone and silent                      thoughts reamain
||-----------------------------|-------------------------|-------------------|
||-----2-----------2-----------|-3-----------3-----------|-2-----------2-----|
||o----------4-----------4-----|-------4-----------4-----|-------4---------4-|
||o-------4-----4-----4-----4--|----4-----4-----4-----4--|----4-----4----4--4|
||-----------------------------|-------------------------|-------------------|
||-----------------------------|-------------------------|-------------------|


without an answer   (end riff A)

|------------------------------|
|--5-----------5---------------|
|--------4-----------4---------|
|-----2-----2-----2-----2------|
|------------------------------|
|------------------------------|

Riff A
Afraid and uninvited, he slowly drifts away

Pre-Chorus (Riff B)

               Moved by desire and fear,            breaking
|--------------------------|--------------------------|--------------------|
|--3-----------3-----------|--5-----------5-----------|-8-----------7------|
|--------4-----------4-----|--------4-----------4-----|-------7------------|
|-----4-----4-----4-----4--|-----4-----4-----4-----4--|----5-----5-----5---|
|--------------------------|--------------------------|--------------------|
|--------------------------|--------------------------|--------------------|


         delicate wings.
--------|---------------------------|
--------|--5-----------5------------|
--7-----|--------7-----------7------|  (end Riff B)
-----5--|-----7-----5-----7-----5---|
--------|---------------------------|
--------|---------------------------|


Chorus (Riff C)

         Lifting shadows off a
|---------------------------|-------------------------|
|-10-----8-----7-----8--10--|----8-----7--------------|
|-----7-----7-----7---------|-7-----7-----7--9-----7--|(end Riff C)
|---------------------------|-------------------7-----|continue for chorus
|---------------------------|-------------------------|
|---------------------------|-------------------------|

Dream once broken  She can turn a drop of water
inot an ocean

                                   1.2.3
||----------------------------|---------------------------||
||----------------------------|---------------------------||
||o------------6--7-----6-----|----------6--7-----6------o||
||o---------9--------9-----7--|-------7--------7-----7---o||
||-------9--------------------|----5----------------------||
||----7-----------------------|-3-------------------------||


4.========================
|--------------------------|-------------------------|---------------------|
|--------------5-----------|----------7--8-----7-----|---------------8-----|
|-----------6--------6-----|-------9--------9-----7--|------------11-------|
|--------7--------7-----6--|----9--------------------|--------12--------12-|
|-----7--------------------|-7-----------------------|----10---------------|
|--5-----------------------|-------------------------|-8-------------------|


----------|-------------------------|-------------------------|------------|
----------|-------------------------|-------------3-----------|----------5-|
--11------|----------6--7-----6-----|----------6--------6-----|-------5----|
------12--|-------9--------9-----7--|-------7--------7-----7--|----5-------|
----------|----9--------------------|----5--------------------|-3----------|
----------|-7-----------------------|-3-----------------------|------------|


--------------|--------------------------|--------------------------------|
--7-----5-----|--------------------------|-------------8-----7------------|
-----5-----5--|-----------7--9-----7-----|----------7-----7----7----------|
--------------|--------7--------7-----7--|-------7------------------------|
--------------|-----7--------------------|----5---------------------------|
--------------|--5-----------------------|-3------------------------------|

                           Rhy Fig.1A
                           As the rain is pouring down, tears of sorrow
                                                      wash his mind.
|-------------------------|-------------|---------|-----------|-----------|
|-------------0--------0--|-------------|---------|--3--------|---(3)-----|
|----------0--------0-----|--2----------|---(2)---|--2--------|---(2)-----|
|-------4--------4--------|--4----------|---(4)---|--0--------|---(0)-----|
|----2--------------------|--4----------|---(4)---|--x--------|---(-)-----|
|-0-----------------------|--2----------|---(2)---|--3--------|---(3)-----|

Drifting with the current, this stream of life flows on.       (end Fig.1A)
|-------------|------------|---2------------|-----------------------------|
|-------------|------------|---3------------|-----------------------------|
|-------------|------------|---0------------|----------------2----2-------|
|--2----------|------------|---x------------|----------------2----2-------|
|--2----------|------------|---3------------|----------------0----0-------|
|--0----------|------------|----------------|-----------------------------|


w/Rhy. Figs 1&1A
He seems alone and silent, waiting on his hands
and knees.  Ths chill fo winter's darkness sits
quietly.
Moved by desire   (pre-chorus) Riff B
and fear, he takes a few steps away
Lifting shadows off a dream once broken (Chorus) Riff C
She can turn a drop of water into an ocean
And she listens.  Whoa, whoa.  (Bridge) Riff D (6x)
Oh, and she listens openly

Riff D
|-----------------------------|
|-----------------------------|
|-----------------7-----6-----|
|-----5--5--7--7-----7-----7--|
|-----------------------------|
|-----------------------------|

Instrumental Interlude          1/2
|-----------------------|-------------------------|------------------------|
|-----------------------|-------------------------|------------------------|
|-----------------------|-------------------------|------------------------|
|----------2--0-----4~--|-------------------------|-----------7--6~--------|
|-2-----2---------------|-----2--4b--rb4p2--------|-/8--5--7---------5--7~-|
|----2-----------2------|--2----------------5--2--|------------------------|

                                      1/4
|-------------|-----------------------------|----------|-------------------|
|-------------|-----------------------------|----------|-------------------|
|-------------|-----------------------------|----------|----------7--------|
|-------------|-----------7--6~-------10b---|------9~--|-7-----7-----10----|
|-------5-----|--8--5--7---------5/8--------|--8-------|----7------------7-|
|----0-----0--|-----------------------------|----------|-------------------|


-------|---------------------------|-------------------------|------------|
-------|---------------------------|-----------8--7~---------|------------|
--9~---|---------------------------|--8--5--7---------5--7~--|----5-------|
-------|-----7--9*b--rb9p7---------|-------------------------|-0--0--0--0-|
-------|--7-----------------10--7--|-------------------------|------------|
-------|---------------------------|-------------------------|------------|


|-------------------------|-----------------------|------------------------|
|----------8--7~--8--10~--|--------10--11-13------|------------------------|
|-8--5--7-----------------|-----------------------|------------------------|
|-------------------------|-10/12-------------12--|------------------------|
|-------------------------|-----------------------|------------------------|
|-------------------------|-----------------------|------------------------|


|---------|----------------|--------------------------|-------------------|
|-13bf-~--|---~~~~~~~~~~~--|--------------------------|-------------------|
|---------|----------------|--------------------------|-------------------|
|---------|----------------|--------------------------|-------------------|
|---------|----------------|--------------------------|-------------------|
|---------|----------------|--------------------------|-------------------|
|         |                |                          |                   |
|         |                |                          |                   |
|---------|----------------|--------------------------|-------------------|
|---------|----------------|--------------------------|-------------------|
|-7/5-\7--|--7/10-\9-9-----|-----9\14-----------------|-~~----------------|
|---------|----------------|--------------------------|-----w/bar---------|
|-5/9-\5--|--5/8--\7-7-----|-----7\12-----------------|-~~----------------|
|---------|----------------|--------------------------|-------------------|


|--------------|----------------|----------------|------------------------|
|--------------|----------------|----------------|------------------------|
|-14\11----\7--|-7/10---/12\9---|--\7------------|------------------------|
|--------------|----------------|-----------7----|-w/bar------------------|
|-12\9-----\5--|-5/8----/10\7---|--\5------------|------------------------|
|--------------|----------------|-----------5----|------------------------|

He pours his soul into the water, reflecting thy mystery
|------------------|------------------|----------------|------------------|
|-------3----------|--------3---------|--------3-------|------------------|
|----2-------2-----|-----2------2-----|----2------2----|----0-------0-----|
|-0-------------0--|-0-------------0--|-0------------0-|------------------|
|-0----------------|-1----------------|-x--------------|--------3---------|
|------------------|------------------|-3--------------|-1----------------|

w/Rhy Fig.2
               She carries him away, and the winds die slowly
|-------------------|-----------------|------------------|----------------|
|---------3---------|-------3---------|-------3----------|----------------|
|------2------2-----|----2------2-----|----2-------2-----|----------------|
|-0--------------0--|-0------------0--|-0--------------0-|---0-------0----|
|-0-----------------|-1---------------|-x----------------|----------------|
|-------------------|-----------------|-3----------------|-1------0-------|


w/Riff E 7x
And she listens openly.
Oh, and she listens openly
                            Riff E
                            |-----------------------------------------|
                            |-----------------------------------------|
                            |-0--0--0--0---0-----0--0--0---0----0--0--|
                            |-5--------7------7/12---------11---------|
                            |-----------------------------------------|
                            |-----------------------------------------|


                                   Lifting shadows
|--------------------------------------------|----------------------------|
|--------------------------------------------|----------------------------|
|---0---0--0---0---0--0--0---0--0--0---0--0--|-9/14---12-11---12---14-----|
|--12---------14--------16--------17---------|----0----0--0----0----0-----|
|--------------------------------------------|----------------------------|
|--------------------------------------------|----------------------------|

off a dream
|---------------------------------|
|---------------------------------|
|---14----12----11-----9----7-----|  repeat 3more times over below lyrics
|----0-----0-----0-----0----0-----|
|---------------------------------|
|---------------------------------|


once broken.  She can turn a drop of water into an ocean


Lifting shadows off a dream
|---------------------------------|---------------------------------------|
|--15--15----15-----15---15---15--|-15---15-----15-----15----15-----------|
|--14--14----14-----14----0----0--|-12---12-----12-----12----12-----------|
|---0---0-----0------0----0----0--|--0----0------0------0-----0-----0-----|
|---------------------------------|---------------------------------------|
|---------------------------------|---------------------------------------|


|--------------------------------|----------------------------------------|
|--15---15----15----15---15--15--|-15---15----15---15---15----------------|
|--14---14----14----14----0---0--|-12---12----12---12---12----------------|
|---0----0-----0-----0----0---0--|--0----0-----0----0----0---0------------|
|--------------------------------|----------------------------------------|
|--------------------------------|----------------------------------------|

      Lifting shadows            off a dream
|--------------------------------|----------------------|-------------------|
|--15----15----15----15----15----|-15--15--15--15-------|-15--15--15--15--15|
|--16----16----16----16----14----|-14--14--14--14-------|-14--14--14--14--12|
|---0-----0-----0-----0-----0----|--0---0---0---0---0---|--0---0---0---0---0|
|--------------------------------|----------------------|-------------------|
|--------------------------------|----------------------|-------------------|


|-------------------------|
|--15----15----15--15-----|
|--12----11----11--11-----|
|---0-----0-----0---0-----|
|-------------------------|
|-------------------------|


Outro (harmonics) play 4x

||-------------12----------|---------------------------||---------|-------|
||--------------------12---|-----------------------7---||---------|-------|
||o------------------------|--12------------5---------o||---------|-------|
||o------------------------|----------5---------------o||---------|-------|
||-------------------------|---------------------------||---------|-------|
||-----7-------------------|---------------------------||---------|-------|

----------------------------------------------------------------------

10. SCARRED...........N/A

-----------------------------------------------------------------------

11. SPACE-DYE VEST
Tuning - D,A,D,G,B,E

Keyboard part arranged for guitar
(0:00)
e|----------------------------------------------|
B|----------------------------------------------|
G|o----9-------10--9-9---9-10-9----12--10-10----|
D|o-12---12---------------------12--------------|
A|----------12----------------------------------|
D|----------------------------------------------|

e|----------------------------------------------|
B|--------------10-----------10-------11--10-10-|
G|--10-12-10-------12-12--12----12-9------------|
D|-----------12---------------------------------|
A|----------------------------------------------|
D|----------------------------------------------|

e|----------------------------------------------|
B|--10-11-10----13--11-11--11-10----10-11-10-10-|
G|-----------10------------------12-------------|
D|----------------------------------------------|
A|----------------------------------------------|
D|----------------------------------------------|

e|----------------------------------------------|
B|--10----------10------------------------------|
G|-----12-10-12----12-12--10-9----9-10-9--------|
D|-----------------------------12--------12-----|start again
A|--------------------------------------------12|
D|----------------------------------------------|


John Petrucci part.
Here, he just fingerpicks this part

Dropped-D Tunning (after a 20-bar rest)

Riff 1 (Acoustic nylon guitar)
(1:05)
e|-----------------------------------|
B|-----------------------------------|
G|--------0-------------2---0--------|
D|------0-----3---2-------------3----|
A|----0-----0---0-----0---0---0---0--|
D|--0---------------0----------------|

                                      last time(2:02)
e|-----------------------------------|-----|
B|-----------------------------------|-----|
G|--------0-------------0------------|-----|
D|--2---0-----3---2---0-----3---2----|--0--|
A|----1-----1---1---1-----1---1---1--|--0--|
D|-----------------------------------|--0--|

Play Riff A 2 times and start to sing:

Falling through pages of Martens on angels
Feeling my heart pull west
I saw the future dressed as a stranger
Love in a space-dye vest

Love is an act of blood and I'm bleeding
A pool in the shape of a heart
Beauty projection in the reflection
Always the worst way to start

(keyboard part)
	Over this keyboard part there's a sample voice
that goes like this:

"But he's the sort who can't know anyone intimately,
least of all a woman. He doesn't know what a woman is.
He wants you for a possession, something to look at like
a painting or an ivory box. Something to own and to
display. He doesn't want you to be real, or to think or
to live. He doesn't love you, but I love you. I want you
to have your own thoughts and ideas and feelings, even
when I hold you in my arms. It's our last chance... It's
our last chance..."
    [Sample from the film "A Room With A View"]


w/ distortion
  (2:39)
   Dm
e|----------------------------------------------|
B|----------------------------------------------|
G|----------------------------------------------|
D|-(0)------------------------------------------|
A|--0-------------------------------------------|
D|--0-------------------------------------------|

1.  Now that you're gone I'm trying to take it
2.  Found a new girl I think we can make it

   Bb
e|----------------------------------------------|
B|----------------------------------------------|
G|----------------------------------------------|
D|----------------------------------------------|
A|--8-------------------------------------------|
D|--8-------------------------------------------|

    Learning to swallow the rage
    As long as she stays on the page

   (2:58)
   Dm                                Bb    G
e|----------------------------------------------|
B|----------------------------------------------|
G|----------------------------------------------|
D|--0-------------------------------------------|
A|--0---------------------------------8----5----|
D|--0---------------------------------8----5----|
    This is not how I wanted it to end

   Dm                       Bb
e|----------------------------------------------|
B|----------------------------------------------|
G|----------------------------------------------|
D|--0-------------------------------------------|
A|--0------------------------8------------------|
D|--0------------------------8------------------|
    And I'll never be open again

   Dm  C Dm  C Bb  C Bb  G  F  E Dm   (Fade away)
e|----------------------------------------------|
B|----------------------------------------------|
G|----------------------------------------------|
D|-----5-----5--3--5--3-------------------------|
A|--0--3--0--3--1--3--1--5--3--2-0~~~~~---------|
D|--0-----0--------------5--3--2-0~~~~~---------|

(another keyboard part)
	Another sample voices:
	"...I was gonna move out...ummm...get, get a job, get my own
     place, ummm, but... I go into the mall where I want to work and
     they tell me, I'm, I was too young..."
    [Sample from a 1994 PBS documentary on dysfunctional families.]
    "Some people, gave advice before, about facing the facts,
     about facing reality. And this is, this without a
     doubt, is his biggest challenge ever. He's going to
     have to face it. You're gonna have to try, he's gonna
     to have to try and, uh, and, and, and get some help here. I mean
     no one can say they know how he feels."
    [Sample from a news commentary about the OJ Simpson freeway chase.]
    "That, so they say that, in ya know like, Houston or something,
     you'd say it's a hundred and eighty degrees, but it's a dry heat.
     In Houston they say that?
     Oh, maybe not. I'm all mixed up.
     Dry until I had the swimming pool."
    [Sample from the Conan O'Brien show.]
    "...I get up with the sun... Listen. You have your own room to
     sleep in, I don't care what you do. I don't care when. That
     door gets locked, that door gets locked at night by nine
     o'clock. If you're not in this house by nine o'clock, then you'd
     better find some place to sleep. Because you're not going to be
     a bum in this house. Supper is ready..."
    [Sample from a 1994 PBS documentary on dysfunctional families.]


  (4:32)
e|----------------------------------------------|
B|----------------------------------------------|
G|----------------------------------------------|
D|-------------0--------------------------------|
A|-------------0--------------------------------|
D|-------------0--------------------------------|
      There's no one to take my blame

              Bb(w/ Fill 1)                        Fill 1
e|----------------------------------------------|----------|
B|----------------------------------------------|----------|
G|----------------------------------------------|--7~~~~~~~|
D|------------8---------------------------------|----------|
A|------------8---------------------------------|----------|
D|------------8---------------------------------|----------|
   If they wanted to

           Dm
e|----------------------------------------------|
B|----------------------------------------------|
G|----------------------------------------------|
D|----------0-----------------------------------|
A|----------0-----------------------------------|
D|----------0-----------------------------------|
   There's nothing to keep me sane
   And it's all the same to you

           Dm
e|----------------------------------------------|
B|----------------------------------------------|
G|----------------------------------------------|
D|----------------------------------------------|
A|----------0-----------------------------------|
D|----------0-----------------------------------|
 1.There's nowhere to set my aim
 2.Never come near me again

          Bb                  G
e|----------------------------------------------|
B|----------------------------------------------|
G|----------------------------------------------|
D|----------------------------------------------|
A|--------8-------------------5-----------------|
D|--------8-------------------5-----------------|
   So I'm everywhere
   Do you really think I need you ?

  (5:10)
                        bend 1 step
e|------------------------------(14)------------|
B|------------------------------/-\-------------|
G|-------7~~~~7/12-10-9-7~~/12-/---\12--10------|
D|----------------------------------------------|
A|----------------------------------------------|
D|----------------------------------------------|
    I'll never be open again

e|-----------------------------------|
B|-----------------------------------|
G|-------9~~/12-10-9~~7/12--10--9-(7)| repeat it
D|-----------------------------------|
A|-----------------------------------|
D|-----------------------------------|
    I could never be open again


  (5:29)
   Dm                                    Bb  G
e|----------------------------------------------|
B|----------------------------------------------|
G|----------------------------------------------|
D|-(7)~~~~~~~-----------------------------------|
A|--0-------------------------------------8--5--|
D|----------------------------------------8--5--|
     And I'll smile and I'll learn to pretend


  Repeat this figure 5 times                     last time
       Dm                        Bb     G          G   A
e|-x-x------------------------------------------|----------|
B|-x-x------------------------------------------|----------|
G|-x-x------------------------------------------|----------|
D|-x-x--7~~~~~~~--------------------------------|----------|
A|-x-x--0-------------------------8-----5-------|--5---7---|
D|-x-x--0-------------------------8-----5-------|--5---7---|
         And I'll never be open again
         And I'll have no more dreams to defend
         And I'll never be open again

  (6:25)
   Bb    G  A Bb    G     Dm  A/D Bb/D   A  (Fade)
e|-----------------------------------------------|
B|-----------------------------------------------|
G|-------------------------7---------------------|
D|-------------------------7--7----8-----7-------|
A|--8----5--7--8----5------5--7----8-----7-------|
D|--8----5--7--8----5------0--0----0-----7-------|

Keyboard part arranged for guitar
  (6:56)
e|----------------------------------------------|
B|----------------------------------------------|
G|o----9-------10--9-9---9-10-9----12--10-10----|
D|o-12---12---------------------10--------------|
A|----------12----------------------------------|
D|----------------------------------------------|

e|----------------------------------------------|
B|--------------10-----------10-------11--10-10-|
G|--10-12-10-------12-12--12----12-9------------|
D|-----------12---------------------------------|
A|----------------------------------------------|
D|----------------------------------------------|

e|----------------------------------------------|
B|--10-11-10----13--11-11--11-10----10-11-10-10-|
G|-----------10------------------12-------------|
D|----------------------------------------------|
A|----------------------------------------------|
D|----------------------------------------------|
                                          (7:29)
e|----------------------------------------------|
B|--10----------10------------------------------|
G|-----12-10-12----12-12--10-9----9-10-9--------|
D|-----------------------------12--------12-----|
A|----------------------------------------------|
D|----------------------------------------------|
comments
We did not receive enough feedback on this tab! Please rate:
print report bad tab
1 2 3 4 5
1 comment total.
0 reply
ashley-morton wrote on November 6 2008, 11:21 am

do u actually have a 7 string and if u do how much did it cost?

I want to post or [tab]
guest
You may want to rate the tab now too:
select rating
Please do not post tabs as comments. Select "correction" instead!