Oops, an error
Loading. Please wait.

Blind Faith Bass Tab

ver1
ver1

Whole song

Interactive

More versions @911Tabs.com
886 views 12 this week
no commentswrite comment
1 2 3 4 5
excellent!
x 1
Autoscroll
+/-
esc
set tempo
stop
Difficulty
Tuning
intermediate
D A D G B E
WARNING: You are trying to view
                                    content from Ultimate-Guitar.com
                                    in an unauthorized application,
                                    which is prohibited.

                                    Please use an official Ultimate
                                    Guitar Tabs application for iPhone,
                                    iPad or Android to access legitimate
                                    chords, guitar, bass, and drum tabs
                                    from Ultimate-Guitar.com database.

                                    Type "ultimate guitar tabs" in Apple
                                    App Store's or Android Market's
                                    search to find the application.
drop d tuning
this is the best i can do 
enjoy


G||-------|-------|-------|-------|-------|-------|-------|-------|-------|
D||-------|-------|-------|-------|-------|-------|-------|-------|-------|
A||-------|-------|-------|-------|-------|-------|-------|-------|-------|
D||-------|-------|-------|-------|-------|-------|-------|-------|-------|


                                  Q    E  Q    Q    E     Q    E  Q    Q    E   
-------|-------|-------|-------|-------7---------------|-------7---------------|
-------|-------|-------|-------|----------7---------7--|----------7---------7--|
-------|-------|-------|-------|--5------------5-------|--5------------5-------|
-------|-------|-------|-------|-----------------------|-----------------------|


  Q    E  Q    Q    E     Q    E  Q    Q    E     Q    E  Q    Q    E   
-------5---------------|-------5---------------|-------7---------------|
----------7---------7--|----------7---------7--|----------7---------7--|
--5------------5-------|--8------------8-------|--5------------5-------|
-----------------------|-----------------------|-----------------------|


  Q    E  Q    Q    E     Q    E  Q    Q    E     Q    E  Q    Q    E   
-------7---------------|-------5---------------|-------5---------------|
----------7---------7--|----------7---------7--|----------7---------7--|
--5------------5-------|--5------------5-------|--8------------8-------|
-----------------------|-----------------------|-----------------------|


  Q    E  Q    Q    E     Q    E  Q    Q    E     Q    E  Q    Q    E   
-------7---------------|-------7---------------|-------5---------------|
----------7---------7--|----------7---------7--|----------7---------7--|
--5------------5-------|--5------------5-------|--5------------5-------|
-----------------------|-----------------------|-----------------------|


  Q    E  Q    Q    E     Q    E  Q    Q    E     Q    E  Q    Q    E   
-------5---------------|-------7---------------|-------7---------------|
----------7---------7--|----------7---------7--|----------7---------7--|
--8------------8-------|--5------------5-------|--5------------5-------|
-----------------------|-----------------------|-----------------------|


  Q    E  Q    Q    E     Q    E  Q    Q    E     Q    E  Q    Q    E   
-------5---------------|-------5---------------|-------7---------------|
----------7---------7--|----------7---------7--|----------7---------7--|
--5------------5-------|--8------------8-------|--5------------5-------|
-----------------------|-----------------------|-----------------------|


  Q    E  Q    Q    E     Q    E  Q    Q    E     Q    E  Q    Q    E   
-------7---------------|-------5---------------|-------5---------------|
----------7---------7--|----------7---------7--|----------7---------7--|
--5------------5-------|--5------------5-------|--8------------8-------|
-----------------------|-----------------------|-----------------------|


  Q    E  Q    Q    E     Q    E  Q    Q    E     Q    E  Q    Q    E   
-------7---------------|-------7---------------|-------5---------------|
----------7---------7--|----------7---------7--|----------7---------7--|
--5------------5-------|--5------------5-------|--5------------5-------|
-----------------------|-----------------------|-----------------------|


  Q    E  Q    Q    E     Q.     Q    Q    E      Q.     Q    Q.       
-------5---------------|----------------------|-----------------------|
----------7---------7--|----------------------|--/5------5----5\------|
--8------------8-------|--3------3----3----3--|-----------------------|
-----------------------|----------------------|-----------------------|


  Q.     Q    Q    E       E   E   E   Q     Q     E     Q.     Q    Q    E   
----------------------|--/12------11------------------|----------------------|
----------------------|-------14------12----14----12--|----------------------|
--5------5----5----5--|-------------------------------|--3------3----3----3--|
----------------------|-------------------------------|----------------------|


  Q.     Q    Q    E     Q.     Q    Q    E      E  E  E  E  E  E  E  E   
----------------------|----------------------|--/7--5--4-----------------|
----------------------|----------------------|------------7--5--4--------|
--2------2----2----2--|--5------5----5----5--|---------------------7--3--|
----------------------|----------------------|---------------------------|


  Q    E  Q    Q    E     Q    E  Q    Q    E     Q    E  Q    Q    E   
-------7---------------|-------7---------------|-------5---------------|
----------7---------7--|----------7---------7--|----------7---------7--|
--5------------5-------|--5------------5-------|--5------------5-------|
-----------------------|-----------------------|-----------------------|


  Q    E  Q    Q    E     Q    E  Q    Q    E     Q    E  Q    Q    E   
-------5---------------|-------7---------------|-------7---------------|
----------7---------7--|----------7---------7--|----------7---------7--|
--8------------8-------|--5------------5-------|--5------------5-------|
-----------------------|-----------------------|-----------------------|


  Q    E  Q    Q    E     Q    E  Q    Q    E     Q    Q    E   E  Q     
-------5---------------|-------5---------------|------------------------|
----------7---------7--|----------7---------7--|------------------------|
--5------------5-------|--8------------8-------|------------------------|
-----------------------|-----------------------|--0----0-------12-------|


  Q    Q    E   E  Q       Q    Q    E   E  Q       Q.     Q    E   E   E   
------------------------|------------------------|-------------------------|
------------------------|------------------------|-------------------------|
------------------------|------------------------|--------------3s--8s--3--|
--0----0-------12-------|--0----0-------12-------|--3------3---------------|


  Q    Q    E   E  Q       Q    Q    E   E  Q       Q    Q    E   E  Q     
------------------------|------------------------|------------------------|
------------------------|------------------------|------------------------|
------------------------|------------------------|------------------------|
--0----0-------12-------|--0----0-------12-------|--0----0-------12-------|


  Q.     Q    E   E   E     Q.     Q    Q    E      Q.     Q    Q    E   
-------------------------|----------------------|-----------------------|
-------------------------|----------------------|--/5------5----5----5--|
--------------3s--8s--3--|--3------3----3----3--|-----------------------|
--3------3---------------|----------------------|-----------------------|


                                  |---3--|                     
  Q.     Q    Q    E       E   E  S   S  S  E   E   E   E  E   
----------------------|--/12--11--9s-11s-9--------------------|
----------------------|--------------------12--10--12--10--9--|
--5------5----5----5--|---------------------------------------|
----------------------|---------------------------------------|


  Q.     Q    Q    E     Q.     Q    Q    E     Q.     Q    E  E    E   
----------------------|----------------------|-------------------------|
----------------------|----------------------|--0------0----0--0s--12--|
--3------3----3----3--|--2------2----2----2--|-------------------------|
----------------------|----------------------|-------------------------|


   E   S  S  S  S  E   S  S S  S  S  S  S  S    E  E  E  E  E  E  E  E   
---------------------------------------------|--------------------------|
--12--12-12-12-12-12--12-10-9-10-12-12-12-12-|--------------------------|
---------------------------------------------|--3--3--3--3--3--3--3--3--|
---------------------------------------------|--------------------------|


  E  E  E  E  E  E  E  E     E  E  E  E  E  E  E  E   
--------------------------|--------------------------|
--------------------------|--------------------------|
--2--2--2--2--2--2--2--2--|--5--5--5--5--5--5--5--5--|
--------------------------|--------------------------|


  E  E  E  E  E  E  E  E     E  E  E  E  E  E  E  E   
--------------------------|--------------------------|
--------------------------|--------------------------|
--4--4--4--4--4--4--4--4--|--3--3--3--3--3--3--3--3--|
--------------------------|--------------------------|


  E  E  E  E  E  E  E  E     E  E  E  E  E  E  E  E   
--------------------------|--------------------------|
--------------------------|--------------------------|
--2--2--2--2--2--2--2--2--|--1--1--1--1--1--1--1--1--|
--------------------------|--------------------------|


  E  E  E  E  E  E    Q       E  E  E  Q    E  Q       E  E  E  E   E  E   
---------------------------|------------------------|---------------------|
---------------------------|--------5--7------------|---------------------|
--1--1--1--1--1--1s--12----|--0--3----------5--7----|--3--5--5--5b--5--3--|
---------------------------|------------------------|---------------------|


  E  E  E  Q    E  Q       E  E  Q       E  E  E  Q    E  Q     
------------------------|-------------|------------------------|
--------5--7------------|-------------|--------5--7------------|
--0--3----------5--7----|--3--5--5----|--0--3----------5--7----|
------------------------|-------------|------------------------|


  E  E  E  E   E  E     E  E  E  Q    E  Q       E  E  E  Q    E  Q     
---------------------|------------------------|------------------------|
---------------------|--------5--7------------|------------------------|
--3--5--5--5b--5--3--|--0--3----------5--7----|--3--5--3-------0-------|
---------------------|------------------------|-----------5-------3----|


  Q    E  Q    Q    E     Q    E  Q    Q    E     Q    E  Q    Q    E   
-------7---------------|-------7---------------|-------5---------------|
----------7---------7--|----------7---------7--|----------7---------7--|
--5------------5-------|--5------------5-------|--5------------5-------|
-----------------------|-----------------------|-----------------------|


  Q    E  Q    Q    E     Q    E  Q    Q    E     Q    E  Q    Q    E   
-------5---------------|-------7---------------|-------7---------------|
----------7---------7--|----------7---------7--|----------7---------7--|
--8------------8-------|--5------------5-------|--5------------5-------|
-----------------------|-----------------------|-----------------------|


  Q    E  Q    Q    E     Q    E  Q    Q    E     Q.     E  H         
-------5---------------|-------5---------------|---------------------|
----------7---------7--|----------7---------7--|---------------------|
--5------------5-------|--8------------8-------|---------------------|
-----------------------|-----------------------|--0------0-----------|


  Q.     E  H           Q.     E  H           Q.     E  H         
---------------------|---------------------|---------------------|
---------------------|---------------------|---------------------|
---------------------|---------------------|---------------------|
--0------0-----------|--0------0-----------|--3------3-----------|


  Q.     E  H           Q.     E  H           Q.     E  H         
---------------------|---------------------|---------------------|
---------------------|---------------------|---------------------|
---------------------|---------------------|---------------------|
--0------0-----------|--0------0-----------|--0------0-----------|


  Q.     E  H           Q.     Q    Q.        Q.     Q    Q.      
---------------------|---------------------|---------------------|
---------------------|---------------------|---------------------|
---------------------|--3------3----3------|---------------------|
--3------3-----------|---------------------|--5------5----5------|


  Q.     Q    Q    E     Q.     Q    Q.        Q.     Q    Q    E   
----------------------|---------------------|----------------------|
----------------------|---------------------|----------------------|
--5------5----5----5--|--5------5----5------|--3------3----3----3--|
----------------------|---------------------|----------------------|


  Q.     Q    Q    E     Q.     Q    Q    E     Q.     Q    Q.      
----------------------|----------------------|---------------------|
----------------------|----------------------|---------------------|
--2------2----2----2--|--5------5----5----5--|--5------5----5------|
----------------------|----------------------|---------------------|


  E  E  E  E  E  E  E  E     E  E  E  E  E  E  E  E   
--------------------------|--------------------------|
--------------------------|--------------------------|
--3--3--3--3--3--3--3--3--|--2--2--2--2--2--2--2--2--|
--------------------------|--------------------------|


  E  E  E  E  E  E  E  E     E  E  E  E  E  E  E  E   
--------------------------|--------------------------|
--------------------------|--------------------------|
--5--5--5--5--5--5--5--5--|--4--4--4--4--4--4--4--4--|
--------------------------|--------------------------|


  E  E  E  E  E  E  E  E     E  E  E  E  E  E  E  E   
--------------------------|--------------------------|
--------------------------|--------------------------|
--3--3--3--3--3--3--3--3--|--2--2--2--2--2--2--2--2--|
--------------------------|--------------------------|


  E  E  E  E  E  E  E  E     E  E  E  E  E  E    Q       E  E  E  Q    E  Q     
--------------------------|---------------------------|------------------------|
--------------------------|---------------------------|--------5--7------------|
--1--1--1--1--1--1--1--1--|--1--1--1--1--1--1s--12----|--0--3----------5--7----|
--------------------------|---------------------------|------------------------|


  E  E  E  E   E  E     E  E  E  Q    E  Q       E  E  Q     
---------------------|------------------------|-------------|
---------------------|--------5--7------------|-------------|
--3--5--5--5b--5--3--|--0--3----------5--7----|--3--5--5----|
---------------------|------------------------|-------------|


  E  E  E  Q    E  Q       E  E  E  E   E  E     E  E  E  Q    E  Q     
------------------------|---------------------|------------------------|
--------5--7------------|---------------------|--------5--7------------|
--0--3----------5--7----|--3--5--5--5b--5--3--|--0--3----------5--7----|
------------------------|---------------------|------------------------|


  E  E  Q       E  E  E  Q    E  Q       E  E  E  E   E  E   
-------------|------------------------|---------------------|
-------------|--------5--7------------|---------------------|
--3--5--5----|--0--3----------5--7----|--3--5--5--5b--5--3--|
-------------|------------------------|---------------------|


  E  E  E  Q    E  Q       E  E  Q       E  E  E  Q    E  Q     
------------------------|-------------|------------------------|
--------5--7------------|-------------|--------5--7------------|
--0--3----------5--7----|--3--5--5----|--0--3----------5--7----|
------------------------|-------------|------------------------|


  E  E  E  E   E  E     E  E  E  Q    E  Q       E  E  E  Q    E  Q     
---------------------|------------------------|------------------------|
---------------------|--------5--7------------|------------------------|
--3--5--5--5b--5--3--|--0--3----------5--7----|--3--5--3-------0-------|
---------------------|------------------------|-----------5-------3----|


  E.  E  S Q    E  E  E     E.  E.  E.  E.     E.  E  S Q    E  E  E   
-------------------------|--5---7---4-------|-------------------------|
------7--7---------7--5--|--------------5---|------7--7---------7--5--|
--0--------0----0--------|------------------|--0--------0----0--------|
-------------------------|------------------|-------------------------|


  E.  E.  E.  E.     S S S E  S Q    E  E  E     E.  E.  E.  E.   
------------------|---------------------------|--5---7---4-------|
----------5-------|------5-7--7---------7--5--|--------------5---|
--3---7-----------|--5-7--------5----5--------|------------------|
--------------5---|---------------------------|------------------|


  E.  E  S Q    E  E  E     E.  E.  E.  E.     E.  E.  Q    E  E  E   
-------------------------|------------------|------------------------|
------7--7---------7--5--|----------5-------|------7-----------7--5--|
--0--------0----0--------|--3---7-----------|--0-------0----0--------|
-------------------------|--------------5---|------------------------|


  E.  E.  E.  E.     E.  E  S E.  E  S E   E     E.  E.  E.  E.   
--5---7---4-------|---------------------------|--------------4---|
--------------5---|---------------------------|----------5-------|
------------------|--8---8--8-8---8--8-8--10--|--3---7-----------|
------------------|---------------------------|------------------|


  E.  E  S E.  S S S E  E     E.  E.  E.  E.     E.  E.  E.   E.   
---------------------------|--5---7---4-------|-------------------|
------7--7-----------7--5--|--------------5---|------5------------|
--0--------0---0-0-0-------|------------------|--8-------7--------|
---------------------------|------------------|--------------10---|


  E.  E.  E.  E.     E.  E.  E.  E.  E  E     E.  E.  E.  E.   
------------------|------------------------|------------------|
------------------|------------------------|------------------|
--5---7---3---2---|---------------------3--|--5-------3---2---|
------------------|--7---5---7---5---7-----|------5-----------|


  E.  E.  E.  E.  E  E     E.  E.  E  E     E.  E.  E.  E.  E  E   
------------------------|----------------|------------------------|
------------------------|--5-------------|------------------------|
---------------------3--|------3---5-----|---------------------3--|
--7---5---7---5---7-----|-------------5--|--7---5---7---5---7-----|


  E.  E.  E.  E.     E.  E.  E.  E.  E  E     E.  E.  E  E               
------------------|------------------------|----------------|-----|-----|
------------------|------------------------|--5---4---------|-----|-----|
--5-------3---2---|---------------------3--|----------5--3--|-----|-----|
------5-----------|--7---5---7---5---7-----|----------------|-----|-----|


  E.  E.  E.  E.  E  E     E.  E.  E.  E.     E.  E.  E.  E.  E  E   
------------------------|------------------|------------------------|
------------------------|------------------|------------------------|
---------------------3--|--5-------3---2---|---------------------3--|
--7---5---7---5---7-----|------5-----------|--7---5---7---5---7-----|


  E.  E.  E  E     E.  E.  E.  E.  E  E     E.  E.  E.  E.   
----------------|------------------------|------------------|
--5-------------|------------------------|------------------|
------3---5-----|---------------------3--|--5-------3---2---|
-------------5--|--7---5---7---5---7-----|------5-----------|


  E.  E.  E.  E.  E  E     E.  E.  E  E     E.  E.  E.  E.  E  E   
------------------------|----------------|------------------------|
------------------------|--5---4---------|------------------------|
---------------------3--|----------5--3--|---------------------3--|
--7---5---7---5---7-----|----------------|--7---5---7---5---7-----|


  E.  E.  E.  E.     E.  E.  E.  E.  E  E     E.  E.  E  E   
------------------|------------------------|----------------|
------------------|------------------------|--5-------------|
--5-------3---2---|---------------------3--|------3---5-----|
------5-----------|--7---5---7---5---7-----|-------------5--|


  E.  E.  E.  E.  E  E     E.  E.  E.  E.     E.  E.  E.  E.  E  E   
------------------------|------------------|------------------------|
------------------------|------------------|------------------------|
---------------------3--|--5-------3---2---|---------------------3--|
--7---5---7---5---7-----|------5-----------|--7---5---7---5---7-----|


  E.  E.  E  E     E  S S E  E  E     E  S S E  E  E     E  E  E  E   
----------------|------------------|------------------|--------------|
--5---4---------|------------------|------------3--2--|-----5--------|
----------5--3--|--0--0-0-0--0--2--|--3--3-3-3--------|--5-----3--2--|
----------------|------------------|------------------|--------------|


  E  S S E  E  E     E  S S E  E  E     E  E  E  E  E  E     E  S S E  E  E   
------------------|------------------|--4-----2-----------|------------------|
------------------|------------3--2--|-----5-----5--------|------------------|
--0--0-0-0--0--2--|--3--3-3-3--------|--------------3--2--|--0--0-0-0--0--2--|
------------------|------------------|--------------------|------------------|


  E  S S E  E  E     E  E  E  E     E  S S E  E  E     E  S S E  E  E   
------------------|--------------|------------------|------------------|
------------3--2--|-----5--------|------------------|------------3--2--|
--3--3-3-3--------|--5-----3--2--|--0--0-0-0--0--2--|--3--3-3-3--------|
------------------|--------------|------------------|------------------|


  E  E  E  E  E  E     E  S S E  E  E     E  S S E  E  E     E  S S E  E  E   
--4-----2-----------|------------------|------------------|------------------|
-----5-----5--------|------------------|------------------|------------------|
--------------3--2--|--0--0-0-0--0--2--|--3--3-3-3--3--3--|------------------|
--------------------|------------------|------------------|--5--5-5-5--5--5--|


  E  S S E  E  E     E  S S E  E  E     E  S S E  E  E     E  S S E  E  E   
------------------|------------------|------------------|------------------|
------------------|------------------|------------------|------------------|
------------------|--0--0-0-0--0--2--|--3--3-3-3--3--3--|------------------|
--2--2-2-2--2--2--|------------------|------------------|--5--5-5-5--5--5--|


  E  S S E  S S    E  S S E  E  E     E  S S E  E  E     E  E  E  E   
----------------|------------------|------------------|--------------|
--3--2----------|------------------|------------3--2--|-----5--------|
-------5-3--2-3-|--0--0-0-0--0--2--|--3--3-3-3--------|--5-----3--2--|
----------------|------------------|------------------|--------------|


  E  S S E  E  E     E  S S E  E  E     E  E  E  E  E  E                     
------------------|------------------|--4-----2-----------|-----|-----|-----|
------------------|------------3--2--|-----5-----5--------|-----|-----|-----|
--0--0-0-0--0--2--|--3--3-3-3--------|--------------3--2--|-----|-----|-----|
------------------|------------------|--------------------|-----|-----|-----|


-----|-----|-----|-----|-----|-----|-----|-----|-----|-----|-----|-----|-----|
-----|-----|-----|-----|-----|-----|-----|-----|-----|-----|-----|-----|-----|
-----|-----|-----|-----|-----|-----|-----|-----|-----|-----|-----|-----|-----|
-----|-----|-----|-----|-----|-----|-----|-----|-----|-----|-----|-----|-----|


              E  S S E  E  E     E  S S E  E  E     E  E  E  E   
-----|-----|------------------|------------------|--------------|
-----|-----|------------------|------------3--2--|-----5--------|
-----|-----|--0--0-0-0--0--2--|--3--3-3-3--------|--5-----3--2--|
-----|-----|------------------|------------------|--------------|


  E  S S E  E  S S    E  S S E  E  E     E  E  E  E  E  E     E  S S E  E  E   
-------------------|---------------5--|--4-----2-----------|------------------|
------------7--5---|------------5-----|-----5-----5--------|------------------|
--0--0-0-0-------8-|--7--7-7-7--------|--------------3--2--|--8--8-8-8--8--5--|
-------------------|------------------|--------------------|------------------|


  E  S S E  E  E     E  S S E  E     E  S S E  E  E     E  S S E  E  E   
---------------5--|---------------|------------------|---------------5--|
--7--7-7-7--9-----|--5--5-5-------|------------------|------------7-----|
------------------|---------8--7--|--5--5-5-5--5--7--|--8--8-8-8--------|
------------------|---------------|------------------|------------------|


  E  S S E  E  E  E     E  S S E  E  E     E  S S E  E   E   
---------5--4--2-----|------------------|-------------------|
--5--5-5----------5--|---------------5--|--7--7-7-7--9--10--|
---------------------|--7--7-7-7--8-----|-------------------|
---------------------|------------------|-------------------|


   E   E   E   E   E   E      E   E   E   E   E  E     E  S S E  E  E   
----------12--------------|--------------12---------|------------------|
--12--14------------------|--10--12--14-------------|------------------|
--------------10--12--14--|------------------13--8--|--0--0-0-0--0--2--|
--------------------------|-------------------------|------------------|


  E  S S E  E  E     E  E  E  E     E  S S E  E  E     E  S S E  E  E   
------------------|--------------|------------------|------------------|
------------3--2--|-----5--------|------------------|------------3--2--|
--3--3-3-3--------|--5-----3--2--|--0--0-0-0--0--2--|--3--3-3-3--------|
------------------|--------------|------------------|------------------|


  E  E  E  E  E  E     E  S S E  E  E     E  S S E  E  E     E  E  E  E   
--4-----2-----------|------------------|------------------|--------------|
-----5-----5--------|------------------|------------3--2--|-----5--------|
--------------3--2--|--0--0-0-0--0--2--|--3--3-3-3--------|--5-----3--2--|
--------------------|------------------|------------------|--------------|


  E  S S E  E  E     E  S S E  E  E     E  E  E  E  E  E     E  S S E  E  E   
------------------|------------------|--4-----2-----------|------------------|
------------------|------------3--2--|-----5-----5--------|------------------|
--0--0-0-0--0--2--|--3--3-3-3--------|--------------3--2--|--0--0-0-0--0--2--|
------------------|------------------|--------------------|------------------|


  E  S S E  E  E     E  S S E  E  E     E  S S E  E  E     E  S S E  E  E   
------------------|------------------|------------------|------------------|
------------------|------------------|------------------|------------------|
--3--3-3-3--3--3--|------------------|------------------|--0--0-0-0--0--2--|
------------------|--5--5-5-5--5--5--|--2--2-2-2--2--2--|------------------|


  E  S S E  E  E     E  S S E  E  E     E  S S E  S S    E  S S E  E  E   
------------------|------------------|----------------|------------------|
------------------|------------------|--3--2----------|------------------|
--3--3-3-3--3--3--|------------------|-------5-3--2-3-|--0--0-0-0--0--2--|
------------------|--5--5-5-5--5--5--|----------------|------------------|


  E  S S E  E  E     E  E  E  E     E  S S E  E  E     E  S S E  E  E   
------------------|--------------|------------------|------------------|
------------3--2--|-----5--------|------------------|------------3--2--|
--3--3-3-3--------|--5-----3--2--|--0--0-0-0--0--2--|--3--3-3-3--------|
------------------|--------------|------------------|------------------|


  E  E  E  E  E  E     E  S S E  E  E     E  S S E  E   E   
--4-----2-----------|------------------|-------------------|
-----5-----5--------|---------------5--|--7--7-7-7--9--10--|
--------------3--2--|--7--7-7-7--8-----|-------------------|
--------------------|------------------|-------------------|


   E   E   E   E   E   E      E   E   E   E   E  E     E.  E.  E.  E.  E  E   
----------12--------------|--------------12---------|------------------------|
--12--14------------------|--10--12--14-------------|------------------------|
--------------10--12--14--|------------------13--8--|---------------------3--|
--------------------------|-------------------------|--7---5---7---5---7-----|


  E.  E.  E.  E.     E.  E.  E.  E.  E  E     E.  E.  E  E   
------------------|------------------------|----------------|
------------------|------------------------|--5-------------|
--5-------3---2---|---------------------3--|------3---5-----|
------5-----------|--7---5---7---5---7-----|-------------5--|


  E.  E.  E.  E.  E  E     E.  E.  E.  E.     E.  E.  E.  E.  E  E   
------------------------|------------------|------------------------|
------------------------|------------------|------------------------|
---------------------3--|--5-------3---2---|---------------------3--|
--7---5---7---5---7-----|------5-----------|--7---5---7---5---7-----|


  E.  E.  E  E     E.  E.  E.  E.  E  E     E.  E.  E.  E.   
----------------|------------------------|------------------|
--5---4---------|------------------------|------------------|
----------5--3--|---------------------3--|--5-------3---2---|
----------------|--7---5---7---5---7-----|------5-----------|


  E.  E.  E.  E.  E  E     E.  E.  E  E     E.  E.  E.  E.  E  E   
------------------------|----------------|------------------------|
------------------------|--5-------------|------------------------|
---------------------3--|------3---5-----|---------------------3--|
--7---5---7---5---7-----|-------------5--|--7---5---7---5---7-----|


  E.  E.  E.  E.     E.  E.  E.  E.  E  E     E.  E.  E  E   
------------------|------------------------|----------------|
------------------|------------------------|--5---4---------|
--5-------3---2---|---------------------3--|----------5--3--|
------5-----------|--7---5---7---5---7-----|----------------|


  S S S S S S S S S S S S S S S S    S S S S S S S S S S S S S S S S  
----------------------------------|----------------------------------|
----------------------------------|----------------------------------|
--5-5-5-5-5-5-5-5-3-3-3-3-3-3-3-3-|--2-2-2-2-2-2-2-2-1-1-1-1-1-1-1-1-|
----------------------------------|----------------------------------|


  S S S S S S S S S S S S S S S S    S S S S S S S S S S S S S S S S  
----------------------------------|----------------------------------|
----------------------------------|----------------------------------|
--5-5-5-5-5-5-5-5-3-3-3-3-3-3-3-3-|--2-2-2-2-2-2-2-2-1-1-1-1-1-1-1-1-|
----------------------------------|----------------------------------|


  E.  E.  Q    Q.        E.  E.  E  H           E.  E  S E  E.  E  S E   
----------------------|----------------------|--------------------------|
----------------------|--5---5---5--5--------|--------------------------|
--3---3---3----3------|----------------------|--5---5--5-5--3---3--3-3--|
----------------------|----------------------|--------------------------|


  E.  E  S E  E.  E  S E     S S S S S S S S S S S S S S S S  
--------------------------|----------------------------------|
--------------------------|----------------------------------|
--2---2--2-2--1---1--1-1--|--5-5-5-5-5-5-5-5-3-3-3-3-3-3-3-3-|
--------------------------|----------------------------------|


  S S S S S S S S S S S S S S S S    E.  E.  Q    Q.      
----------------------------------|----------------------|
----------------------------------|----------------------|
--2-2-2-2-2-2-2-2-1-1-1-1-1-1-1-1-|--3---3---3----3------|
----------------------------------|----------------------|


  E.  E.  E  H           E.  E.  Q    S S S S S S    E.  E.  Q    Q.      
----------------------|---------------------------|----------------------|
--5---5---5--5--------|---------------------------|----------------------|
----------------------|--5---5---5----5-5-5-5-5-5-|--5---5---5----5------|
----------------------|---------------------------|----------------------|


  E.  E.  Q    Q    E     E.  E.  Q    Q    E     E.  E.  Q    Q    E   
-----------------------|-----------------------|-----------------------|
-----------------------|-----------------------|-----------------------|
--3---3---3----3----3--|--2---2---2----2----2--|--5---5---5----5----5--|
-----------------------|-----------------------|-----------------------|


  E.  E.  Q    Q    E     E.  E.  Q    Q    E     E.  E.  Q    Q    E   
-----------------------|-----------------------|-----------------------|
-----------------------|-----------------------|-----------------------|
--5---5---5----5----5--|--3---3---3----3----3--|--2---2---2----2----2--|
-----------------------|-----------------------|-----------------------|


  E.  E.  Q    Q    E     E   E.   E.   E   S  S  Q      
-----------------------|--------------------------------|
--0---0---0----0----0--|--L--12---12---12--12-10-12\----|
-----------------------|--------------------------------|
-----------------------|--------------------------------|


  E  E  E  E  E  E  E  E     E  E  E  E  E  E  E  E   
--------------------------|--------------------------|
--------------------------|--------------------------|
--3--3--3--3--3--3--3--3--|--2--2--2--2--2--2--2--2--|
--------------------------|--------------------------|


  E  E  E  E  E  E  E  E     E  E  E  E  E  E  E  E   
--------------------------|--------------------------|
--------------------------|--------------------------|
--5--5--5--5--5--5--5--5--|--4--4--4--4--4--4--4--4--|
--------------------------|--------------------------|


  E  E  E  E  E  E  E  E     E  E  E  E  E  E  E  E   
--------------------------|--------------------------|
--------------------------|--------------------------|
--3--3--3--3--3--3--3--3--|--2--2--2--2--2--2--2--2--|
--------------------------|--------------------------|


  E  E  E  E  E  E  E  E     E  E  E  E  E  E    Q       E  E  E  Q    E  Q     
--------------------------|---------------------------|------------------------|
--------------------------|---------------------------|--------5--7------------|
--1--1--1--1--1--1--1--1--|--1--1--1--1--1--1s--12----|--0--3----------5--7----|
--------------------------|---------------------------|------------------------|


  E  E  E  E   E  E     E  E  E  Q    E  Q       E  E  Q     
---------------------|------------------------|-------------|
---------------------|--------5--7------------|-------------|
--3--5--5--5b--5--3--|--0--3----------5--7----|--3--5--5----|
---------------------|------------------------|-------------|


  E  E  E  Q    E  Q       E  E  E  E   E  E     E  E  E  Q    E  Q     
------------------------|---------------------|------------------------|
--------5--7------------|---------------------|--------5--7------------|
--0--3----------5--7----|--3--5--5--5b--5--3--|--0--3----------5--7----|
------------------------|---------------------|------------------------|


  E  E  Q       E  E  E  Q    E  Q       E  E  E  E   E  E   
-------------|------------------------|---------------------|
-------------|--------5--7------------|---------------------|
--3--5--5----|--0--3----------5--7----|--3--5--5--5b--5--3--|
-------------|------------------------|---------------------|


  E  E  E  Q    E  Q       E  E  Q       E  E  E  Q    E  Q     
------------------------|-------------|------------------------|
--------5--7------------|-------------|--------5--7------------|
--0--3----------5--7----|--3--5--5----|--0--3----------5--7----|
------------------------|-------------|------------------------|


  E  E  E  E   E  E     E  E  E  Q    E  Q       E  E  E  Q    E  Q     
---------------------|------------------------|------------------------|
---------------------|--------5--7------------|------------------------|
--3--5--5--5b--5--3--|--0--3----------5--7----|--3--5--3-------0-------|
---------------------|------------------------|-----------5-------3----|


  Q    E  Q    Q    E     Q    E  Q    Q    E     Q    E  Q    Q    E   
-------7---------------|-------7---------------|-------5---------------|
----------7---------7--|----------7---------7--|----------7---------7--|
--5------------5-------|--5------------5-------|--5------------5-------|
-----------------------|-----------------------|-----------------------|


  Q    E  Q    Q    E     Q    E  Q    Q    E     Q    E  Q    Q    E   
-------5---------------|-------7---------------|-------7---------------|
----------7---------7--|----------7---------7--|----------7---------7--|
--8------------8-------|--5------------5-------|--5------------5-------|
-----------------------|-----------------------|-----------------------|


  Q    E  Q    Q    E     Q    E  Q    Q    E     Q    E  Q    Q    E   
-------5---------------|-------5---------------|-------7---------------|
----------7---------7--|----------7---------7--|----------7---------7--|
--5------------5-------|--8------------8-------|--5------------5-------|
-----------------------|-----------------------|-----------------------|


  Q    E  Q    Q    E     Q    E  Q    Q    E     Q    E  Q    Q    E   
-------7---------------|-------5---------------|-------5---------------|
----------7---------7--|----------7---------7--|----------7---------7--|
--5------------5-------|--5------------5-------|--8------------8-------|
-----------------------|-----------------------|-----------------------|


  Q    E  Q    Q    E     Q    E  Q    Q    E     Q    E  Q    Q    E   
-------7---------------|-------7---------------|-------5---------------|
----------7---------7--|----------7---------7--|----------7---------7--|
--5------------5-------|--5------------5-------|--5------------5-------|
-----------------------|-----------------------|-----------------------|


  W                   W                                                         
-------------------|-------------------|-------------------|-------------------|
-------------------|-------------------|-------------------|-------------------|
--8----------------|--L----------------|-------------------|-------------------|
-------------------|-------------------|-------------------|-------------------|


-------------------|-------------------|-------------------|-------------------|
-------------------|-------------------|-------------------|-------------------|
-------------------|-------------------|-------------------|-------------------|
-------------------|-------------------|-------------------|-------------------|


-------------------|-------------------||
-------------------|-------------------||
-------------------|-------------------||
-------------------|-------------------||




Duration Legend
---------------
W - whole
H - half
Q - quarter
E - 8th
S - 16th
T - 32nd
X - 64th
. - note dotted
|-n-|  - n-tuplets

comments
We did not receive enough feedback on this tab! Please rate:
print report bad tab
1 2 3 4 5
I want to post or [tab]
guest
You may want to rate the tab now too:
select rating
Please do not post tabs as comments. Select "correction" instead!